  0
SECTION
  2
HEADER
  9
$ACADVER
  1
AC1006
  9
$EXTMIN
 10
3.851760
 20
0.610720
  9
$EXTMAX
 10
6.904040
 20
3.829320
  9
$LTSCALE
 40
0.044000
  9
$PDMODE
 70
    35
  9
$PDSIZE
 40
0.035200
  0
ENDSEC
  0
SECTION
  2
TABLES
  0
TABLE
  2
LTYPE
 70
     9
  0
LTYPE
  2
CONTINUOUS
 70
    64
  3
Solid line
 72
    65
 73
     0
 40
0.000000
  0
LTYPE
  2
DASHED
 70
    64
  3
__ __ __ __ __ __ __ __ __ __ __ __ __ __ __
 72
    65
 73
     2
 40
0.000330
 49
0.000220
 49
-0.000110
  0
LTYPE
  2
HIDDEN
 70
    64
  3
 _ _ _ _ _ _ _ _ _ _ _ _ _ _ _ _ _ _ _ _ _ _
 72
    65
 73
     2
 40
0.000165
 49
0.000110
 49
-0.000055
  0
LTYPE
  2
CENTER
 70
    64
  3
____ _ ____ _ ____ _ ____ _ ____ _ ____ _ ____
 72
    65
 73
     4
 40
0.000880
 49
0.000550
 49
-0.000110
 49
0.000110
 49
-0.000110
  0
LTYPE
  2
PHANTOM
 70
    64
  3
_____ _ _ _____ _ _ _____ _ _ _____ _ _ ____
 72
    65
 73
     6
 40
0.001100
 49
0.000550
 49
-0.000110
 49
0.000110
 49
-0.000110
 49
0.000110
 49
-0.000110
  0
LTYPE
  2
DOT
 70
    64
  3
...............................................
 72
    65
 73
     2
 40
0.000110
 49
0.000000
 49
-0.000110
  0
LTYPE
  2
DASHDOT
 70
    64
  3
__ . __ . __ . __ . __ . __ . __ . __ . __ . __
 72
    65
 73
     4
 40
0.000440
 49
0.000220
 49
-0.000110
 49
0.000000
 49
-0.000110
  0
LTYPE
  2
BORDER
 70
    64
  3
__ __ . __ __ . __ __ . __ __ . __ __ . __ __
 72
    65
 73
     6
 40
0.000770
 49
0.000220
 49
-0.000110
 49
0.000220
 49
-0.000110
 49
0.000000
 49
-0.000110
  0
LTYPE
  2
DIVIDE
 70
    64
  3
__ . . __ . . __ . . __ . . __ . . __ . . __
 72
    65
 73
     6
 40
0.000550
 49
0.000220
 49
-0.000110
 49
0.000000
 49
-0.000110
 49
0.000000
 49
-0.000110
  0
LTYPE
  2
DOTDOT
 70
    64
  3
 . .  . .  . .  . .  . .  . . 
 72
    65
 73
     5
 40
0.000242
 49
-0.000110
 49
0.000000
 49
-0.000110
 49
0.000000
 49
-0.000110
  0
ENDTAB
  0
TABLE
  2
STYLE
 70
     2
  0
STYLE
 70
     0
  2
SN0
 40
0.000000
 41
0.000440
 50
0.000000
 71
     0
 42
0.000000
  3
ROMAND
  0
STYLE
 70
    68
  2
SV0
 40
0.000000
 41
0.000440
 50
0.000000
 71
     0
 42
0.000000
  3
ROMAND
  0
ENDTAB
  0
TABLE
  2
LAYER
 70
     3
  0
LAYER
  2
FOREGROUND
 70
    64
 62
     7
  6
CONTINUOUS
  0
LAYER
  2
BACKGROUND
 70
    65
 62
    -7
  6
CONTINUOUS
  0
LAYER
  2
0
 70
    64
 62
     7
  6
CONTINUOUS
  0
ENDTAB
  0
ENDSEC
  0
SECTION
  2
ENTITIES
  0
POLYLINE
  8
FOREGROUND
  6
CONTINUOUS
 66
     1
 40
0.000000
 41
0.000000
  0
VERTEX
  8
FOREGROUND
  6
CONTINUOUS
 10
0.000000
 20
4.440040
  0
VERTEX
  8
FOREGROUND
  6
CONTINUOUS
 10
8.499920
 20
4.440040
  0
VERTEX
  8
FOREGROUND
  6
CONTINUOUS
 10
8.499920
 20
-6.559960
  0
VERTEX
  8
FOREGROUND
  6
CONTINUOUS
 10
0.000000
 20
-6.559960
  0
VERTEX
  8
FOREGROUND
  6
CONTINUOUS
 10
0.000000
 20
4.440040
  0
SEQEND
  8
0
  0
POLYLINE
  8
FOREGROUND
  6
CONTINUOUS
 66
     1
 40
0.000000
 41
0.000000
  0
VERTEX
  8
FOREGROUND
  6
CONTINUOUS
 10
0.000000
 20
4.440040
  0
VERTEX
  8
FOREGROUND
  6
CONTINUOUS
 10
8.499920
 20
4.440040
  0
VERTEX
  8
FOREGROUND
  6
CONTINUOUS
 10
8.499920
 20
-6.559960
  0
VERTEX
  8
FOREGROUND
  6
CONTINUOUS
 10
0.000000
 20
-6.559960
  0
VERTEX
  8
FOREGROUND
  6
CONTINUOUS
 10
0.000000
 20
4.440040
  0
SEQEND
  8
0
  0
SOLID
  8
0
 62
    15
 10
6.244920
 20
1.677280
 11
6.247560
 21
2.421320
 12
6.267800
 22
1.694440
 13
6.270440
 23
2.438920
  0
POLYLINE
  8
0
  6
CONTINUOUS
 66
     1
 40
0.000000
 41
0.000000
  0
VERTEX
  8
0
  6
CONTINUOUS
 10
6.244920
 20
1.677280
  0
VERTEX
  8
0
  6
CONTINUOUS
 10
6.247560
 20
2.421320
  0
VERTEX
  8
0
  6
CONTINUOUS
 10
6.270440
 20
2.438920
  0
VERTEX
  8
0
  6
CONTINUOUS
 10
6.267800
 20
1.694440
  0
VERTEX
  8
0
  6
CONTINUOUS
 10
6.244920
 20
1.677280
  0
SEQEND
  8
0
  0
SOLID
  8
0
 62
    15
 10
3.911160
 20
1.749880
 11
3.913800
 21
2.494360
 12
3.912040
 22
1.752520
 13
3.914680
 23
2.497000
  0
POLYLINE
  8
0
  6
CONTINUOUS
 66
     1
 40
0.000000
 41
0.000000
  0
VERTEX
  8
0
  6
CONTINUOUS
 10
3.911160
 20
1.749880
  0
VERTEX
  8
0
  6
CONTINUOUS
 10
3.913800
 20
2.494360
  0
VERTEX
  8
0
  6
CONTINUOUS
 10
3.914680
 20
2.497000
  0
VERTEX
  8
0
  6
CONTINUOUS
 10
3.912040
 20
1.752520
  0
VERTEX
  8
0
  6
CONTINUOUS
 10
3.911160
 20
1.749880
  0
SEQEND
  8
0
  0
SOLID
  8
0
 62
    15
 10
3.923480
 20
1.818080
 11
3.926120
 21
2.562560
 12
3.937120
 22
1.841400
 13
3.939760
 23
2.585440
  0
POLYLINE
  8
0
  6
CONTINUOUS
 66
     1
 40
0.000000
 41
0.000000
  0
VERTEX
  8
0
  6
CONTINUOUS
 10
3.923480
 20
1.818080
  0
VERTEX
  8
0
  6
CONTINUOUS
 10
3.926120
 20
2.562560
  0
VERTEX
  8
0
  6
CONTINUOUS
 10
3.939760
 20
2.585440
  0
VERTEX
  8
0
  6
CONTINUOUS
 10
3.937120
 20
1.841400
  0
VERTEX
  8
0
  6
CONTINUOUS
 10
3.923480
 20
1.818080
  0
SEQEND
  8
0
  0
SOLID
  8
0
 62
    15
 10
3.937120
 20
1.841400
 11
3.939760
 21
2.585440
 12
3.953840
 22
1.858560
 13
3.956480
 23
2.603040
  0
POLYLINE
  8
0
  6
CONTINUOUS
 66
     1
 40
0.000000
 41
0.000000
  0
VERTEX
  8
0
  6
CONTINUOUS
 10
3.937120
 20
1.841400
  0
VERTEX
  8
0
  6
CONTINUOUS
 10
3.939760
 20
2.585440
  0
VERTEX
  8
0
  6
CONTINUOUS
 10
3.956480
 20
2.603040
  0
VERTEX
  8
0
  6
CONTINUOUS
 10
3.953840
 20
1.858560
  0
VERTEX
  8
0
  6
CONTINUOUS
 10
3.937120
 20
1.841400
  0
SEQEND
  8
0
  0
SOLID
  8
0
 62
    15
 10
3.953840
 20
1.858560
 11
3.956480
 21
2.603040
 12
3.974080
 22
1.871320
 13
3.976720
 23
2.615800
  0
POLYLINE
  8
0
  6
CONTINUOUS
 66
     1
 40
0.000000
 41
0.000000
  0
VERTEX
  8
0
  6
CONTINUOUS
 10
3.953840
 20
1.858560
  0
VERTEX
  8
0
  6
CONTINUOUS
 10
3.956480
 20
2.603040
  0
VERTEX
  8
0
  6
CONTINUOUS
 10
3.976720
 20
2.615800
  0
VERTEX
  8
0
  6
CONTINUOUS
 10
3.974080
 20
1.871320
  0
VERTEX
  8
0
  6
CONTINUOUS
 10
3.953840
 20
1.858560
  0
SEQEND
  8
0
  0
SOLID
  8
0
 62
    15
 10
3.974080
 20
1.871320
 11
3.976720
 21
2.615800
 12
3.996080
 22
1.879240
 13
3.998720
 23
2.623720
  0
POLYLINE
  8
0
  6
CONTINUOUS
 66
     1
 40
0.000000
 41
0.000000
  0
VERTEX
  8
0
  6
CONTINUOUS
 10
3.974080
 20
1.871320
  0
VERTEX
  8
0
  6
CONTINUOUS
 10
3.976720
 20
2.615800
  0
VERTEX
  8
0
  6
CONTINUOUS
 10
3.998720
 20
2.623720
  0
VERTEX
  8
0
  6
CONTINUOUS
 10
3.996080
 20
1.879240
  0
VERTEX
  8
0
  6
CONTINUOUS
 10
3.974080
 20
1.871320
  0
SEQEND
  8
0
  0
SOLID
  8
0
 62
    15
 10
3.996080
 20
1.879240
 11
3.998720
 21
2.623720
 12
4.043160
 22
1.885400
 13
4.045800
 23
2.629880
  0
POLYLINE
  8
0
  6
CONTINUOUS
 66
     1
 40
0.000000
 41
0.000000
  0
VERTEX
  8
0
  6
CONTINUOUS
 10
3.996080
 20
1.879240
  0
VERTEX
  8
0
  6
CONTINUOUS
 10
3.998720
 20
2.623720
  0
VERTEX
  8
0
  6
CONTINUOUS
 10
4.045800
 20
2.629880
  0
VERTEX
  8
0
  6
CONTINUOUS
 10
4.043160
 20
1.885400
  0
VERTEX
  8
0
  6
CONTINUOUS
 10
3.996080
 20
1.879240
  0
SEQEND
  8
0
  0
SOLID
  8
0
 62
    15
 10
4.043160
 20
1.885400
 11
4.045800
 21
2.629880
 12
4.407480
 22
1.885400
 13
4.410120
 23
2.629880
  0
POLYLINE
  8
0
  6
CONTINUOUS
 66
     1
 40
0.000000
 41
0.000000
  0
VERTEX
  8
0
  6
CONTINUOUS
 10
4.043160
 20
1.885400
  0
VERTEX
  8
0
  6
CONTINUOUS
 10
4.045800
 20
2.629880
  0
VERTEX
  8
0
  6
CONTINUOUS
 10
4.410120
 20
2.629880
  0
VERTEX
  8
0
  6
CONTINUOUS
 10
4.407480
 20
1.885400
  0
VERTEX
  8
0
  6
CONTINUOUS
 10
4.043160
 20
1.885400
  0
SEQEND
  8
0
  0
SOLID
  8
0
 62
    15
 10
4.407480
 20
1.885400
 11
4.410120
 21
2.629880
 12
4.412320
 22
1.859000
 13
4.414960
 23
2.603480
  0
POLYLINE
  8
0
  6
CONTINUOUS
 66
     1
 40
0.000000
 41
0.000000
  0
VERTEX
  8
0
  6
CONTINUOUS
 10
4.407480
 20
1.885400
  0
VERTEX
  8
0
  6
CONTINUOUS
 10
4.410120
 20
2.629880
  0
VERTEX
  8
0
  6
CONTINUOUS
 10
4.414960
 20
2.603480
  0
VERTEX
  8
0
  6
CONTINUOUS
 10
4.412320
 20
1.859000
  0
VERTEX
  8
0
  6
CONTINUOUS
 10
4.407480
 20
1.885400
  0
SEQEND
  8
0
  0
SOLID
  8
0
 62
    15
 10
4.412320
 20
1.859000
 11
4.414960
 21
2.603480
 12
4.422000
 22
1.832600
 13
4.424640
 23
2.577080
  0
POLYLINE
  8
0
  6
CONTINUOUS
 66
     1
 40
0.000000
 41
0.000000
  0
VERTEX
  8
0
  6
CONTINUOUS
 10
4.412320
 20
1.859000
  0
VERTEX
  8
0
  6
CONTINUOUS
 10
4.414960
 20
2.603480
  0
VERTEX
  8
0
  6
CONTINUOUS
 10
4.424640
 20
2.577080
  0
VERTEX
  8
0
  6
CONTINUOUS
 10
4.422000
 20
1.832600
  0
VERTEX
  8
0
  6
CONTINUOUS
 10
4.412320
 20
1.859000
  0
SEQEND
  8
0
  0
SOLID
  8
0
 62
    15
 10
4.422000
 20
1.832600
 11
4.424640
 21
2.577080
 12
4.438280
 22
1.807080
 13
4.440920
 23
2.551560
  0
POLYLINE
  8
0
  6
CONTINUOUS
 66
     1
 40
0.000000
 41
0.000000
  0
VERTEX
  8
0
  6
CONTINUOUS
 10
4.422000
 20
1.832600
  0
VERTEX
  8
0
  6
CONTINUOUS
 10
4.424640
 20
2.577080
  0
VERTEX
  8
0
  6
CONTINUOUS
 10
4.440920
 20
2.551560
  0
VERTEX
  8
0
  6
CONTINUOUS
 10
4.438280
 20
1.807080
  0
VERTEX
  8
0
  6
CONTINUOUS
 10
4.422000
 20
1.832600
  0
SEQEND
  8
0
  0
SOLID
  8
0
 62
    15
 10
4.438280
 20
1.807080
 11
4.440920
 21
2.551560
 12
4.462040
 22
1.783760
 13
4.464680
 23
2.528240
  0
POLYLINE
  8
0
  6
CONTINUOUS
 66
     1
 40
0.000000
 41
0.000000
  0
VERTEX
  8
0
  6
CONTINUOUS
 10
4.438280
 20
1.807080
  0
VERTEX
  8
0
  6
CONTINUOUS
 10
4.440920
 20
2.551560
  0
VERTEX
  8
0
  6
CONTINUOUS
 10
4.464680
 20
2.528240
  0
VERTEX
  8
0
  6
CONTINUOUS
 10
4.462040
 20
1.783760
  0
VERTEX
  8
0
  6
CONTINUOUS
 10
4.438280
 20
1.807080
  0
SEQEND
  8
0
  0
SOLID
  8
0
 62
    15
 10
4.462040
 20
1.783760
 11
4.464680
 21
2.528240
 12
4.494600
 22
1.763520
 13
4.497240
 23
2.508000
  0
POLYLINE
  8
0
  6
CONTINUOUS
 66
     1
 40
0.000000
 41
0.000000
  0
VERTEX
  8
0
  6
CONTINUOUS
 10
4.462040
 20
1.783760
  0
VERTEX
  8
0
  6
CONTINUOUS
 10
4.464680
 20
2.528240
  0
VERTEX
  8
0
  6
CONTINUOUS
 10
4.497240
 20
2.508000
  0
VERTEX
  8
0
  6
CONTINUOUS
 10
4.494600
 20
1.763520
  0
VERTEX
  8
0
  6
CONTINUOUS
 10
4.462040
 20
1.783760
  0
SEQEND
  8
0
  0
SOLID
  8
0
 62
    15
 10
4.494600
 20
1.763520
 11
4.497240
 21
2.508000
 12
4.537720
 22
1.747680
 13
4.540360
 23
2.491720
  0
POLYLINE
  8
0
  6
CONTINUOUS
 66
     1
 40
0.000000
 41
0.000000
  0
VERTEX
  8
0
  6
CONTINUOUS
 10
4.494600
 20
1.763520
  0
VERTEX
  8
0
  6
CONTINUOUS
 10
4.497240
 20
2.508000
  0
VERTEX
  8
0
  6
CONTINUOUS
 10
4.540360
 20
2.491720
  0
VERTEX
  8
0
  6
CONTINUOUS
 10
4.537720
 20
1.747680
  0
VERTEX
  8
0
  6
CONTINUOUS
 10
4.494600
 20
1.763520
  0
SEQEND
  8
0
  0
SOLID
  8
0
 62
    15
 10
4.537720
 20
1.747680
 11
4.540360
 21
2.491720
 12
4.592280
 22
1.737120
 13
4.594920
 23
2.481600
  0
POLYLINE
  8
0
  6
CONTINUOUS
 66
     1
 40
0.000000
 41
0.000000
  0
VERTEX
  8
0
  6
CONTINUOUS
 10
4.537720
 20
1.747680
  0
VERTEX
  8
0
  6
CONTINUOUS
 10
4.540360
 20
2.491720
  0
VERTEX
  8
0
  6
CONTINUOUS
 10
4.594920
 20
2.481600
  0
VERTEX
  8
0
  6
CONTINUOUS
 10
4.592280
 20
1.737120
  0
VERTEX
  8
0
  6
CONTINUOUS
 10
4.537720
 20
1.747680
  0
SEQEND
  8
0
  0
SOLID
  8
0
 62
    15
 10
4.592280
 20
1.737120
 11
4.594920
 21
2.481600
 12
4.624400
 22
1.734480
 13
4.627040
 23
2.478960
  0
POLYLINE
  8
0
  6
CONTINUOUS
 66
     1
 40
0.000000
 41
0.000000
  0
VERTEX
  8
0
  6
CONTINUOUS
 10
4.592280
 20
1.737120
  0
VERTEX
  8
0
  6
CONTINUOUS
 10
4.594920
 20
2.481600
  0
VERTEX
  8
0
  6
CONTINUOUS
 10
4.627040
 20
2.478960
  0
VERTEX
  8
0
  6
CONTINUOUS
 10
4.624400
 20
1.734480
  0
VERTEX
  8
0
  6
CONTINUOUS
 10
4.592280
 20
1.737120
  0
SEQEND
  8
0
  0
SOLID
  8
0
 62
    15
 10
4.624400
 20
1.734480
 11
4.627040
 21
2.478960
 12
4.660040
 22
1.733160
 13
4.662680
 23
2.477640
  0
POLYLINE
  8
0
  6
CONTINUOUS
 66
     1
 40
0.000000
 41
0.000000
  0
VERTEX
  8
0
  6
CONTINUOUS
 10
4.624400
 20
1.734480
  0
VERTEX
  8
0
  6
CONTINUOUS
 10
4.627040
 20
2.478960
  0
VERTEX
  8
0
  6
CONTINUOUS
 10
4.662680
 20
2.477640
  0
VERTEX
  8
0
  6
CONTINUOUS
 10
4.660040
 20
1.733160
  0
VERTEX
  8
0
  6
CONTINUOUS
 10
4.624400
 20
1.734480
  0
SEQEND
  8
0
  0
SOLID
  8
0
 62
    15
 10
6.035920
 20
1.555840
 11
6.038560
 21
2.300320
 12
6.198280
 22
1.555840
 13
6.200920
 23
2.300320
  0
POLYLINE
  8
0
  6
CONTINUOUS
 66
     1
 40
0.000000
 41
0.000000
  0
VERTEX
  8
0
  6
CONTINUOUS
 10
6.035920
 20
1.555840
  0
VERTEX
  8
0
  6
CONTINUOUS
 10
6.038560
 20
2.300320
  0
VERTEX
  8
0
  6
CONTINUOUS
 10
6.200920
 20
2.300320
  0
VERTEX
  8
0
  6
CONTINUOUS
 10
6.198280
 20
1.555840
  0
VERTEX
  8
0
  6
CONTINUOUS
 10
6.035920
 20
1.555840
  0
SEQEND
  8
0
  0
SOLID
  8
0
 62
    15
 10
6.025360
 20
1.733160
 11
6.028000
 21
2.477640
 12
6.035920
 22
1.555840
 13
6.038560
 23
2.300320
  0
POLYLINE
  8
0
  6
CONTINUOUS
 66
     1
 40
0.000000
 41
0.000000
  0
VERTEX
  8
0
  6
CONTINUOUS
 10
6.025360
 20
1.733160
  0
VERTEX
  8
0
  6
CONTINUOUS
 10
6.028000
 20
2.477640
  0
VERTEX
  8
0
  6
CONTINUOUS
 10
6.038560
 20
2.300320
  0
VERTEX
  8
0
  6
CONTINUOUS
 10
6.035920
 20
1.555840
  0
VERTEX
  8
0
  6
CONTINUOUS
 10
6.025360
 20
1.733160
  0
SEQEND
  8
0
  0
SOLID
  8
0
 62
    15
 10
4.660040
 20
1.733160
 11
4.662680
 21
2.477640
 12
6.025360
 22
1.733160
 13
6.028000
 23
2.477640
  0
POLYLINE
  8
0
  6
CONTINUOUS
 66
     1
 40
0.000000
 41
0.000000
  0
VERTEX
  8
0
  6
CONTINUOUS
 10
4.660040
 20
1.733160
  0
VERTEX
  8
0
  6
CONTINUOUS
 10
4.662680
 20
2.477640
  0
VERTEX
  8
0
  6
CONTINUOUS
 10
6.028000
 20
2.477640
  0
VERTEX
  8
0
  6
CONTINUOUS
 10
6.025360
 20
1.733160
  0
VERTEX
  8
0
  6
CONTINUOUS
 10
4.660040
 20
1.733160
  0
SEQEND
  8
0
  0
SOLID
  8
0
 62
    15
 10
6.198280
 20
1.555840
 11
6.200920
 21
2.300320
 12
6.201360
 22
1.594120
 13
6.204000
 23
2.338600
  0
POLYLINE
  8
0
  6
CONTINUOUS
 66
     1
 40
0.000000
 41
0.000000
  0
VERTEX
  8
0
  6
CONTINUOUS
 10
6.198280
 20
1.555840
  0
VERTEX
  8
0
  6
CONTINUOUS
 10
6.200920
 20
2.300320
  0
VERTEX
  8
0
  6
CONTINUOUS
 10
6.204000
 20
2.338600
  0
VERTEX
  8
0
  6
CONTINUOUS
 10
6.201360
 20
1.594120
  0
VERTEX
  8
0
  6
CONTINUOUS
 10
6.198280
 20
1.555840
  0
SEQEND
  8
0
  0
SOLID
  8
0
 62
    15
 10
6.201360
 20
1.594120
 11
6.204000
 21
2.338600
 12
6.211040
 22
1.626680
 13
6.213680
 23
2.371160
  0
POLYLINE
  8
0
  6
CONTINUOUS
 66
     1
 40
0.000000
 41
0.000000
  0
VERTEX
  8
0
  6
CONTINUOUS
 10
6.201360
 20
1.594120
  0
VERTEX
  8
0
  6
CONTINUOUS
 10
6.204000
 20
2.338600
  0
VERTEX
  8
0
  6
CONTINUOUS
 10
6.213680
 20
2.371160
  0
VERTEX
  8
0
  6
CONTINUOUS
 10
6.211040
 20
1.626680
  0
VERTEX
  8
0
  6
CONTINUOUS
 10
6.201360
 20
1.594120
  0
SEQEND
  8
0
  0
SOLID
  8
0
 62
    15
 10
6.211040
 20
1.626680
 11
6.213680
 21
2.371160
 12
6.226000
 22
1.654400
 13
6.228640
 23
2.398880
  0
POLYLINE
  8
0
  6
CONTINUOUS
 66
     1
 40
0.000000
 41
0.000000
  0
VERTEX
  8
0
  6
CONTINUOUS
 10
6.211040
 20
1.626680
  0
VERTEX
  8
0
  6
CONTINUOUS
 10
6.213680
 20
2.371160
  0
VERTEX
  8
0
  6
CONTINUOUS
 10
6.228640
 20
2.398880
  0
VERTEX
  8
0
  6
CONTINUOUS
 10
6.226000
 20
1.654400
  0
VERTEX
  8
0
  6
CONTINUOUS
 10
6.211040
 20
1.626680
  0
SEQEND
  8
0
  0
SOLID
  8
0
 62
    15
 10
6.226000
 20
1.654400
 11
6.228640
 21
2.398880
 12
6.244920
 22
1.677280
 13
6.247560
 23
2.421320
  0
POLYLINE
  8
0
  6
CONTINUOUS
 66
     1
 40
0.000000
 41
0.000000
  0
VERTEX
  8
0
  6
CONTINUOUS
 10
6.226000
 20
1.654400
  0
VERTEX
  8
0
  6
CONTINUOUS
 10
6.228640
 20
2.398880
  0
VERTEX
  8
0
  6
CONTINUOUS
 10
6.247560
 20
2.421320
  0
VERTEX
  8
0
  6
CONTINUOUS
 10
6.244920
 20
1.677280
  0
VERTEX
  8
0
  6
CONTINUOUS
 10
6.226000
 20
1.654400
  0
SEQEND
  8
0
  0
SOLID
  8
0
 62
    15
 10
3.912040
 20
1.752520
 11
3.914680
 21
2.497000
 12
3.915120
 22
1.788600
 13
3.917760
 23
2.533080
  0
POLYLINE
  8
0
  6
CONTINUOUS
 66
     1
 40
0.000000
 41
0.000000
  0
VERTEX
  8
0
  6
CONTINUOUS
 10
3.912040
 20
1.752520
  0
VERTEX
  8
0
  6
CONTINUOUS
 10
3.914680
 20
2.497000
  0
VERTEX
  8
0
  6
CONTINUOUS
 10
3.917760
 20
2.533080
  0
VERTEX
  8
0
  6
CONTINUOUS
 10
3.915120
 20
1.788600
  0
VERTEX
  8
0
  6
CONTINUOUS
 10
3.912040
 20
1.752520
  0
SEQEND
  8
0
  0
SOLID
  8
0
 62
    15
 10
6.267800
 20
1.694440
 11
6.270440
 21
2.438920
 12
6.292880
 22
1.707200
 13
6.295520
 23
2.451680
  0
POLYLINE
  8
0
  6
CONTINUOUS
 66
     1
 40
0.000000
 41
0.000000
  0
VERTEX
  8
0
  6
CONTINUOUS
 10
6.267800
 20
1.694440
  0
VERTEX
  8
0
  6
CONTINUOUS
 10
6.270440
 20
2.438920
  0
VERTEX
  8
0
  6
CONTINUOUS
 10
6.295520
 20
2.451680
  0
VERTEX
  8
0
  6
CONTINUOUS
 10
6.292880
 20
1.707200
  0
VERTEX
  8
0
  6
CONTINUOUS
 10
6.267800
 20
1.694440
  0
SEQEND
  8
0
  0
SOLID
  8
0
 62
    15
 10
6.292880
 20
1.707200
 11
6.295520
 21
2.451680
 12
6.320160
 22
1.714680
 13
6.322800
 23
2.458720
  0
POLYLINE
  8
0
  6
CONTINUOUS
 66
     1
 40
0.000000
 41
0.000000
  0
VERTEX
  8
0
  6
CONTINUOUS
 10
6.292880
 20
1.707200
  0
VERTEX
  8
0
  6
CONTINUOUS
 10
6.295520
 20
2.451680
  0
VERTEX
  8
0
  6
CONTINUOUS
 10
6.322800
 20
2.458720
  0
VERTEX
  8
0
  6
CONTINUOUS
 10
6.320160
 20
1.714680
  0
VERTEX
  8
0
  6
CONTINUOUS
 10
6.292880
 20
1.707200
  0
SEQEND
  8
0
  0
SOLID
  8
0
 62
    15
 10
6.320160
 20
1.714680
 11
6.322800
 21
2.458720
 12
6.348320
 22
1.716880
 13
6.350960
 23
2.461360
  0
POLYLINE
  8
0
  6
CONTINUOUS
 66
     1
 40
0.000000
 41
0.000000
  0
VERTEX
  8
0
  6
CONTINUOUS
 10
6.320160
 20
1.714680
  0
VERTEX
  8
0
  6
CONTINUOUS
 10
6.322800
 20
2.458720
  0
VERTEX
  8
0
  6
CONTINUOUS
 10
6.350960
 20
2.461360
  0
VERTEX
  8
0
  6
CONTINUOUS
 10
6.348320
 20
1.716880
  0
VERTEX
  8
0
  6
CONTINUOUS
 10
6.320160
 20
1.714680
  0
SEQEND
  8
0
  0
SOLID
  8
0
 62
    15
 10
6.348320
 20
1.716880
 11
6.350960
 21
2.461360
 12
6.376040
 22
1.714240
 13
6.378680
 23
2.458720
  0
POLYLINE
  8
0
  6
CONTINUOUS
 66
     1
 40
0.000000
 41
0.000000
  0
VERTEX
  8
0
  6
CONTINUOUS
 10
6.348320
 20
1.716880
  0
VERTEX
  8
0
  6
CONTINUOUS
 10
6.350960
 20
2.461360
  0
VERTEX
  8
0
  6
CONTINUOUS
 10
6.378680
 20
2.458720
  0
VERTEX
  8
0
  6
CONTINUOUS
 10
6.376040
 20
1.714240
  0
VERTEX
  8
0
  6
CONTINUOUS
 10
6.348320
 20
1.716880
  0
SEQEND
  8
0
  0
SOLID
  8
0
 62
    15
 10
6.376040
 20
1.714240
 11
6.378680
 21
2.458720
 12
6.403320
 22
1.706320
 13
6.405960
 23
2.450800
  0
POLYLINE
  8
0
  6
CONTINUOUS
 66
     1
 40
0.000000
 41
0.000000
  0
VERTEX
  8
0
  6
CONTINUOUS
 10
6.376040
 20
1.714240
  0
VERTEX
  8
0
  6
CONTINUOUS
 10
6.378680
 20
2.458720
  0
VERTEX
  8
0
  6
CONTINUOUS
 10
6.405960
 20
2.450800
  0
VERTEX
  8
0
  6
CONTINUOUS
 10
6.403320
 20
1.706320
  0
VERTEX
  8
0
  6
CONTINUOUS
 10
6.376040
 20
1.714240
  0
SEQEND
  8
0
  0
SOLID
  8
0
 62
    15
 10
6.403320
 20
1.706320
 11
6.405960
 21
2.450800
 12
6.428400
 22
1.694000
 13
6.431040
 23
2.438040
  0
POLYLINE
  8
0
  6
CONTINUOUS
 66
     1
 40
0.000000
 41
0.000000
  0
VERTEX
  8
0
  6
CONTINUOUS
 10
6.403320
 20
1.706320
  0
VERTEX
  8
0
  6
CONTINUOUS
 10
6.405960
 20
2.450800
  0
VERTEX
  8
0
  6
CONTINUOUS
 10
6.431040
 20
2.438040
  0
VERTEX
  8
0
  6
CONTINUOUS
 10
6.428400
 20
1.694000
  0
VERTEX
  8
0
  6
CONTINUOUS
 10
6.403320
 20
1.706320
  0
SEQEND
  8
0
  0
SOLID
  8
0
 62
    15
 10
6.428400
 20
1.694000
 11
6.431040
 21
2.438040
 12
6.451280
 22
1.675960
 13
6.453920
 23
2.420440
  0
POLYLINE
  8
0
  6
CONTINUOUS
 66
     1
 40
0.000000
 41
0.000000
  0
VERTEX
  8
0
  6
CONTINUOUS
 10
6.428400
 20
1.694000
  0
VERTEX
  8
0
  6
CONTINUOUS
 10
6.431040
 20
2.438040
  0
VERTEX
  8
0
  6
CONTINUOUS
 10
6.453920
 20
2.420440
  0
VERTEX
  8
0
  6
CONTINUOUS
 10
6.451280
 20
1.675960
  0
VERTEX
  8
0
  6
CONTINUOUS
 10
6.428400
 20
1.694000
  0
SEQEND
  8
0
  0
SOLID
  8
0
 62
    15
 10
6.451280
 20
1.675960
 11
6.453920
 21
2.420440
 12
6.470640
 22
1.653520
 13
6.473280
 23
2.398000
  0
POLYLINE
  8
0
  6
CONTINUOUS
 66
     1
 40
0.000000
 41
0.000000
  0
VERTEX
  8
0
  6
CONTINUOUS
 10
6.451280
 20
1.675960
  0
VERTEX
  8
0
  6
CONTINUOUS
 10
6.453920
 20
2.420440
  0
VERTEX
  8
0
  6
CONTINUOUS
 10
6.473280
 20
2.398000
  0
VERTEX
  8
0
  6
CONTINUOUS
 10
6.470640
 20
1.653520
  0
VERTEX
  8
0
  6
CONTINUOUS
 10
6.451280
 20
1.675960
  0
SEQEND
  8
0
  0
SOLID
  8
0
 62
    15
 10
6.470640
 20
1.653520
 11
6.473280
 21
2.398000
 12
6.485160
 22
1.625800
 13
6.487800
 23
2.370280
  0
POLYLINE
  8
0
  6
CONTINUOUS
 66
     1
 40
0.000000
 41
0.000000
  0
VERTEX
  8
0
  6
CONTINUOUS
 10
6.470640
 20
1.653520
  0
VERTEX
  8
0
  6
CONTINUOUS
 10
6.473280
 20
2.398000
  0
VERTEX
  8
0
  6
CONTINUOUS
 10
6.487800
 20
2.370280
  0
VERTEX
  8
0
  6
CONTINUOUS
 10
6.485160
 20
1.625800
  0
VERTEX
  8
0
  6
CONTINUOUS
 10
6.470640
 20
1.653520
  0
SEQEND
  8
0
  0
SOLID
  8
0
 62
    15
 10
6.497920
 20
1.555840
 11
6.501000
 21
2.300320
 12
6.595600
 22
1.555840
 13
6.598680
 23
2.300320
  0
POLYLINE
  8
0
  6
CONTINUOUS
 66
     1
 40
0.000000
 41
0.000000
  0
VERTEX
  8
0
  6
CONTINUOUS
 10
6.497920
 20
1.555840
  0
VERTEX
  8
0
  6
CONTINUOUS
 10
6.501000
 20
2.300320
  0
VERTEX
  8
0
  6
CONTINUOUS
 10
6.598680
 20
2.300320
  0
VERTEX
  8
0
  6
CONTINUOUS
 10
6.595600
 20
1.555840
  0
VERTEX
  8
0
  6
CONTINUOUS
 10
6.497920
 20
1.555840
  0
SEQEND
  8
0
  0
SOLID
  8
0
 62
    15
 10
6.494840
 20
1.593240
 11
6.497480
 21
2.337720
 12
6.497920
 22
1.555840
 13
6.501000
 23
2.300320
  0
POLYLINE
  8
0
  6
CONTINUOUS
 66
     1
 40
0.000000
 41
0.000000
  0
VERTEX
  8
0
  6
CONTINUOUS
 10
6.494840
 20
1.593240
  0
VERTEX
  8
0
  6
CONTINUOUS
 10
6.497480
 20
2.337720
  0
VERTEX
  8
0
  6
CONTINUOUS
 10
6.501000
 20
2.300320
  0
VERTEX
  8
0
  6
CONTINUOUS
 10
6.497920
 20
1.555840
  0
VERTEX
  8
0
  6
CONTINUOUS
 10
6.494840
 20
1.593240
  0
SEQEND
  8
0
  0
SOLID
  8
0
 62
    15
 10
6.485160
 20
1.625800
 11
6.487800
 21
2.370280
 12
6.494840
 22
1.593240
 13
6.497480
 23
2.337720
  0
POLYLINE
  8
0
  6
CONTINUOUS
 66
     1
 40
0.000000
 41
0.000000
  0
VERTEX
  8
0
  6
CONTINUOUS
 10
6.485160
 20
1.625800
  0
VERTEX
  8
0
  6
CONTINUOUS
 10
6.487800
 20
2.370280
  0
VERTEX
  8
0
  6
CONTINUOUS
 10
6.497480
 20
2.337720
  0
VERTEX
  8
0
  6
CONTINUOUS
 10
6.494840
 20
1.593240
  0
VERTEX
  8
0
  6
CONTINUOUS
 10
6.485160
 20
1.625800
  0
SEQEND
  8
0
  0
SOLID
  8
0
 62
    15
 10
6.595600
 20
1.555840
 11
6.598680
 21
2.300320
 12
6.616280
 22
1.554080
 13
6.618920
 23
2.298560
  0
POLYLINE
  8
0
  6
CONTINUOUS
 66
     1
 40
0.000000
 41
0.000000
  0
VERTEX
  8
0
  6
CONTINUOUS
 10
6.595600
 20
1.555840
  0
VERTEX
  8
0
  6
CONTINUOUS
 10
6.598680
 20
2.300320
  0
VERTEX
  8
0
  6
CONTINUOUS
 10
6.618920
 20
2.298560
  0
VERTEX
  8
0
  6
CONTINUOUS
 10
6.616280
 20
1.554080
  0
VERTEX
  8
0
  6
CONTINUOUS
 10
6.595600
 20
1.555840
  0
SEQEND
  8
0
  0
SOLID
  8
0
 62
    15
 10
6.616280
 20
1.554080
 11
6.618920
 21
2.298560
 12
6.631680
 22
1.549680
 13
6.634320
 23
2.294160
  0
POLYLINE
  8
0
  6
CONTINUOUS
 66
     1
 40
0.000000
 41
0.000000
  0
VERTEX
  8
0
  6
CONTINUOUS
 10
6.616280
 20
1.554080
  0
VERTEX
  8
0
  6
CONTINUOUS
 10
6.618920
 20
2.298560
  0
VERTEX
  8
0
  6
CONTINUOUS
 10
6.634320
 20
2.294160
  0
VERTEX
  8
0
  6
CONTINUOUS
 10
6.631680
 20
1.549680
  0
VERTEX
  8
0
  6
CONTINUOUS
 10
6.616280
 20
1.554080
  0
SEQEND
  8
0
  0
SOLID
  8
0
 62
    15
 10
6.631680
 20
1.549680
 11
6.634320
 21
2.294160
 12
6.652360
 22
1.534280
 13
6.655000
 23
2.278760
  0
POLYLINE
  8
0
  6
CONTINUOUS
 66
     1
 40
0.000000
 41
0.000000
  0
VERTEX
  8
0
  6
CONTINUOUS
 10
6.631680
 20
1.549680
  0
VERTEX
  8
0
  6
CONTINUOUS
 10
6.634320
 20
2.294160
  0
VERTEX
  8
0
  6
CONTINUOUS
 10
6.655000
 20
2.278760
  0
VERTEX
  8
0
  6
CONTINUOUS
 10
6.652360
 20
1.534280
  0
VERTEX
  8
0
  6
CONTINUOUS
 10
6.631680
 20
1.549680
  0
SEQEND
  8
0
  0
SOLID
  8
0
 62
    15
 10
6.652360
 20
1.534280
 11
6.655000
 21
2.278760
 12
6.670400
 22
1.514920
 13
6.673040
 23
2.259400
  0
POLYLINE
  8
0
  6
CONTINUOUS
 66
     1
 40
0.000000
 41
0.000000
  0
VERTEX
  8
0
  6
CONTINUOUS
 10
6.652360
 20
1.534280
  0
VERTEX
  8
0
  6
CONTINUOUS
 10
6.655000
 20
2.278760
  0
VERTEX
  8
0
  6
CONTINUOUS
 10
6.673040
 20
2.259400
  0
VERTEX
  8
0
  6
CONTINUOUS
 10
6.670400
 20
1.514920
  0
VERTEX
  8
0
  6
CONTINUOUS
 10
6.652360
 20
1.534280
  0
SEQEND
  8
0
  0
SOLID
  8
0
 62
    15
 10
6.670400
 20
1.514920
 11
6.673040
 21
2.259400
 12
6.681840
 22
1.505240
 13
6.684480
 23
2.249720
  0
POLYLINE
  8
0
  6
CONTINUOUS
 66
     1
 40
0.000000
 41
0.000000
  0
VERTEX
  8
0
  6
CONTINUOUS
 10
6.670400
 20
1.514920
  0
VERTEX
  8
0
  6
CONTINUOUS
 10
6.673040
 20
2.259400
  0
VERTEX
  8
0
  6
CONTINUOUS
 10
6.684480
 20
2.249720
  0
VERTEX
  8
0
  6
CONTINUOUS
 10
6.681840
 20
1.505240
  0
VERTEX
  8
0
  6
CONTINUOUS
 10
6.670400
 20
1.514920
  0
SEQEND
  8
0
  0
SOLID
  8
0
 62
    15
 10
6.681840
 20
1.505240
 11
6.684480
 21
2.249720
 12
6.697240
 22
1.496440
 13
6.699880
 23
2.240920
  0
POLYLINE
  8
0
  6
CONTINUOUS
 66
     1
 40
0.000000
 41
0.000000
  0
VERTEX
  8
0
  6
CONTINUOUS
 10
6.681840
 20
1.505240
  0
VERTEX
  8
0
  6
CONTINUOUS
 10
6.684480
 20
2.249720
  0
VERTEX
  8
0
  6
CONTINUOUS
 10
6.699880
 20
2.240920
  0
VERTEX
  8
0
  6
CONTINUOUS
 10
6.697240
 20
1.496440
  0
VERTEX
  8
0
  6
CONTINUOUS
 10
6.681840
 20
1.505240
  0
SEQEND
  8
0
  0
SOLID
  8
0
 62
    15
 10
6.697240
 20
1.496440
 11
6.699880
 21
2.240920
 12
6.765000
 22
1.469600
 13
6.767640
 23
2.214080
  0
POLYLINE
  8
0
  6
CONTINUOUS
 66
     1
 40
0.000000
 41
0.000000
  0
VERTEX
  8
0
  6
CONTINUOUS
 10
6.697240
 20
1.496440
  0
VERTEX
  8
0
  6
CONTINUOUS
 10
6.699880
 20
2.240920
  0
VERTEX
  8
0
  6
CONTINUOUS
 10
6.767640
 20
2.214080
  0
VERTEX
  8
0
  6
CONTINUOUS
 10
6.765000
 20
1.469600
  0
VERTEX
  8
0
  6
CONTINUOUS
 10
6.697240
 20
1.496440
  0
SEQEND
  8
0
  0
SOLID
  8
0
 62
    15
 10
6.765000
 20
1.469600
 11
6.767640
 21
2.214080
 12
6.794920
 22
1.461240
 13
6.797560
 23
2.205720
  0
POLYLINE
  8
0
  6
CONTINUOUS
 66
     1
 40
0.000000
 41
0.000000
  0
VERTEX
  8
0
  6
CONTINUOUS
 10
6.765000
 20
1.469600
  0
VERTEX
  8
0
  6
CONTINUOUS
 10
6.767640
 20
2.214080
  0
VERTEX
  8
0
  6
CONTINUOUS
 10
6.797560
 20
2.205720
  0
VERTEX
  8
0
  6
CONTINUOUS
 10
6.794920
 20
1.461240
  0
VERTEX
  8
0
  6
CONTINUOUS
 10
6.765000
 20
1.469600
  0
SEQEND
  8
0
  0
SOLID
  8
0
 62
    15
 10
6.794920
 20
1.461240
 11
6.797560
 21
2.205720
 12
6.820880
 22
1.458160
 13
6.823520
 23
2.202640
  0
POLYLINE
  8
0
  6
CONTINUOUS
 66
     1
 40
0.000000
 41
0.000000
  0
VERTEX
  8
0
  6
CONTINUOUS
 10
6.794920
 20
1.461240
  0
VERTEX
  8
0
  6
CONTINUOUS
 10
6.797560
 20
2.205720
  0
VERTEX
  8
0
  6
CONTINUOUS
 10
6.823520
 20
2.202640
  0
VERTEX
  8
0
  6
CONTINUOUS
 10
6.820880
 20
1.458160
  0
VERTEX
  8
0
  6
CONTINUOUS
 10
6.794920
 20
1.461240
  0
SEQEND
  8
0
  0
SOLID
  8
0
 62
    15
 10
6.901400
 20
1.458160
 11
6.904040
 21
2.202640
 12
6.901400
 22
1.071840
 13
6.904040
 23
1.816320
  0
POLYLINE
  8
0
  6
CONTINUOUS
 66
     1
 40
0.000000
 41
0.000000
  0
VERTEX
  8
0
  6
CONTINUOUS
 10
6.901400
 20
1.458160
  0
VERTEX
  8
0
  6
CONTINUOUS
 10
6.904040
 20
2.202640
  0
VERTEX
  8
0
  6
CONTINUOUS
 10
6.904040
 20
1.816320
  0
VERTEX
  8
0
  6
CONTINUOUS
 10
6.901400
 20
1.071840
  0
VERTEX
  8
0
  6
CONTINUOUS
 10
6.901400
 20
1.458160
  0
SEQEND
  8
0
  0
SOLID
  8
0
 62
    15
 10
6.820880
 20
1.458160
 11
6.823520
 21
2.202640
 12
6.901400
 22
1.458160
 13
6.904040
 23
2.202640
  0
POLYLINE
  8
0
  6
CONTINUOUS
 66
     1
 40
0.000000
 41
0.000000
  0
VERTEX
  8
0
  6
CONTINUOUS
 10
6.820880
 20
1.458160
  0
VERTEX
  8
0
  6
CONTINUOUS
 10
6.823520
 20
2.202640
  0
VERTEX
  8
0
  6
CONTINUOUS
 10
6.904040
 20
2.202640
  0
VERTEX
  8
0
  6
CONTINUOUS
 10
6.901400
 20
1.458160
  0
VERTEX
  8
0
  6
CONTINUOUS
 10
6.820880
 20
1.458160
  0
SEQEND
  8
0
  0
SOLID
  8
0
 62
    15
 10
3.915120
 20
1.788600
 11
3.917760
 21
2.533080
 12
3.923480
 22
1.818080
 13
3.926120
 23
2.562560
  0
POLYLINE
  8
0
  6
CONTINUOUS
 66
     1
 40
0.000000
 41
0.000000
  0
VERTEX
  8
0
  6
CONTINUOUS
 10
3.915120
 20
1.788600
  0
VERTEX
  8
0
  6
CONTINUOUS
 10
3.917760
 20
2.533080
  0
VERTEX
  8
0
  6
CONTINUOUS
 10
3.926120
 20
2.562560
  0
VERTEX
  8
0
  6
CONTINUOUS
 10
3.923480
 20
1.818080
  0
VERTEX
  8
0
  6
CONTINUOUS
 10
3.915120
 20
1.788600
  0
SEQEND
  8
0
  0
POLYLINE
  8
0
  6
CONTINUOUS
 66
     1
 40
0.000000
 41
0.000000
  0
VERTEX
  8
0
  6
CONTINUOUS
 10
3.912040
 20
1.752520
  0
VERTEX
  8
0
  6
CONTINUOUS
 10
3.915120
 20
1.788600
  0
VERTEX
  8
0
  6
CONTINUOUS
 10
3.923480
 20
1.818080
  0
VERTEX
  8
0
  6
CONTINUOUS
 10
3.937120
 20
1.841400
  0
VERTEX
  8
0
  6
CONTINUOUS
 10
3.953840
 20
1.858560
  0
VERTEX
  8
0
  6
CONTINUOUS
 10
3.974080
 20
1.871320
  0
VERTEX
  8
0
  6
CONTINUOUS
 10
3.996080
 20
1.879240
  0
VERTEX
  8
0
  6
CONTINUOUS
 10
4.043160
 20
1.885400
  0
VERTEX
  8
0
  6
CONTINUOUS
 10
4.407480
 20
1.885400
  0
VERTEX
  8
0
  6
CONTINUOUS
 10
4.412320
 20
1.859000
  0
VERTEX
  8
0
  6
CONTINUOUS
 10
4.422000
 20
1.832600
  0
VERTEX
  8
0
  6
CONTINUOUS
 10
4.438280
 20
1.807080
  0
VERTEX
  8
0
  6
CONTINUOUS
 10
4.462040
 20
1.783760
  0
VERTEX
  8
0
  6
CONTINUOUS
 10
4.494600
 20
1.763520
  0
VERTEX
  8
0
  6
CONTINUOUS
 10
4.537720
 20
1.747680
  0
VERTEX
  8
0
  6
CONTINUOUS
 10
4.592280
 20
1.737120
  0
VERTEX
  8
0
  6
CONTINUOUS
 10
4.624400
 20
1.734480
  0
VERTEX
  8
0
  6
CONTINUOUS
 10
4.660040
 20
1.733160
  0
VERTEX
  8
0
  6
CONTINUOUS
 10
6.025360
 20
1.733160
  0
VERTEX
  8
0
  6
CONTINUOUS
 10
6.035920
 20
1.555840
  0
VERTEX
  8
0
  6
CONTINUOUS
 10
6.198280
 20
1.555840
  0
VERTEX
  8
0
  6
CONTINUOUS
 10
6.201360
 20
1.594120
  0
VERTEX
  8
0
  6
CONTINUOUS
 10
6.211040
 20
1.626680
  0
VERTEX
  8
0
  6
CONTINUOUS
 10
6.226000
 20
1.654400
  0
VERTEX
  8
0
  6
CONTINUOUS
 10
6.244920
 20
1.677280
  0
VERTEX
  8
0
  6
CONTINUOUS
 10
6.267800
 20
1.694440
  0
VERTEX
  8
0
  6
CONTINUOUS
 10
6.292880
 20
1.707200
  0
VERTEX
  8
0
  6
CONTINUOUS
 10
6.320160
 20
1.714680
  0
VERTEX
  8
0
  6
CONTINUOUS
 10
6.348320
 20
1.716880
  0
VERTEX
  8
0
  6
CONTINUOUS
 10
6.376040
 20
1.714240
  0
VERTEX
  8
0
  6
CONTINUOUS
 10
6.403320
 20
1.706320
  0
VERTEX
  8
0
  6
CONTINUOUS
 10
6.428400
 20
1.694000
  0
VERTEX
  8
0
  6
CONTINUOUS
 10
6.451280
 20
1.675960
  0
VERTEX
  8
0
  6
CONTINUOUS
 10
6.470640
 20
1.653520
  0
VERTEX
  8
0
  6
CONTINUOUS
 10
6.485160
 20
1.625800
  0
VERTEX
  8
0
  6
CONTINUOUS
 10
6.494840
 20
1.593240
  0
VERTEX
  8
0
  6
CONTINUOUS
 10
6.497920
 20
1.555840
  0
VERTEX
  8
0
  6
CONTINUOUS
 10
6.595600
 20
1.555840
  0
VERTEX
  8
0
  6
CONTINUOUS
 10
6.616280
 20
1.554080
  0
VERTEX
  8
0
  6
CONTINUOUS
 10
6.631680
 20
1.549680
  0
VERTEX
  8
0
  6
CONTINUOUS
 10
6.652360
 20
1.534280
  0
VERTEX
  8
0
  6
CONTINUOUS
 10
6.670400
 20
1.514920
  0
VERTEX
  8
0
  6
CONTINUOUS
 10
6.681840
 20
1.505240
  0
VERTEX
  8
0
  6
CONTINUOUS
 10
6.697240
 20
1.496440
  0
VERTEX
  8
0
  6
CONTINUOUS
 10
6.765000
 20
1.469600
  0
VERTEX
  8
0
  6
CONTINUOUS
 10
6.794920
 20
1.461240
  0
VERTEX
  8
0
  6
CONTINUOUS
 10
6.820880
 20
1.458160
  0
VERTEX
  8
0
  6
CONTINUOUS
 10
6.901400
 20
1.458160
  0
VERTEX
  8
0
  6
CONTINUOUS
 10
6.901400
 20
1.071840
  0
VERTEX
  8
0
  6
CONTINUOUS
 10
3.911160
 20
1.071840
  0
VERTEX
  8
0
  6
CONTINUOUS
 10
3.911160
 20
1.749880
  0
VERTEX
  8
0
  6
CONTINUOUS
 10
3.912040
 20
1.752520
  0
SEQEND
  8
0
  0
TEXT
  8
0
 10
5.112360
 20
0.845680
 40
0.138083
  1
BA  835
 41
1.000000
  7
SN0
 71
     0
 72
     5
 11
5.702490
 21
0.845680
  0
TEXT
  8
0
 10
5.007200
 20
0.654280
 40
0.138083
  1
13/16" x 3"
 41
1.000000
  7
SN0
 71
     0
 72
     5
 11
5.806539
 21
0.654280
  0
POLYLINE
  8
0
  6
CONTINUOUS
 66
     1
 40
0.014080
 41
0.014080
  0
VERTEX
  8
0
  6
CONTINUOUS
 10
3.860120
 20
3.688960
  0
VERTEX
  8
0
  6
CONTINUOUS
 10
3.861000
 20
3.707880
  0
VERTEX
  8
0
  6
CONTINUOUS
 10
3.863200
 20
3.725040
  0
VERTEX
  8
0
  6
CONTINUOUS
 10
3.866720
 20
3.740880
  0
VERTEX
  8
0
  6
CONTINUOUS
 10
3.878160
 20
3.766840
  0
VERTEX
  8
0
  6
CONTINUOUS
 10
3.893120
 20
3.787080
  0
VERTEX
  8
0
  6
CONTINUOUS
 10
3.912040
 20
3.802040
  0
VERTEX
  8
0
  6
CONTINUOUS
 10
3.933160
 20
3.812600
  0
VERTEX
  8
0
  6
CONTINUOUS
 10
3.956040
 20
3.818760
  0
VERTEX
  8
0
  6
CONTINUOUS
 10
3.979360
 20
3.821400
  0
VERTEX
  8
0
  6
CONTINUOUS
 10
4.356000
 20
3.821840
  0
VERTEX
  8
0
  6
CONTINUOUS
 10
4.360840
 20
3.795880
  0
VERTEX
  8
0
  6
CONTINUOUS
 10
4.370520
 20
3.769480
  0
VERTEX
  8
0
  6
CONTINUOUS
 10
4.377560
 20
3.756280
  0
VERTEX
  8
0
  6
CONTINUOUS
 10
4.397360
 20
3.731640
  0
VERTEX
  8
0
  6
CONTINUOUS
 10
4.417160
 20
3.714920
  0
VERTEX
  8
0
  6
CONTINUOUS
 10
4.442680
 20
3.699960
  0
VERTEX
  8
0
  6
CONTINUOUS
 10
4.473920
 20
3.687640
  0
VERTEX
  8
0
  6
CONTINUOUS
 10
4.511320
 20
3.678400
  0
VERTEX
  8
0
  6
CONTINUOUS
 10
4.540360
 20
3.673560
  0
VERTEX
  8
0
  6
CONTINUOUS
 10
4.590080
 20
3.670480
  0
VERTEX
  8
0
  6
CONTINUOUS
 10
5.973440
 20
3.670040
  0
VERTEX
  8
0
  6
CONTINUOUS
 10
5.984000
 20
3.492720
  0
VERTEX
  8
0
  6
CONTINUOUS
 10
6.146360
 20
3.492720
  0
VERTEX
  8
0
  6
CONTINUOUS
 10
6.147240
 20
3.512520
  0
VERTEX
  8
0
  6
CONTINUOUS
 10
6.153840
 20
3.547720
  0
VERTEX
  8
0
  6
CONTINUOUS
 10
6.159120
 20
3.563560
  0
VERTEX
  8
0
  6
CONTINUOUS
 10
6.174080
 20
3.591280
  0
VERTEX
  8
0
  6
CONTINUOUS
 10
6.193440
 20
3.613720
  0
VERTEX
  8
0
  6
CONTINUOUS
 10
6.215880
 20
3.631320
  0
VERTEX
  8
0
  6
CONTINUOUS
 10
6.241400
 20
3.643640
  0
VERTEX
  8
0
  6
CONTINUOUS
 10
6.268240
 20
3.651120
  0
VERTEX
  8
0
  6
CONTINUOUS
 10
6.296400
 20
3.653320
  0
VERTEX
  8
0
  6
CONTINUOUS
 10
6.310480
 20
3.652880
  0
VERTEX
  8
0
  6
CONTINUOUS
 10
6.338200
 20
3.647600
  0
VERTEX
  8
0
  6
CONTINUOUS
 10
6.364600
 20
3.637480
  0
VERTEX
  8
0
  6
CONTINUOUS
 10
6.388800
 20
3.622080
  0
VERTEX
  8
0
  6
CONTINUOUS
 10
6.409480
 20
3.602280
  0
VERTEX
  8
0
  6
CONTINUOUS
 10
6.426640
 20
3.577200
  0
VERTEX
  8
0
  6
CONTINUOUS
 10
6.433680
 20
3.562680
  0
VERTEX
  8
0
  6
CONTINUOUS
 10
6.442920
 20
3.530120
  0
VERTEX
  8
0
  6
CONTINUOUS
 10
6.445560
 20
3.512080
  0
VERTEX
  8
0
  6
CONTINUOUS
 10
6.446440
 20
3.492720
  0
VERTEX
  8
0
  6
CONTINUOUS
 10
6.555120
 20
3.492280
  0
VERTEX
  8
0
  6
CONTINUOUS
 10
6.572720
 20
3.489200
  0
VERTEX
  8
0
  6
CONTINUOUS
 10
6.585920
 20
3.483040
  0
VERTEX
  8
0
  6
CONTINUOUS
 10
6.600880
 20
3.470720
  0
VERTEX
  8
0
  6
CONTINUOUS
 10
6.623760
 20
3.446520
  0
VERTEX
  8
0
  6
CONTINUOUS
 10
6.636960
 20
3.437280
  0
VERTEX
  8
0
  6
CONTINUOUS
 10
6.696800
 20
3.411760
  0
VERTEX
  8
0
  6
CONTINUOUS
 10
6.728480
 20
3.401640
  0
VERTEX
  8
0
  6
CONTINUOUS
 10
6.757080
 20
3.395920
  0
VERTEX
  8
0
  6
CONTINUOUS
 10
6.769400
 20
3.395040
  0
VERTEX
  8
0
  6
CONTINUOUS
 10
6.849480
 20
3.395040
  0
VERTEX
  8
0
  6
CONTINUOUS
 10
6.849480
 20
3.008720
  0
VERTEX
  8
0
  6
CONTINUOUS
 10
3.859240
 20
3.008720
  0
VERTEX
  8
0
  6
CONTINUOUS
 10
3.859240
 20
3.686320
  0
VERTEX
  8
0
  6
CONTINUOUS
 10
3.860120
 20
3.688960
  0
SEQEND
  8
0
  0
ENDSEC
  0
EOF
