  0
SECTION
  2
HEADER
  9
$ACADVER
  1
AC1006
  9
$EXTMIN
 10
3.670920
 20
0.523600
  9
$EXTMAX
 10
7.218640
 20
3.645840
  9
$LTSCALE
 40
0.044000
  9
$PDMODE
 70
    35
  9
$PDSIZE
 40
0.035200
  0
ENDSEC
  0
SECTION
  2
TABLES
  0
TABLE
  2
LTYPE
 70
     9
  0
LTYPE
  2
CONTINUOUS
 70
    64
  3
Solid line
 72
    65
 73
     0
 40
0.000000
  0
LTYPE
  2
DASHED
 70
    64
  3
__ __ __ __ __ __ __ __ __ __ __ __ __ __ __
 72
    65
 73
     2
 40
0.000330
 49
0.000220
 49
-0.000110
  0
LTYPE
  2
HIDDEN
 70
    64
  3
 _ _ _ _ _ _ _ _ _ _ _ _ _ _ _ _ _ _ _ _ _ _
 72
    65
 73
     2
 40
0.000165
 49
0.000110
 49
-0.000055
  0
LTYPE
  2
CENTER
 70
    64
  3
____ _ ____ _ ____ _ ____ _ ____ _ ____ _ ____
 72
    65
 73
     4
 40
0.000880
 49
0.000550
 49
-0.000110
 49
0.000110
 49
-0.000110
  0
LTYPE
  2
PHANTOM
 70
    64
  3
_____ _ _ _____ _ _ _____ _ _ _____ _ _ ____
 72
    65
 73
     6
 40
0.001100
 49
0.000550
 49
-0.000110
 49
0.000110
 49
-0.000110
 49
0.000110
 49
-0.000110
  0
LTYPE
  2
DOT
 70
    64
  3
...............................................
 72
    65
 73
     2
 40
0.000110
 49
0.000000
 49
-0.000110
  0
LTYPE
  2
DASHDOT
 70
    64
  3
__ . __ . __ . __ . __ . __ . __ . __ . __ . __
 72
    65
 73
     4
 40
0.000440
 49
0.000220
 49
-0.000110
 49
0.000000
 49
-0.000110
  0
LTYPE
  2
BORDER
 70
    64
  3
__ __ . __ __ . __ __ . __ __ . __ __ . __ __
 72
    65
 73
     6
 40
0.000770
 49
0.000220
 49
-0.000110
 49
0.000220
 49
-0.000110
 49
0.000000
 49
-0.000110
  0
LTYPE
  2
DIVIDE
 70
    64
  3
__ . . __ . . __ . . __ . . __ . . __ . . __
 72
    65
 73
     6
 40
0.000550
 49
0.000220
 49
-0.000110
 49
0.000000
 49
-0.000110
 49
0.000000
 49
-0.000110
  0
LTYPE
  2
DOTDOT
 70
    64
  3
 . .  . .  . .  . .  . .  . . 
 72
    65
 73
     5
 40
0.000242
 49
-0.000110
 49
0.000000
 49
-0.000110
 49
0.000000
 49
-0.000110
  0
ENDTAB
  0
TABLE
  2
STYLE
 70
     2
  0
STYLE
 70
     0
  2
SN0
 40
0.000000
 41
0.000440
 50
0.000000
 71
     0
 42
0.000000
  3
ROMAND
  0
STYLE
 70
    68
  2
SV0
 40
0.000000
 41
0.000440
 50
0.000000
 71
     0
 42
0.000000
  3
ROMAND
  0
ENDTAB
  0
TABLE
  2
LAYER
 70
     3
  0
LAYER
  2
FOREGROUND
 70
    64
 62
     7
  6
CONTINUOUS
  0
LAYER
  2
BACKGROUND
 70
    65
 62
    -7
  6
CONTINUOUS
  0
LAYER
  2
0
 70
    64
 62
     7
  6
CONTINUOUS
  0
ENDTAB
  0
ENDSEC
  0
SECTION
  2
ENTITIES
  0
POLYLINE
  8
FOREGROUND
  6
CONTINUOUS
 66
     1
 40
0.000000
 41
0.000000
  0
VERTEX
  8
FOREGROUND
  6
CONTINUOUS
 10
0.000000
 20
4.169440
  0
VERTEX
  8
FOREGROUND
  6
CONTINUOUS
 10
8.499920
 20
4.169440
  0
VERTEX
  8
FOREGROUND
  6
CONTINUOUS
 10
8.499920
 20
-6.830560
  0
VERTEX
  8
FOREGROUND
  6
CONTINUOUS
 10
0.000000
 20
-6.830560
  0
VERTEX
  8
FOREGROUND
  6
CONTINUOUS
 10
0.000000
 20
4.169440
  0
SEQEND
  8
0
  0
POLYLINE
  8
FOREGROUND
  6
CONTINUOUS
 66
     1
 40
0.000000
 41
0.000000
  0
VERTEX
  8
FOREGROUND
  6
CONTINUOUS
 10
0.000000
 20
4.169440
  0
VERTEX
  8
FOREGROUND
  6
CONTINUOUS
 10
8.499920
 20
4.169440
  0
VERTEX
  8
FOREGROUND
  6
CONTINUOUS
 10
8.499920
 20
-6.830560
  0
VERTEX
  8
FOREGROUND
  6
CONTINUOUS
 10
0.000000
 20
-6.830560
  0
VERTEX
  8
FOREGROUND
  6
CONTINUOUS
 10
0.000000
 20
4.169440
  0
SEQEND
  8
0
  0
SOLID
  8
0
 62
    15
 10
4.890160
 20
1.514480
 11
4.899400
 21
2.260720
 12
4.904680
 22
1.530760
 13
4.913920
 23
2.277000
  0
POLYLINE
  8
0
  6
CONTINUOUS
 66
     1
 40
0.000000
 41
0.000000
  0
VERTEX
  8
0
  6
CONTINUOUS
 10
4.890160
 20
1.514480
  0
VERTEX
  8
0
  6
CONTINUOUS
 10
4.899400
 20
2.260720
  0
VERTEX
  8
0
  6
CONTINUOUS
 10
4.913920
 20
2.277000
  0
VERTEX
  8
0
  6
CONTINUOUS
 10
4.904680
 20
1.530760
  0
VERTEX
  8
0
  6
CONTINUOUS
 10
4.890160
 20
1.514480
  0
SEQEND
  8
0
  0
SOLID
  8
0
 62
    15
 10
3.741320
 20
1.628440
 11
3.750560
 21
2.374680
 12
3.744400
 22
1.655720
 13
3.753640
 23
2.401960
  0
POLYLINE
  8
0
  6
CONTINUOUS
 66
     1
 40
0.000000
 41
0.000000
  0
VERTEX
  8
0
  6
CONTINUOUS
 10
3.741320
 20
1.628440
  0
VERTEX
  8
0
  6
CONTINUOUS
 10
3.750560
 20
2.374680
  0
VERTEX
  8
0
  6
CONTINUOUS
 10
3.753640
 20
2.401960
  0
VERTEX
  8
0
  6
CONTINUOUS
 10
3.744400
 20
1.655720
  0
VERTEX
  8
0
  6
CONTINUOUS
 10
3.741320
 20
1.628440
  0
SEQEND
  8
0
  0
SOLID
  8
0
 62
    15
 10
3.752760
 20
1.677720
 11
3.762000
 21
2.423960
 12
3.765520
 22
1.694880
 13
3.774760
 23
2.441120
  0
POLYLINE
  8
0
  6
CONTINUOUS
 66
     1
 40
0.000000
 41
0.000000
  0
VERTEX
  8
0
  6
CONTINUOUS
 10
3.752760
 20
1.677720
  0
VERTEX
  8
0
  6
CONTINUOUS
 10
3.762000
 20
2.423960
  0
VERTEX
  8
0
  6
CONTINUOUS
 10
3.774760
 20
2.441120
  0
VERTEX
  8
0
  6
CONTINUOUS
 10
3.765520
 20
1.694880
  0
VERTEX
  8
0
  6
CONTINUOUS
 10
3.752760
 20
1.677720
  0
SEQEND
  8
0
  0
SOLID
  8
0
 62
    15
 10
3.765520
 20
1.694880
 11
3.774760
 21
2.441120
 12
3.781800
 22
1.708080
 13
3.791040
 23
2.454320
  0
POLYLINE
  8
0
  6
CONTINUOUS
 66
     1
 40
0.000000
 41
0.000000
  0
VERTEX
  8
0
  6
CONTINUOUS
 10
3.765520
 20
1.694880
  0
VERTEX
  8
0
  6
CONTINUOUS
 10
3.774760
 20
2.441120
  0
VERTEX
  8
0
  6
CONTINUOUS
 10
3.791040
 20
2.454320
  0
VERTEX
  8
0
  6
CONTINUOUS
 10
3.781800
 20
1.708080
  0
VERTEX
  8
0
  6
CONTINUOUS
 10
3.765520
 20
1.694880
  0
SEQEND
  8
0
  0
SOLID
  8
0
 62
    15
 10
3.781800
 20
1.708080
 11
3.791040
 21
2.454320
 12
3.817880
 22
1.723480
 13
3.827120
 23
2.469720
  0
POLYLINE
  8
0
  6
CONTINUOUS
 66
     1
 40
0.000000
 41
0.000000
  0
VERTEX
  8
0
  6
CONTINUOUS
 10
3.781800
 20
1.708080
  0
VERTEX
  8
0
  6
CONTINUOUS
 10
3.791040
 20
2.454320
  0
VERTEX
  8
0
  6
CONTINUOUS
 10
3.827120
 20
2.469720
  0
VERTEX
  8
0
  6
CONTINUOUS
 10
3.817880
 20
1.723480
  0
VERTEX
  8
0
  6
CONTINUOUS
 10
3.781800
 20
1.708080
  0
SEQEND
  8
0
  0
SOLID
  8
0
 62
    15
 10
3.817880
 20
1.723480
 11
3.827120
 21
2.469720
 12
3.852200
 22
1.727880
 13
3.861440
 23
2.474120
  0
POLYLINE
  8
0
  6
CONTINUOUS
 66
     1
 40
0.000000
 41
0.000000
  0
VERTEX
  8
0
  6
CONTINUOUS
 10
3.817880
 20
1.723480
  0
VERTEX
  8
0
  6
CONTINUOUS
 10
3.827120
 20
2.469720
  0
VERTEX
  8
0
  6
CONTINUOUS
 10
3.861440
 20
2.474120
  0
VERTEX
  8
0
  6
CONTINUOUS
 10
3.852200
 20
1.727880
  0
VERTEX
  8
0
  6
CONTINUOUS
 10
3.817880
 20
1.723480
  0
SEQEND
  8
0
  0
SOLID
  8
0
 62
    15
 10
3.852200
 20
1.727880
 11
3.861440
 21
2.474120
 12
4.111360
 22
1.727880
 13
4.120600
 23
2.474120
  0
POLYLINE
  8
0
  6
CONTINUOUS
 66
     1
 40
0.000000
 41
0.000000
  0
VERTEX
  8
0
  6
CONTINUOUS
 10
3.852200
 20
1.727880
  0
VERTEX
  8
0
  6
CONTINUOUS
 10
3.861440
 20
2.474120
  0
VERTEX
  8
0
  6
CONTINUOUS
 10
4.120600
 20
2.474120
  0
VERTEX
  8
0
  6
CONTINUOUS
 10
4.111360
 20
1.727880
  0
VERTEX
  8
0
  6
CONTINUOUS
 10
3.852200
 20
1.727880
  0
SEQEND
  8
0
  0
SOLID
  8
0
 62
    15
 10
4.111360
 20
1.727880
 11
4.120600
 21
2.474120
 12
4.143040
 22
1.722160
 13
4.152280
 23
2.468400
  0
POLYLINE
  8
0
  6
CONTINUOUS
 66
     1
 40
0.000000
 41
0.000000
  0
VERTEX
  8
0
  6
CONTINUOUS
 10
4.111360
 20
1.727880
  0
VERTEX
  8
0
  6
CONTINUOUS
 10
4.120600
 20
2.474120
  0
VERTEX
  8
0
  6
CONTINUOUS
 10
4.152280
 20
2.468400
  0
VERTEX
  8
0
  6
CONTINUOUS
 10
4.143040
 20
1.722160
  0
VERTEX
  8
0
  6
CONTINUOUS
 10
4.111360
 20
1.727880
  0
SEQEND
  8
0
  0
SOLID
  8
0
 62
    15
 10
4.143040
 20
1.722160
 11
4.152280
 21
2.468400
 12
4.177800
 22
1.704120
 13
4.187040
 23
2.450360
  0
POLYLINE
  8
0
  6
CONTINUOUS
 66
     1
 40
0.000000
 41
0.000000
  0
VERTEX
  8
0
  6
CONTINUOUS
 10
4.143040
 20
1.722160
  0
VERTEX
  8
0
  6
CONTINUOUS
 10
4.152280
 20
2.468400
  0
VERTEX
  8
0
  6
CONTINUOUS
 10
4.187040
 20
2.450360
  0
VERTEX
  8
0
  6
CONTINUOUS
 10
4.177800
 20
1.704120
  0
VERTEX
  8
0
  6
CONTINUOUS
 10
4.143040
 20
1.722160
  0
SEQEND
  8
0
  0
SOLID
  8
0
 62
    15
 10
4.177800
 20
1.704120
 11
4.187040
 21
2.450360
 12
4.192760
 22
1.690480
 13
4.202000
 23
2.436720
  0
POLYLINE
  8
0
  6
CONTINUOUS
 66
     1
 40
0.000000
 41
0.000000
  0
VERTEX
  8
0
  6
CONTINUOUS
 10
4.177800
 20
1.704120
  0
VERTEX
  8
0
  6
CONTINUOUS
 10
4.187040
 20
2.450360
  0
VERTEX
  8
0
  6
CONTINUOUS
 10
4.202000
 20
2.436720
  0
VERTEX
  8
0
  6
CONTINUOUS
 10
4.192760
 20
1.690480
  0
VERTEX
  8
0
  6
CONTINUOUS
 10
4.177800
 20
1.704120
  0
SEQEND
  8
0
  0
SOLID
  8
0
 62
    15
 10
4.192760
 20
1.690480
 11
4.202000
 21
2.436720
 12
4.205080
 22
1.673760
 13
4.214320
 23
2.420000
  0
POLYLINE
  8
0
  6
CONTINUOUS
 66
     1
 40
0.000000
 41
0.000000
  0
VERTEX
  8
0
  6
CONTINUOUS
 10
4.192760
 20
1.690480
  0
VERTEX
  8
0
  6
CONTINUOUS
 10
4.202000
 20
2.436720
  0
VERTEX
  8
0
  6
CONTINUOUS
 10
4.214320
 20
2.420000
  0
VERTEX
  8
0
  6
CONTINUOUS
 10
4.205080
 20
1.673760
  0
VERTEX
  8
0
  6
CONTINUOUS
 10
4.192760
 20
1.690480
  0
SEQEND
  8
0
  0
SOLID
  8
0
 62
    15
 10
4.205080
 20
1.673760
 11
4.214320
 21
2.420000
 12
4.213440
 22
1.653960
 13
4.222680
 23
2.400200
  0
POLYLINE
  8
0
  6
CONTINUOUS
 66
     1
 40
0.000000
 41
0.000000
  0
VERTEX
  8
0
  6
CONTINUOUS
 10
4.205080
 20
1.673760
  0
VERTEX
  8
0
  6
CONTINUOUS
 10
4.214320
 20
2.420000
  0
VERTEX
  8
0
  6
CONTINUOUS
 10
4.222680
 20
2.400200
  0
VERTEX
  8
0
  6
CONTINUOUS
 10
4.213440
 20
1.653960
  0
VERTEX
  8
0
  6
CONTINUOUS
 10
4.205080
 20
1.673760
  0
SEQEND
  8
0
  0
SOLID
  8
0
 62
    15
 10
4.213440
 20
1.653960
 11
4.222680
 21
2.400200
 12
4.216520
 22
1.631080
 13
4.225760
 23
2.377320
  0
POLYLINE
  8
0
  6
CONTINUOUS
 66
     1
 40
0.000000
 41
0.000000
  0
VERTEX
  8
0
  6
CONTINUOUS
 10
4.213440
 20
1.653960
  0
VERTEX
  8
0
  6
CONTINUOUS
 10
4.222680
 20
2.400200
  0
VERTEX
  8
0
  6
CONTINUOUS
 10
4.225760
 20
2.377320
  0
VERTEX
  8
0
  6
CONTINUOUS
 10
4.216520
 20
1.631080
  0
VERTEX
  8
0
  6
CONTINUOUS
 10
4.213440
 20
1.653960
  0
SEQEND
  8
0
  0
SOLID
  8
0
 62
    15
 10
4.216520
 20
1.631080
 11
4.225760
 21
2.377320
 12
4.245120
 22
1.631080
 13
4.254360
 23
2.377320
  0
POLYLINE
  8
0
  6
CONTINUOUS
 66
     1
 40
0.000000
 41
0.000000
  0
VERTEX
  8
0
  6
CONTINUOUS
 10
4.216520
 20
1.631080
  0
VERTEX
  8
0
  6
CONTINUOUS
 10
4.225760
 20
2.377320
  0
VERTEX
  8
0
  6
CONTINUOUS
 10
4.254360
 20
2.377320
  0
VERTEX
  8
0
  6
CONTINUOUS
 10
4.245120
 20
1.631080
  0
VERTEX
  8
0
  6
CONTINUOUS
 10
4.216520
 20
1.631080
  0
SEQEND
  8
0
  0
SOLID
  8
0
 62
    15
 10
4.245120
 20
1.631080
 11
4.254360
 21
2.377320
 12
4.268000
 22
1.665840
 13
4.277240
 23
2.412080
  0
POLYLINE
  8
0
  6
CONTINUOUS
 66
     1
 40
0.000000
 41
0.000000
  0
VERTEX
  8
0
  6
CONTINUOUS
 10
4.245120
 20
1.631080
  0
VERTEX
  8
0
  6
CONTINUOUS
 10
4.254360
 20
2.377320
  0
VERTEX
  8
0
  6
CONTINUOUS
 10
4.277240
 20
2.412080
  0
VERTEX
  8
0
  6
CONTINUOUS
 10
4.268000
 20
1.665840
  0
VERTEX
  8
0
  6
CONTINUOUS
 10
4.245120
 20
1.631080
  0
SEQEND
  8
0
  0
SOLID
  8
0
 62
    15
 10
4.268000
 20
1.665840
 11
4.277240
 21
2.412080
 12
4.296600
 22
1.692240
 13
4.305840
 23
2.438480
  0
POLYLINE
  8
0
  6
CONTINUOUS
 66
     1
 40
0.000000
 41
0.000000
  0
VERTEX
  8
0
  6
CONTINUOUS
 10
4.268000
 20
1.665840
  0
VERTEX
  8
0
  6
CONTINUOUS
 10
4.277240
 20
2.412080
  0
VERTEX
  8
0
  6
CONTINUOUS
 10
4.305840
 20
2.438480
  0
VERTEX
  8
0
  6
CONTINUOUS
 10
4.296600
 20
1.692240
  0
VERTEX
  8
0
  6
CONTINUOUS
 10
4.268000
 20
1.665840
  0
SEQEND
  8
0
  0
SOLID
  8
0
 62
    15
 10
4.296600
 20
1.692240
 11
4.305840
 21
2.438480
 12
4.329600
 22
1.709840
 13
4.338840
 23
2.456080
  0
POLYLINE
  8
0
  6
CONTINUOUS
 66
     1
 40
0.000000
 41
0.000000
  0
VERTEX
  8
0
  6
CONTINUOUS
 10
4.296600
 20
1.692240
  0
VERTEX
  8
0
  6
CONTINUOUS
 10
4.305840
 20
2.438480
  0
VERTEX
  8
0
  6
CONTINUOUS
 10
4.338840
 20
2.456080
  0
VERTEX
  8
0
  6
CONTINUOUS
 10
4.329600
 20
1.709840
  0
VERTEX
  8
0
  6
CONTINUOUS
 10
4.296600
 20
1.692240
  0
SEQEND
  8
0
  0
SOLID
  8
0
 62
    15
 10
4.329600
 20
1.709840
 11
4.338840
 21
2.456080
 12
4.366120
 22
1.717320
 13
4.375360
 23
2.463560
  0
POLYLINE
  8
0
  6
CONTINUOUS
 66
     1
 40
0.000000
 41
0.000000
  0
VERTEX
  8
0
  6
CONTINUOUS
 10
4.329600
 20
1.709840
  0
VERTEX
  8
0
  6
CONTINUOUS
 10
4.338840
 20
2.456080
  0
VERTEX
  8
0
  6
CONTINUOUS
 10
4.375360
 20
2.463560
  0
VERTEX
  8
0
  6
CONTINUOUS
 10
4.366120
 20
1.717320
  0
VERTEX
  8
0
  6
CONTINUOUS
 10
4.329600
 20
1.709840
  0
SEQEND
  8
0
  0
SOLID
  8
0
 62
    15
 10
4.366120
 20
1.717320
 11
4.375360
 21
2.463560
 12
4.405720
 22
1.713800
 13
4.414960
 23
2.460040
  0
POLYLINE
  8
0
  6
CONTINUOUS
 66
     1
 40
0.000000
 41
0.000000
  0
VERTEX
  8
0
  6
CONTINUOUS
 10
4.366120
 20
1.717320
  0
VERTEX
  8
0
  6
CONTINUOUS
 10
4.375360
 20
2.463560
  0
VERTEX
  8
0
  6
CONTINUOUS
 10
4.414960
 20
2.460040
  0
VERTEX
  8
0
  6
CONTINUOUS
 10
4.405720
 20
1.713800
  0
VERTEX
  8
0
  6
CONTINUOUS
 10
4.366120
 20
1.717320
  0
SEQEND
  8
0
  0
SOLID
  8
0
 62
    15
 10
4.405720
 20
1.713800
 11
4.414960
 21
2.460040
 12
4.447960
 22
1.698400
 13
4.457200
 23
2.444640
  0
POLYLINE
  8
0
  6
CONTINUOUS
 66
     1
 40
0.000000
 41
0.000000
  0
VERTEX
  8
0
  6
CONTINUOUS
 10
4.405720
 20
1.713800
  0
VERTEX
  8
0
  6
CONTINUOUS
 10
4.414960
 20
2.460040
  0
VERTEX
  8
0
  6
CONTINUOUS
 10
4.457200
 20
2.444640
  0
VERTEX
  8
0
  6
CONTINUOUS
 10
4.447960
 20
1.698400
  0
VERTEX
  8
0
  6
CONTINUOUS
 10
4.405720
 20
1.713800
  0
SEQEND
  8
0
  0
SOLID
  8
0
 62
    15
 10
4.447960
 20
1.698400
 11
4.457200
 21
2.444640
 12
4.491080
 22
1.670240
 13
4.500320
 23
2.416480
  0
POLYLINE
  8
0
  6
CONTINUOUS
 66
     1
 40
0.000000
 41
0.000000
  0
VERTEX
  8
0
  6
CONTINUOUS
 10
4.447960
 20
1.698400
  0
VERTEX
  8
0
  6
CONTINUOUS
 10
4.457200
 20
2.444640
  0
VERTEX
  8
0
  6
CONTINUOUS
 10
4.500320
 20
2.416480
  0
VERTEX
  8
0
  6
CONTINUOUS
 10
4.491080
 20
1.670240
  0
VERTEX
  8
0
  6
CONTINUOUS
 10
4.447960
 20
1.698400
  0
SEQEND
  8
0
  0
SOLID
  8
0
 62
    15
 10
4.491080
 20
1.670240
 11
4.500320
 21
2.416480
 12
4.535520
 22
1.628440
 13
4.544760
 23
2.374680
  0
POLYLINE
  8
0
  6
CONTINUOUS
 66
     1
 40
0.000000
 41
0.000000
  0
VERTEX
  8
0
  6
CONTINUOUS
 10
4.491080
 20
1.670240
  0
VERTEX
  8
0
  6
CONTINUOUS
 10
4.500320
 20
2.416480
  0
VERTEX
  8
0
  6
CONTINUOUS
 10
4.544760
 20
2.374680
  0
VERTEX
  8
0
  6
CONTINUOUS
 10
4.535520
 20
1.628440
  0
VERTEX
  8
0
  6
CONTINUOUS
 10
4.491080
 20
1.670240
  0
SEQEND
  8
0
  0
SOLID
  8
0
 62
    15
 10
4.535520
 20
1.628440
 11
4.544760
 21
2.374680
 12
4.568960
 22
1.595880
 13
4.578200
 23
2.342120
  0
POLYLINE
  8
0
  6
CONTINUOUS
 66
     1
 40
0.000000
 41
0.000000
  0
VERTEX
  8
0
  6
CONTINUOUS
 10
4.535520
 20
1.628440
  0
VERTEX
  8
0
  6
CONTINUOUS
 10
4.544760
 20
2.374680
  0
VERTEX
  8
0
  6
CONTINUOUS
 10
4.578200
 20
2.342120
  0
VERTEX
  8
0
  6
CONTINUOUS
 10
4.568960
 20
1.595880
  0
VERTEX
  8
0
  6
CONTINUOUS
 10
4.535520
 20
1.628440
  0
SEQEND
  8
0
  0
SOLID
  8
0
 62
    15
 10
4.568960
 20
1.595880
 11
4.578200
 21
2.342120
 12
4.609000
 22
1.565520
 13
4.618240
 23
2.311760
  0
POLYLINE
  8
0
  6
CONTINUOUS
 66
     1
 40
0.000000
 41
0.000000
  0
VERTEX
  8
0
  6
CONTINUOUS
 10
4.568960
 20
1.595880
  0
VERTEX
  8
0
  6
CONTINUOUS
 10
4.578200
 20
2.342120
  0
VERTEX
  8
0
  6
CONTINUOUS
 10
4.618240
 20
2.311760
  0
VERTEX
  8
0
  6
CONTINUOUS
 10
4.609000
 20
1.565520
  0
VERTEX
  8
0
  6
CONTINUOUS
 10
4.568960
 20
1.595880
  0
SEQEND
  8
0
  0
SOLID
  8
0
 62
    15
 10
4.609000
 20
1.565520
 11
4.618240
 21
2.311760
 12
4.699200
 22
1.510960
 13
4.708880
 23
2.257640
  0
POLYLINE
  8
0
  6
CONTINUOUS
 66
     1
 40
0.000000
 41
0.000000
  0
VERTEX
  8
0
  6
CONTINUOUS
 10
4.609000
 20
1.565520
  0
VERTEX
  8
0
  6
CONTINUOUS
 10
4.618240
 20
2.311760
  0
VERTEX
  8
0
  6
CONTINUOUS
 10
4.708880
 20
2.257640
  0
VERTEX
  8
0
  6
CONTINUOUS
 10
4.699200
 20
1.510960
  0
VERTEX
  8
0
  6
CONTINUOUS
 10
4.609000
 20
1.565520
  0
SEQEND
  8
0
  0
SOLID
  8
0
 62
    15
 10
4.699200
 20
1.510960
 11
4.708880
 21
2.257640
 12
4.745840
 22
1.488520
 13
4.755080
 23
2.234760
  0
POLYLINE
  8
0
  6
CONTINUOUS
 66
     1
 40
0.000000
 41
0.000000
  0
VERTEX
  8
0
  6
CONTINUOUS
 10
4.699200
 20
1.510960
  0
VERTEX
  8
0
  6
CONTINUOUS
 10
4.708880
 20
2.257640
  0
VERTEX
  8
0
  6
CONTINUOUS
 10
4.755080
 20
2.234760
  0
VERTEX
  8
0
  6
CONTINUOUS
 10
4.745840
 20
1.488520
  0
VERTEX
  8
0
  6
CONTINUOUS
 10
4.699200
 20
1.510960
  0
SEQEND
  8
0
  0
SOLID
  8
0
 62
    15
 10
4.745840
 20
1.488520
 11
4.755080
 21
2.234760
 12
4.790280
 22
1.469160
 13
4.799520
 23
2.215400
  0
POLYLINE
  8
0
  6
CONTINUOUS
 66
     1
 40
0.000000
 41
0.000000
  0
VERTEX
  8
0
  6
CONTINUOUS
 10
4.745840
 20
1.488520
  0
VERTEX
  8
0
  6
CONTINUOUS
 10
4.755080
 20
2.234760
  0
VERTEX
  8
0
  6
CONTINUOUS
 10
4.799520
 20
2.215400
  0
VERTEX
  8
0
  6
CONTINUOUS
 10
4.790280
 20
1.469160
  0
VERTEX
  8
0
  6
CONTINUOUS
 10
4.745840
 20
1.488520
  0
SEQEND
  8
0
  0
SOLID
  8
0
 62
    15
 10
4.790280
 20
1.469160
 11
4.799520
 21
2.215400
 12
4.831200
 22
1.454200
 13
4.840440
 23
2.200440
  0
POLYLINE
  8
0
  6
CONTINUOUS
 66
     1
 40
0.000000
 41
0.000000
  0
VERTEX
  8
0
  6
CONTINUOUS
 10
4.790280
 20
1.469160
  0
VERTEX
  8
0
  6
CONTINUOUS
 10
4.799520
 20
2.215400
  0
VERTEX
  8
0
  6
CONTINUOUS
 10
4.840440
 20
2.200440
  0
VERTEX
  8
0
  6
CONTINUOUS
 10
4.831200
 20
1.454200
  0
VERTEX
  8
0
  6
CONTINUOUS
 10
4.790280
 20
1.469160
  0
SEQEND
  8
0
  0
SOLID
  8
0
 62
    15
 10
4.831200
 20
1.454200
 11
4.840440
 21
2.200440
 12
4.865520
 22
1.443200
 13
4.874760
 23
2.189440
  0
POLYLINE
  8
0
  6
CONTINUOUS
 66
     1
 40
0.000000
 41
0.000000
  0
VERTEX
  8
0
  6
CONTINUOUS
 10
4.831200
 20
1.454200
  0
VERTEX
  8
0
  6
CONTINUOUS
 10
4.840440
 20
2.200440
  0
VERTEX
  8
0
  6
CONTINUOUS
 10
4.874760
 20
2.189440
  0
VERTEX
  8
0
  6
CONTINUOUS
 10
4.865520
 20
1.443200
  0
VERTEX
  8
0
  6
CONTINUOUS
 10
4.831200
 20
1.454200
  0
SEQEND
  8
0
  0
SOLID
  8
0
 62
    15
 10
4.865520
 20
1.443200
 11
4.874760
 21
2.189440
 12
4.869920
 22
1.470480
 13
4.879160
 23
2.217160
  0
POLYLINE
  8
0
  6
CONTINUOUS
 66
     1
 40
0.000000
 41
0.000000
  0
VERTEX
  8
0
  6
CONTINUOUS
 10
4.865520
 20
1.443200
  0
VERTEX
  8
0
  6
CONTINUOUS
 10
4.874760
 20
2.189440
  0
VERTEX
  8
0
  6
CONTINUOUS
 10
4.879160
 20
2.217160
  0
VERTEX
  8
0
  6
CONTINUOUS
 10
4.869920
 20
1.470480
  0
VERTEX
  8
0
  6
CONTINUOUS
 10
4.865520
 20
1.443200
  0
SEQEND
  8
0
  0
SOLID
  8
0
 62
    15
 10
4.869920
 20
1.470480
 11
4.879160
 21
2.217160
 12
4.878280
 22
1.494240
 13
4.887520
 23
2.240480
  0
POLYLINE
  8
0
  6
CONTINUOUS
 66
     1
 40
0.000000
 41
0.000000
  0
VERTEX
  8
0
  6
CONTINUOUS
 10
4.869920
 20
1.470480
  0
VERTEX
  8
0
  6
CONTINUOUS
 10
4.879160
 20
2.217160
  0
VERTEX
  8
0
  6
CONTINUOUS
 10
4.887520
 20
2.240480
  0
VERTEX
  8
0
  6
CONTINUOUS
 10
4.878280
 20
1.494240
  0
VERTEX
  8
0
  6
CONTINUOUS
 10
4.869920
 20
1.470480
  0
SEQEND
  8
0
  0
SOLID
  8
0
 62
    15
 10
4.878280
 20
1.494240
 11
4.887520
 21
2.240480
 12
4.890160
 22
1.514480
 13
4.899400
 23
2.260720
  0
POLYLINE
  8
0
  6
CONTINUOUS
 66
     1
 40
0.000000
 41
0.000000
  0
VERTEX
  8
0
  6
CONTINUOUS
 10
4.878280
 20
1.494240
  0
VERTEX
  8
0
  6
CONTINUOUS
 10
4.887520
 20
2.240480
  0
VERTEX
  8
0
  6
CONTINUOUS
 10
4.899400
 20
2.260720
  0
VERTEX
  8
0
  6
CONTINUOUS
 10
4.890160
 20
1.514480
  0
VERTEX
  8
0
  6
CONTINUOUS
 10
4.878280
 20
1.494240
  0
SEQEND
  8
0
  0
SOLID
  8
0
 62
    15
 10
3.744400
 20
1.655720
 11
3.753640
 21
2.401960
 12
3.752760
 22
1.677720
 13
3.762000
 23
2.423960
  0
POLYLINE
  8
0
  6
CONTINUOUS
 66
     1
 40
0.000000
 41
0.000000
  0
VERTEX
  8
0
  6
CONTINUOUS
 10
3.744400
 20
1.655720
  0
VERTEX
  8
0
  6
CONTINUOUS
 10
3.753640
 20
2.401960
  0
VERTEX
  8
0
  6
CONTINUOUS
 10
3.762000
 20
2.423960
  0
VERTEX
  8
0
  6
CONTINUOUS
 10
3.752760
 20
1.677720
  0
VERTEX
  8
0
  6
CONTINUOUS
 10
3.744400
 20
1.655720
  0
SEQEND
  8
0
  0
SOLID
  8
0
 62
    15
 10
4.904680
 20
1.530760
 11
4.913920
 21
2.277000
 12
4.921400
 22
1.543520
 13
4.930640
 23
2.289760
  0
POLYLINE
  8
0
  6
CONTINUOUS
 66
     1
 40
0.000000
 41
0.000000
  0
VERTEX
  8
0
  6
CONTINUOUS
 10
4.904680
 20
1.530760
  0
VERTEX
  8
0
  6
CONTINUOUS
 10
4.913920
 20
2.277000
  0
VERTEX
  8
0
  6
CONTINUOUS
 10
4.930640
 20
2.289760
  0
VERTEX
  8
0
  6
CONTINUOUS
 10
4.921400
 20
1.543520
  0
VERTEX
  8
0
  6
CONTINUOUS
 10
4.904680
 20
1.530760
  0
SEQEND
  8
0
  0
SOLID
  8
0
 62
    15
 10
4.921400
 20
1.543520
 11
4.930640
 21
2.289760
 12
4.940320
 22
1.552760
 13
4.949560
 23
2.299000
  0
POLYLINE
  8
0
  6
CONTINUOUS
 66
     1
 40
0.000000
 41
0.000000
  0
VERTEX
  8
0
  6
CONTINUOUS
 10
4.921400
 20
1.543520
  0
VERTEX
  8
0
  6
CONTINUOUS
 10
4.930640
 20
2.289760
  0
VERTEX
  8
0
  6
CONTINUOUS
 10
4.949560
 20
2.299000
  0
VERTEX
  8
0
  6
CONTINUOUS
 10
4.940320
 20
1.552760
  0
VERTEX
  8
0
  6
CONTINUOUS
 10
4.921400
 20
1.543520
  0
SEQEND
  8
0
  0
SOLID
  8
0
 62
    15
 10
4.940320
 20
1.552760
 11
4.949560
 21
2.299000
 12
4.960560
 22
1.558040
 13
4.969800
 23
2.304280
  0
POLYLINE
  8
0
  6
CONTINUOUS
 66
     1
 40
0.000000
 41
0.000000
  0
VERTEX
  8
0
  6
CONTINUOUS
 10
4.940320
 20
1.552760
  0
VERTEX
  8
0
  6
CONTINUOUS
 10
4.949560
 20
2.299000
  0
VERTEX
  8
0
  6
CONTINUOUS
 10
4.969800
 20
2.304280
  0
VERTEX
  8
0
  6
CONTINUOUS
 10
4.960560
 20
1.558040
  0
VERTEX
  8
0
  6
CONTINUOUS
 10
4.940320
 20
1.552760
  0
SEQEND
  8
0
  0
SOLID
  8
0
 62
    15
 10
4.960560
 20
1.558040
 11
4.969800
 21
2.304280
 12
4.981240
 22
1.560240
 13
4.990480
 23
2.306480
  0
POLYLINE
  8
0
  6
CONTINUOUS
 66
     1
 40
0.000000
 41
0.000000
  0
VERTEX
  8
0
  6
CONTINUOUS
 10
4.960560
 20
1.558040
  0
VERTEX
  8
0
  6
CONTINUOUS
 10
4.969800
 20
2.304280
  0
VERTEX
  8
0
  6
CONTINUOUS
 10
4.990480
 20
2.306480
  0
VERTEX
  8
0
  6
CONTINUOUS
 10
4.981240
 20
1.560240
  0
VERTEX
  8
0
  6
CONTINUOUS
 10
4.960560
 20
1.558040
  0
SEQEND
  8
0
  0
SOLID
  8
0
 62
    15
 10
4.981240
 20
1.560240
 11
4.990480
 21
2.306480
 12
5.022600
 22
1.554080
 13
5.031840
 23
2.300760
  0
POLYLINE
  8
0
  6
CONTINUOUS
 66
     1
 40
0.000000
 41
0.000000
  0
VERTEX
  8
0
  6
CONTINUOUS
 10
4.981240
 20
1.560240
  0
VERTEX
  8
0
  6
CONTINUOUS
 10
4.990480
 20
2.306480
  0
VERTEX
  8
0
  6
CONTINUOUS
 10
5.031840
 20
2.300760
  0
VERTEX
  8
0
  6
CONTINUOUS
 10
5.022600
 20
1.554080
  0
VERTEX
  8
0
  6
CONTINUOUS
 10
4.981240
 20
1.560240
  0
SEQEND
  8
0
  0
SOLID
  8
0
 62
    15
 10
5.022600
 20
1.554080
 11
5.031840
 21
2.300760
 12
5.042400
 22
1.546160
 13
5.051640
 23
2.292400
  0
POLYLINE
  8
0
  6
CONTINUOUS
 66
     1
 40
0.000000
 41
0.000000
  0
VERTEX
  8
0
  6
CONTINUOUS
 10
5.022600
 20
1.554080
  0
VERTEX
  8
0
  6
CONTINUOUS
 10
5.031840
 20
2.300760
  0
VERTEX
  8
0
  6
CONTINUOUS
 10
5.051640
 20
2.292400
  0
VERTEX
  8
0
  6
CONTINUOUS
 10
5.042400
 20
1.546160
  0
VERTEX
  8
0
  6
CONTINUOUS
 10
5.022600
 20
1.554080
  0
SEQEND
  8
0
  0
SOLID
  8
0
 62
    15
 10
5.042400
 20
1.546160
 11
5.051640
 21
2.292400
 12
5.060440
 22
1.534720
 13
5.069680
 23
2.280960
  0
POLYLINE
  8
0
  6
CONTINUOUS
 66
     1
 40
0.000000
 41
0.000000
  0
VERTEX
  8
0
  6
CONTINUOUS
 10
5.042400
 20
1.546160
  0
VERTEX
  8
0
  6
CONTINUOUS
 10
5.051640
 20
2.292400
  0
VERTEX
  8
0
  6
CONTINUOUS
 10
5.069680
 20
2.280960
  0
VERTEX
  8
0
  6
CONTINUOUS
 10
5.060440
 20
1.534720
  0
VERTEX
  8
0
  6
CONTINUOUS
 10
5.042400
 20
1.546160
  0
SEQEND
  8
0
  0
SOLID
  8
0
 62
    15
 10
5.060440
 20
1.534720
 11
5.069680
 21
2.280960
 12
5.076720
 22
1.520200
 13
5.085960
 23
2.266440
  0
POLYLINE
  8
0
  6
CONTINUOUS
 66
     1
 40
0.000000
 41
0.000000
  0
VERTEX
  8
0
  6
CONTINUOUS
 10
5.060440
 20
1.534720
  0
VERTEX
  8
0
  6
CONTINUOUS
 10
5.069680
 20
2.280960
  0
VERTEX
  8
0
  6
CONTINUOUS
 10
5.085960
 20
2.266440
  0
VERTEX
  8
0
  6
CONTINUOUS
 10
5.076720
 20
1.520200
  0
VERTEX
  8
0
  6
CONTINUOUS
 10
5.060440
 20
1.534720
  0
SEQEND
  8
0
  0
SOLID
  8
0
 62
    15
 10
5.076720
 20
1.520200
 11
5.085960
 21
2.266440
 12
5.090360
 22
1.502600
 13
5.099600
 23
2.248840
  0
POLYLINE
  8
0
  6
CONTINUOUS
 66
     1
 40
0.000000
 41
0.000000
  0
VERTEX
  8
0
  6
CONTINUOUS
 10
5.076720
 20
1.520200
  0
VERTEX
  8
0
  6
CONTINUOUS
 10
5.085960
 20
2.266440
  0
VERTEX
  8
0
  6
CONTINUOUS
 10
5.099600
 20
2.248840
  0
VERTEX
  8
0
  6
CONTINUOUS
 10
5.090360
 20
1.502600
  0
VERTEX
  8
0
  6
CONTINUOUS
 10
5.076720
 20
1.520200
  0
SEQEND
  8
0
  0
SOLID
  8
0
 62
    15
 10
5.090360
 20
1.502600
 11
5.099600
 21
2.248840
 12
5.100920
 22
1.481480
 13
5.110160
 23
2.227720
  0
POLYLINE
  8
0
  6
CONTINUOUS
 66
     1
 40
0.000000
 41
0.000000
  0
VERTEX
  8
0
  6
CONTINUOUS
 10
5.090360
 20
1.502600
  0
VERTEX
  8
0
  6
CONTINUOUS
 10
5.099600
 20
2.248840
  0
VERTEX
  8
0
  6
CONTINUOUS
 10
5.110160
 20
2.227720
  0
VERTEX
  8
0
  6
CONTINUOUS
 10
5.100920
 20
1.481480
  0
VERTEX
  8
0
  6
CONTINUOUS
 10
5.090360
 20
1.502600
  0
SEQEND
  8
0
  0
SOLID
  8
0
 62
    15
 10
5.100920
 20
1.481480
 11
5.110160
 21
2.227720
 12
5.107520
 22
1.457280
 13
5.116760
 23
2.203520
  0
POLYLINE
  8
0
  6
CONTINUOUS
 66
     1
 40
0.000000
 41
0.000000
  0
VERTEX
  8
0
  6
CONTINUOUS
 10
5.100920
 20
1.481480
  0
VERTEX
  8
0
  6
CONTINUOUS
 10
5.110160
 20
2.227720
  0
VERTEX
  8
0
  6
CONTINUOUS
 10
5.116760
 20
2.203520
  0
VERTEX
  8
0
  6
CONTINUOUS
 10
5.107520
 20
1.457280
  0
VERTEX
  8
0
  6
CONTINUOUS
 10
5.100920
 20
1.481480
  0
SEQEND
  8
0
  0
SOLID
  8
0
 62
    15
 10
6.745200
 20
1.286560
 11
6.754440
 21
2.032800
 12
6.827920
 22
1.286560
 13
6.837160
 23
2.032800
  0
POLYLINE
  8
0
  6
CONTINUOUS
 66
     1
 40
0.000000
 41
0.000000
  0
VERTEX
  8
0
  6
CONTINUOUS
 10
6.745200
 20
1.286560
  0
VERTEX
  8
0
  6
CONTINUOUS
 10
6.754440
 20
2.032800
  0
VERTEX
  8
0
  6
CONTINUOUS
 10
6.837160
 20
2.032800
  0
VERTEX
  8
0
  6
CONTINUOUS
 10
6.827920
 20
1.286560
  0
VERTEX
  8
0
  6
CONTINUOUS
 10
6.745200
 20
1.286560
  0
SEQEND
  8
0
  0
SOLID
  8
0
 62
    15
 10
6.712640
 20
1.491600
 11
6.721880
 21
2.237840
 12
6.745200
 22
1.286560
 13
6.754440
 23
2.032800
  0
POLYLINE
  8
0
  6
CONTINUOUS
 66
     1
 40
0.000000
 41
0.000000
  0
VERTEX
  8
0
  6
CONTINUOUS
 10
6.712640
 20
1.491600
  0
VERTEX
  8
0
  6
CONTINUOUS
 10
6.721880
 20
2.237840
  0
VERTEX
  8
0
  6
CONTINUOUS
 10
6.754440
 20
2.032800
  0
VERTEX
  8
0
  6
CONTINUOUS
 10
6.745200
 20
1.286560
  0
VERTEX
  8
0
  6
CONTINUOUS
 10
6.712640
 20
1.491600
  0
SEQEND
  8
0
  0
SOLID
  8
0
 62
    15
 10
5.107520
 20
1.457280
 11
5.116760
 21
2.203520
 12
6.712640
 22
1.491600
 13
6.721880
 23
2.237840
  0
POLYLINE
  8
0
  6
CONTINUOUS
 66
     1
 40
0.000000
 41
0.000000
  0
VERTEX
  8
0
  6
CONTINUOUS
 10
5.107520
 20
1.457280
  0
VERTEX
  8
0
  6
CONTINUOUS
 10
5.116760
 20
2.203520
  0
VERTEX
  8
0
  6
CONTINUOUS
 10
6.721880
 20
2.237840
  0
VERTEX
  8
0
  6
CONTINUOUS
 10
6.712640
 20
1.491600
  0
VERTEX
  8
0
  6
CONTINUOUS
 10
5.107520
 20
1.457280
  0
SEQEND
  8
0
  0
SOLID
  8
0
 62
    15
 10
6.827920
 20
1.286560
 11
6.837160
 21
2.032800
 12
6.843320
 22
1.335400
 13
6.852560
 23
2.081640
  0
POLYLINE
  8
0
  6
CONTINUOUS
 66
     1
 40
0.000000
 41
0.000000
  0
VERTEX
  8
0
  6
CONTINUOUS
 10
6.827920
 20
1.286560
  0
VERTEX
  8
0
  6
CONTINUOUS
 10
6.837160
 20
2.032800
  0
VERTEX
  8
0
  6
CONTINUOUS
 10
6.852560
 20
2.081640
  0
VERTEX
  8
0
  6
CONTINUOUS
 10
6.843320
 20
1.335400
  0
VERTEX
  8
0
  6
CONTINUOUS
 10
6.827920
 20
1.286560
  0
SEQEND
  8
0
  0
SOLID
  8
0
 62
    15
 10
6.843320
 20
1.335400
 11
6.852560
 21
2.081640
 12
6.863560
 22
1.377200
 13
6.872800
 23
2.123440
  0
POLYLINE
  8
0
  6
CONTINUOUS
 66
     1
 40
0.000000
 41
0.000000
  0
VERTEX
  8
0
  6
CONTINUOUS
 10
6.843320
 20
1.335400
  0
VERTEX
  8
0
  6
CONTINUOUS
 10
6.852560
 20
2.081640
  0
VERTEX
  8
0
  6
CONTINUOUS
 10
6.872800
 20
2.123440
  0
VERTEX
  8
0
  6
CONTINUOUS
 10
6.863560
 20
1.377200
  0
VERTEX
  8
0
  6
CONTINUOUS
 10
6.843320
 20
1.335400
  0
SEQEND
  8
0
  0
SOLID
  8
0
 62
    15
 10
6.863560
 20
1.377200
 11
6.872800
 21
2.123440
 12
6.888200
 22
1.411960
 13
6.897440
 23
2.158200
  0
POLYLINE
  8
0
  6
CONTINUOUS
 66
     1
 40
0.000000
 41
0.000000
  0
VERTEX
  8
0
  6
CONTINUOUS
 10
6.863560
 20
1.377200
  0
VERTEX
  8
0
  6
CONTINUOUS
 10
6.872800
 20
2.123440
  0
VERTEX
  8
0
  6
CONTINUOUS
 10
6.897440
 20
2.158200
  0
VERTEX
  8
0
  6
CONTINUOUS
 10
6.888200
 20
1.411960
  0
VERTEX
  8
0
  6
CONTINUOUS
 10
6.863560
 20
1.377200
  0
SEQEND
  8
0
  0
SOLID
  8
0
 62
    15
 10
6.888200
 20
1.411960
 11
6.897440
 21
2.158200
 12
6.916360
 22
1.440120
 13
6.925600
 23
2.186360
  0
POLYLINE
  8
0
  6
CONTINUOUS
 66
     1
 40
0.000000
 41
0.000000
  0
VERTEX
  8
0
  6
CONTINUOUS
 10
6.888200
 20
1.411960
  0
VERTEX
  8
0
  6
CONTINUOUS
 10
6.897440
 20
2.158200
  0
VERTEX
  8
0
  6
CONTINUOUS
 10
6.925600
 20
2.186360
  0
VERTEX
  8
0
  6
CONTINUOUS
 10
6.916360
 20
1.440120
  0
VERTEX
  8
0
  6
CONTINUOUS
 10
6.888200
 20
1.411960
  0
SEQEND
  8
0
  0
SOLID
  8
0
 62
    15
 10
6.916360
 20
1.440120
 11
6.925600
 21
2.186360
 12
6.946280
 22
1.461240
 13
6.955520
 23
2.207480
  0
POLYLINE
  8
0
  6
CONTINUOUS
 66
     1
 40
0.000000
 41
0.000000
  0
VERTEX
  8
0
  6
CONTINUOUS
 10
6.916360
 20
1.440120
  0
VERTEX
  8
0
  6
CONTINUOUS
 10
6.925600
 20
2.186360
  0
VERTEX
  8
0
  6
CONTINUOUS
 10
6.955520
 20
2.207480
  0
VERTEX
  8
0
  6
CONTINUOUS
 10
6.946280
 20
1.461240
  0
VERTEX
  8
0
  6
CONTINUOUS
 10
6.916360
 20
1.440120
  0
SEQEND
  8
0
  0
SOLID
  8
0
 62
    15
 10
6.946280
 20
1.461240
 11
6.955520
 21
2.207480
 12
6.978400
 22
1.476200
 13
6.987640
 23
2.222440
  0
POLYLINE
  8
0
  6
CONTINUOUS
 66
     1
 40
0.000000
 41
0.000000
  0
VERTEX
  8
0
  6
CONTINUOUS
 10
6.946280
 20
1.461240
  0
VERTEX
  8
0
  6
CONTINUOUS
 10
6.955520
 20
2.207480
  0
VERTEX
  8
0
  6
CONTINUOUS
 10
6.987640
 20
2.222440
  0
VERTEX
  8
0
  6
CONTINUOUS
 10
6.978400
 20
1.476200
  0
VERTEX
  8
0
  6
CONTINUOUS
 10
6.946280
 20
1.461240
  0
SEQEND
  8
0
  0
SOLID
  8
0
 62
    15
 10
6.978400
 20
1.476200
 11
6.987640
 21
2.222440
 12
7.011400
 22
1.485000
 13
7.020640
 23
2.231240
  0
POLYLINE
  8
0
  6
CONTINUOUS
 66
     1
 40
0.000000
 41
0.000000
  0
VERTEX
  8
0
  6
CONTINUOUS
 10
6.978400
 20
1.476200
  0
VERTEX
  8
0
  6
CONTINUOUS
 10
6.987640
 20
2.222440
  0
VERTEX
  8
0
  6
CONTINUOUS
 10
7.020640
 20
2.231240
  0
VERTEX
  8
0
  6
CONTINUOUS
 10
7.011400
 20
1.485000
  0
VERTEX
  8
0
  6
CONTINUOUS
 10
6.978400
 20
1.476200
  0
SEQEND
  8
0
  0
SOLID
  8
0
 62
    15
 10
7.011400
 20
1.485000
 11
7.020640
 21
2.231240
 12
7.043960
 22
1.487200
 13
7.053200
 23
2.233440
  0
POLYLINE
  8
0
  6
CONTINUOUS
 66
     1
 40
0.000000
 41
0.000000
  0
VERTEX
  8
0
  6
CONTINUOUS
 10
7.011400
 20
1.485000
  0
VERTEX
  8
0
  6
CONTINUOUS
 10
7.020640
 20
2.231240
  0
VERTEX
  8
0
  6
CONTINUOUS
 10
7.053200
 20
2.233440
  0
VERTEX
  8
0
  6
CONTINUOUS
 10
7.043960
 20
1.487200
  0
VERTEX
  8
0
  6
CONTINUOUS
 10
7.011400
 20
1.485000
  0
SEQEND
  8
0
  0
SOLID
  8
0
 62
    15
 10
7.043960
 20
1.487200
 11
7.053200
 21
2.233440
 12
7.076080
 22
1.484120
 13
7.085320
 23
2.230360
  0
POLYLINE
  8
0
  6
CONTINUOUS
 66
     1
 40
0.000000
 41
0.000000
  0
VERTEX
  8
0
  6
CONTINUOUS
 10
7.043960
 20
1.487200
  0
VERTEX
  8
0
  6
CONTINUOUS
 10
7.053200
 20
2.233440
  0
VERTEX
  8
0
  6
CONTINUOUS
 10
7.085320
 20
2.230360
  0
VERTEX
  8
0
  6
CONTINUOUS
 10
7.076080
 20
1.484120
  0
VERTEX
  8
0
  6
CONTINUOUS
 10
7.043960
 20
1.487200
  0
SEQEND
  8
0
  0
SOLID
  8
0
 62
    15
 10
7.076080
 20
1.484120
 11
7.085320
 21
2.230360
 12
7.106440
 22
1.474440
 13
7.115680
 23
2.220680
  0
POLYLINE
  8
0
  6
CONTINUOUS
 66
     1
 40
0.000000
 41
0.000000
  0
VERTEX
  8
0
  6
CONTINUOUS
 10
7.076080
 20
1.484120
  0
VERTEX
  8
0
  6
CONTINUOUS
 10
7.085320
 20
2.230360
  0
VERTEX
  8
0
  6
CONTINUOUS
 10
7.115680
 20
2.220680
  0
VERTEX
  8
0
  6
CONTINUOUS
 10
7.106440
 20
1.474440
  0
VERTEX
  8
0
  6
CONTINUOUS
 10
7.076080
 20
1.484120
  0
SEQEND
  8
0
  0
SOLID
  8
0
 62
    15
 10
7.106440
 20
1.474440
 11
7.115680
 21
2.220680
 12
7.134600
 22
1.459480
 13
7.143840
 23
2.205720
  0
POLYLINE
  8
0
  6
CONTINUOUS
 66
     1
 40
0.000000
 41
0.000000
  0
VERTEX
  8
0
  6
CONTINUOUS
 10
7.106440
 20
1.474440
  0
VERTEX
  8
0
  6
CONTINUOUS
 10
7.115680
 20
2.220680
  0
VERTEX
  8
0
  6
CONTINUOUS
 10
7.143840
 20
2.205720
  0
VERTEX
  8
0
  6
CONTINUOUS
 10
7.134600
 20
1.459480
  0
VERTEX
  8
0
  6
CONTINUOUS
 10
7.106440
 20
1.474440
  0
SEQEND
  8
0
  0
SOLID
  8
0
 62
    15
 10
7.134600
 20
1.459480
 11
7.143840
 21
2.205720
 12
7.159240
 22
1.438800
 13
7.168480
 23
2.185040
  0
POLYLINE
  8
0
  6
CONTINUOUS
 66
     1
 40
0.000000
 41
0.000000
  0
VERTEX
  8
0
  6
CONTINUOUS
 10
7.134600
 20
1.459480
  0
VERTEX
  8
0
  6
CONTINUOUS
 10
7.143840
 20
2.205720
  0
VERTEX
  8
0
  6
CONTINUOUS
 10
7.168480
 20
2.185040
  0
VERTEX
  8
0
  6
CONTINUOUS
 10
7.159240
 20
1.438800
  0
VERTEX
  8
0
  6
CONTINUOUS
 10
7.134600
 20
1.459480
  0
SEQEND
  8
0
  0
SOLID
  8
0
 62
    15
 10
7.159240
 20
1.438800
 11
7.168480
 21
2.185040
 12
7.179920
 22
1.412840
 13
7.189160
 23
2.159080
  0
POLYLINE
  8
0
  6
CONTINUOUS
 66
     1
 40
0.000000
 41
0.000000
  0
VERTEX
  8
0
  6
CONTINUOUS
 10
7.159240
 20
1.438800
  0
VERTEX
  8
0
  6
CONTINUOUS
 10
7.168480
 20
2.185040
  0
VERTEX
  8
0
  6
CONTINUOUS
 10
7.189160
 20
2.159080
  0
VERTEX
  8
0
  6
CONTINUOUS
 10
7.179920
 20
1.412840
  0
VERTEX
  8
0
  6
CONTINUOUS
 10
7.159240
 20
1.438800
  0
SEQEND
  8
0
  0
SOLID
  8
0
 62
    15
 10
7.179920
 20
1.412840
 11
7.189160
 21
2.159080
 12
7.195760
 22
1.381600
 13
7.205000
 23
2.127840
  0
POLYLINE
  8
0
  6
CONTINUOUS
 66
     1
 40
0.000000
 41
0.000000
  0
VERTEX
  8
0
  6
CONTINUOUS
 10
7.179920
 20
1.412840
  0
VERTEX
  8
0
  6
CONTINUOUS
 10
7.189160
 20
2.159080
  0
VERTEX
  8
0
  6
CONTINUOUS
 10
7.205000
 20
2.127840
  0
VERTEX
  8
0
  6
CONTINUOUS
 10
7.195760
 20
1.381600
  0
VERTEX
  8
0
  6
CONTINUOUS
 10
7.179920
 20
1.412840
  0
SEQEND
  8
0
  0
SOLID
  8
0
 62
    15
 10
7.205880
 20
1.345080
 11
7.215120
 21
2.091320
 12
7.209400
 22
1.303720
 13
7.218640
 23
2.049960
  0
POLYLINE
  8
0
  6
CONTINUOUS
 66
     1
 40
0.000000
 41
0.000000
  0
VERTEX
  8
0
  6
CONTINUOUS
 10
7.205880
 20
1.345080
  0
VERTEX
  8
0
  6
CONTINUOUS
 10
7.215120
 20
2.091320
  0
VERTEX
  8
0
  6
CONTINUOUS
 10
7.218640
 20
2.049960
  0
VERTEX
  8
0
  6
CONTINUOUS
 10
7.209400
 20
1.303720
  0
VERTEX
  8
0
  6
CONTINUOUS
 10
7.205880
 20
1.345080
  0
SEQEND
  8
0
  0
SOLID
  8
0
 62
    15
 10
7.195760
 20
1.381600
 11
7.205000
 21
2.127840
 12
7.205880
 22
1.345080
 13
7.215120
 23
2.091320
  0
POLYLINE
  8
0
  6
CONTINUOUS
 66
     1
 40
0.000000
 41
0.000000
  0
VERTEX
  8
0
  6
CONTINUOUS
 10
7.195760
 20
1.381600
  0
VERTEX
  8
0
  6
CONTINUOUS
 10
7.205000
 20
2.127840
  0
VERTEX
  8
0
  6
CONTINUOUS
 10
7.215120
 20
2.091320
  0
VERTEX
  8
0
  6
CONTINUOUS
 10
7.205880
 20
1.345080
  0
VERTEX
  8
0
  6
CONTINUOUS
 10
7.195760
 20
1.381600
  0
SEQEND
  8
0
  0
SOLID
  8
0
 62
    15
 10
7.209400
 20
1.303720
 11
7.218640
 21
2.049960
 12
7.209400
 22
0.973720
 13
7.218640
 23
1.719960
  0
POLYLINE
  8
0
  6
CONTINUOUS
 66
     1
 40
0.000000
 41
0.000000
  0
VERTEX
  8
0
  6
CONTINUOUS
 10
7.209400
 20
1.303720
  0
VERTEX
  8
0
  6
CONTINUOUS
 10
7.218640
 20
2.049960
  0
VERTEX
  8
0
  6
CONTINUOUS
 10
7.218640
 20
1.719960
  0
VERTEX
  8
0
  6
CONTINUOUS
 10
7.209400
 20
0.973720
  0
VERTEX
  8
0
  6
CONTINUOUS
 10
7.209400
 20
1.303720
  0
SEQEND
  8
0
  0
POLYLINE
  8
0
  6
CONTINUOUS
 66
     1
 40
0.000000
 41
0.000000
  0
VERTEX
  8
0
  6
CONTINUOUS
 10
3.741320
 20
1.628440
  0
VERTEX
  8
0
  6
CONTINUOUS
 10
3.744400
 20
1.655720
  0
VERTEX
  8
0
  6
CONTINUOUS
 10
3.752760
 20
1.677720
  0
VERTEX
  8
0
  6
CONTINUOUS
 10
3.765520
 20
1.694880
  0
VERTEX
  8
0
  6
CONTINUOUS
 10
3.781800
 20
1.708080
  0
VERTEX
  8
0
  6
CONTINUOUS
 10
3.817880
 20
1.723480
  0
VERTEX
  8
0
  6
CONTINUOUS
 10
3.852200
 20
1.727880
  0
VERTEX
  8
0
  6
CONTINUOUS
 10
4.111360
 20
1.727880
  0
VERTEX
  8
0
  6
CONTINUOUS
 10
4.143040
 20
1.722160
  0
VERTEX
  8
0
  6
CONTINUOUS
 10
4.177800
 20
1.704120
  0
VERTEX
  8
0
  6
CONTINUOUS
 10
4.192760
 20
1.690480
  0
VERTEX
  8
0
  6
CONTINUOUS
 10
4.205080
 20
1.673760
  0
VERTEX
  8
0
  6
CONTINUOUS
 10
4.213440
 20
1.653960
  0
VERTEX
  8
0
  6
CONTINUOUS
 10
4.216520
 20
1.631080
  0
VERTEX
  8
0
  6
CONTINUOUS
 10
4.245120
 20
1.631080
  0
VERTEX
  8
0
  6
CONTINUOUS
 10
4.268000
 20
1.665840
  0
VERTEX
  8
0
  6
CONTINUOUS
 10
4.296600
 20
1.692240
  0
VERTEX
  8
0
  6
CONTINUOUS
 10
4.329600
 20
1.709840
  0
VERTEX
  8
0
  6
CONTINUOUS
 10
4.366120
 20
1.717320
  0
VERTEX
  8
0
  6
CONTINUOUS
 10
4.405720
 20
1.713800
  0
VERTEX
  8
0
  6
CONTINUOUS
 10
4.447960
 20
1.698400
  0
VERTEX
  8
0
  6
CONTINUOUS
 10
4.491080
 20
1.670240
  0
VERTEX
  8
0
  6
CONTINUOUS
 10
4.568960
 20
1.595880
  0
VERTEX
  8
0
  6
CONTINUOUS
 10
4.609000
 20
1.565520
  0
VERTEX
  8
0
  6
CONTINUOUS
 10
4.699200
 20
1.510960
  0
VERTEX
  8
0
  6
CONTINUOUS
 10
4.745840
 20
1.488520
  0
VERTEX
  8
0
  6
CONTINUOUS
 10
4.790280
 20
1.469160
  0
VERTEX
  8
0
  6
CONTINUOUS
 10
4.865520
 20
1.443200
  0
VERTEX
  8
0
  6
CONTINUOUS
 10
4.869920
 20
1.470480
  0
VERTEX
  8
0
  6
CONTINUOUS
 10
4.878280
 20
1.494240
  0
VERTEX
  8
0
  6
CONTINUOUS
 10
4.890160
 20
1.514480
  0
VERTEX
  8
0
  6
CONTINUOUS
 10
4.904680
 20
1.530760
  0
VERTEX
  8
0
  6
CONTINUOUS
 10
4.921400
 20
1.543520
  0
VERTEX
  8
0
  6
CONTINUOUS
 10
4.940320
 20
1.552760
  0
VERTEX
  8
0
  6
CONTINUOUS
 10
4.960560
 20
1.558040
  0
VERTEX
  8
0
  6
CONTINUOUS
 10
4.981240
 20
1.560240
  0
VERTEX
  8
0
  6
CONTINUOUS
 10
5.022600
 20
1.554080
  0
VERTEX
  8
0
  6
CONTINUOUS
 10
5.042400
 20
1.546160
  0
VERTEX
  8
0
  6
CONTINUOUS
 10
5.060440
 20
1.534720
  0
VERTEX
  8
0
  6
CONTINUOUS
 10
5.076720
 20
1.520200
  0
VERTEX
  8
0
  6
CONTINUOUS
 10
5.090360
 20
1.502600
  0
VERTEX
  8
0
  6
CONTINUOUS
 10
5.100920
 20
1.481480
  0
VERTEX
  8
0
  6
CONTINUOUS
 10
5.107520
 20
1.457280
  0
VERTEX
  8
0
  6
CONTINUOUS
 10
6.712640
 20
1.491600
  0
VERTEX
  8
0
  6
CONTINUOUS
 10
6.745200
 20
1.286560
  0
VERTEX
  8
0
  6
CONTINUOUS
 10
6.827920
 20
1.286560
  0
VERTEX
  8
0
  6
CONTINUOUS
 10
6.843320
 20
1.335400
  0
VERTEX
  8
0
  6
CONTINUOUS
 10
6.863560
 20
1.377200
  0
VERTEX
  8
0
  6
CONTINUOUS
 10
6.888200
 20
1.411960
  0
VERTEX
  8
0
  6
CONTINUOUS
 10
6.916360
 20
1.440120
  0
VERTEX
  8
0
  6
CONTINUOUS
 10
6.946280
 20
1.461240
  0
VERTEX
  8
0
  6
CONTINUOUS
 10
6.978400
 20
1.476200
  0
VERTEX
  8
0
  6
CONTINUOUS
 10
7.011400
 20
1.485000
  0
VERTEX
  8
0
  6
CONTINUOUS
 10
7.043960
 20
1.487200
  0
VERTEX
  8
0
  6
CONTINUOUS
 10
7.076080
 20
1.484120
  0
VERTEX
  8
0
  6
CONTINUOUS
 10
7.106440
 20
1.474440
  0
VERTEX
  8
0
  6
CONTINUOUS
 10
7.134600
 20
1.459480
  0
VERTEX
  8
0
  6
CONTINUOUS
 10
7.159240
 20
1.438800
  0
VERTEX
  8
0
  6
CONTINUOUS
 10
7.179920
 20
1.412840
  0
VERTEX
  8
0
  6
CONTINUOUS
 10
7.195760
 20
1.381600
  0
VERTEX
  8
0
  6
CONTINUOUS
 10
7.205880
 20
1.345080
  0
VERTEX
  8
0
  6
CONTINUOUS
 10
7.209400
 20
1.303720
  0
VERTEX
  8
0
  6
CONTINUOUS
 10
7.209400
 20
0.973720
  0
VERTEX
  8
0
  6
CONTINUOUS
 10
3.742200
 20
0.973720
  0
VERTEX
  8
0
  6
CONTINUOUS
 10
3.742200
 20
1.628000
  0
VERTEX
  8
0
  6
CONTINUOUS
 10
3.741320
 20
1.628440
  0
SEQEND
  8
0
  0
TEXT
  8
0
 10
5.184080
 20
0.758560
 40
0.138056
  1
BA  834
 41
1.000000
  7
SN0
 71
     0
 72
     5
 11
5.774421
 21
0.758560
  0
TEXT
  8
0
 10
4.982120
 20
0.566720
 40
0.138056
  1
3/4" x 3-7/16"
 41
1.000000
  7
SN0
 71
     0
 72
     5
 11
5.974949
 21
0.566720
  0
POLYLINE
  8
0
  6
CONTINUOUS
 66
     1
 40
0.014080
 41
0.014080
  0
VERTEX
  8
0
  6
CONTINUOUS
 10
3.678400
 20
3.538480
  0
VERTEX
  8
0
  6
CONTINUOUS
 10
3.681480
 20
3.565760
  0
VERTEX
  8
0
  6
CONTINUOUS
 10
3.690280
 20
3.587760
  0
VERTEX
  8
0
  6
CONTINUOUS
 10
3.696000
 20
3.597000
  0
VERTEX
  8
0
  6
CONTINUOUS
 10
3.710520
 20
3.611960
  0
VERTEX
  8
0
  6
CONTINUOUS
 10
3.727680
 20
3.623400
  0
VERTEX
  8
0
  6
CONTINUOUS
 10
3.755400
 20
3.633520
  0
VERTEX
  8
0
  6
CONTINUOUS
 10
3.773000
 20
3.637040
  0
VERTEX
  8
0
  6
CONTINUOUS
 10
3.789280
 20
3.637920
  0
VERTEX
  8
0
  6
CONTINUOUS
 10
4.055920
 20
3.637480
  0
VERTEX
  8
0
  6
CONTINUOUS
 10
4.080560
 20
3.632200
  0
VERTEX
  8
0
  6
CONTINUOUS
 10
4.106520
 20
3.619880
  0
VERTEX
  8
0
  6
CONTINUOUS
 10
4.130280
 20
3.600520
  0
VERTEX
  8
0
  6
CONTINUOUS
 10
4.142160
 20
3.583800
  0
VERTEX
  8
0
  6
CONTINUOUS
 10
4.147000
 20
3.574560
  0
VERTEX
  8
0
  6
CONTINUOUS
 10
4.152720
 20
3.553000
  0
VERTEX
  8
0
  6
CONTINUOUS
 10
4.153600
 20
3.541120
  0
VERTEX
  8
0
  6
CONTINUOUS
 10
4.182200
 20
3.541120
  0
VERTEX
  8
0
  6
CONTINUOUS
 10
4.193200
 20
3.559600
  0
VERTEX
  8
0
  6
CONTINUOUS
 10
4.212120
 20
3.583360
  0
VERTEX
  8
0
  6
CONTINUOUS
 10
4.233680
 20
3.602280
  0
VERTEX
  8
0
  6
CONTINUOUS
 10
4.258320
 20
3.616360
  0
VERTEX
  8
0
  6
CONTINUOUS
 10
4.275480
 20
3.622520
  0
VERTEX
  8
0
  6
CONTINUOUS
 10
4.293960
 20
3.626480
  0
VERTEX
  8
0
  6
CONTINUOUS
 10
4.313320
 20
3.627360
  0
VERTEX
  8
0
  6
CONTINUOUS
 10
4.343240
 20
3.623840
  0
VERTEX
  8
0
  6
CONTINUOUS
 10
4.374480
 20
3.613280
  0
VERTEX
  8
0
  6
CONTINUOUS
 10
4.406600
 20
3.596120
  0
VERTEX
  8
0
  6
CONTINUOUS
 10
4.439600
 20
3.571040
  0
VERTEX
  8
0
  6
CONTINUOUS
 10
4.506480
 20
3.505920
  0
VERTEX
  8
0
  6
CONTINUOUS
 10
4.546080
 20
3.475560
  0
VERTEX
  8
0
  6
CONTINUOUS
 10
4.613400
 20
3.433760
  0
VERTEX
  8
0
  6
CONTINUOUS
 10
4.682920
 20
3.398560
  0
VERTEX
  8
0
  6
CONTINUOUS
 10
4.748480
 20
3.371280
  0
VERTEX
  8
0
  6
CONTINUOUS
 10
4.803040
 20
3.353240
  0
VERTEX
  8
0
  6
CONTINUOUS
 10
4.807440
 20
3.380520
  0
VERTEX
  8
0
  6
CONTINUOUS
 10
4.815360
 20
3.404280
  0
VERTEX
  8
0
  6
CONTINUOUS
 10
4.827240
 20
3.424520
  0
VERTEX
  8
0
  6
CONTINUOUS
 10
4.841760
 20
3.440800
  0
VERTEX
  8
0
  6
CONTINUOUS
 10
4.858920
 20
3.453560
  0
VERTEX
  8
0
  6
CONTINUOUS
 10
4.877400
 20
3.462800
  0
VERTEX
  8
0
  6
CONTINUOUS
 10
4.908200
 20
3.469840
  0
VERTEX
  8
0
  6
CONTINUOUS
 10
4.928880
 20
3.470280
  0
VERTEX
  8
0
  6
CONTINUOUS
 10
4.960120
 20
3.464560
  0
VERTEX
  8
0
  6
CONTINUOUS
 10
4.989160
 20
3.450920
  0
VERTEX
  8
0
  6
CONTINUOUS
 10
5.006320
 20
3.438160
  0
VERTEX
  8
0
  6
CONTINUOUS
 10
5.021280
 20
3.421880
  0
VERTEX
  8
0
  6
CONTINUOUS
 10
5.033160
 20
3.402520
  0
VERTEX
  8
0
  6
CONTINUOUS
 10
5.041960
 20
3.380080
  0
VERTEX
  8
0
  6
CONTINUOUS
 10
5.045040
 20
3.367760
  0
VERTEX
  8
0
  6
CONTINUOUS
 10
6.649720
 20
3.401640
  0
VERTEX
  8
0
  6
CONTINUOUS
 10
6.682720
 20
3.196600
  0
VERTEX
  8
0
  6
CONTINUOUS
 10
6.765000
 20
3.196600
  0
VERTEX
  8
0
  6
CONTINUOUS
 10
6.772040
 20
3.221680
  0
VERTEX
  8
0
  6
CONTINUOUS
 10
6.780400
 20
3.245440
  0
VERTEX
  8
0
  6
CONTINUOUS
 10
6.790080
 20
3.267000
  0
VERTEX
  8
0
  6
CONTINUOUS
 10
6.812960
 20
3.305280
  0
VERTEX
  8
0
  6
CONTINUOUS
 10
6.838920
 20
3.336520
  0
VERTEX
  8
0
  6
CONTINUOUS
 10
6.868400
 20
3.361160
  0
VERTEX
  8
0
  6
CONTINUOUS
 10
6.899640
 20
3.379640
  0
VERTEX
  8
0
  6
CONTINUOUS
 10
6.932200
 20
3.391520
  0
VERTEX
  8
0
  6
CONTINUOUS
 10
6.948480
 20
3.395040
  0
VERTEX
  8
0
  6
CONTINUOUS
 10
6.981480
 20
3.397240
  0
VERTEX
  8
0
  6
CONTINUOUS
 10
6.997320
 20
3.396360
  0
VERTEX
  8
0
  6
CONTINUOUS
 10
7.029000
 20
3.389760
  0
VERTEX
  8
0
  6
CONTINUOUS
 10
7.058040
 20
3.377880
  0
VERTEX
  8
0
  6
CONTINUOUS
 10
7.084440
 20
3.359840
  0
VERTEX
  8
0
  6
CONTINUOUS
 10
7.107320
 20
3.336520
  0
VERTEX
  8
0
  6
CONTINUOUS
 10
7.125800
 20
3.307920
  0
VERTEX
  8
0
  6
CONTINUOUS
 10
7.132840
 20
3.291640
  0
VERTEX
  8
0
  6
CONTINUOUS
 10
7.138560
 20
3.274040
  0
VERTEX
  8
0
  6
CONTINUOUS
 10
7.142960
 20
3.255120
  0
VERTEX
  8
0
  6
CONTINUOUS
 10
7.145600
 20
3.234880
  0
VERTEX
  8
0
  6
CONTINUOUS
 10
7.146480
 20
3.213760
  0
VERTEX
  8
0
  6
CONTINUOUS
 10
7.146480
 20
2.883760
  0
VERTEX
  8
0
  6
CONTINUOUS
 10
3.679280
 20
2.883760
  0
VERTEX
  8
0
  6
CONTINUOUS
 10
3.679280
 20
3.538040
  0
VERTEX
  8
0
  6
CONTINUOUS
 10
3.678400
 20
3.538480
  0
SEQEND
  8
0
  0
ENDSEC
  0
EOF
