  0
SECTION
  2
HEADER
  9
$ACADVER
  1
AC1006
  9
$EXTMIN
 10
3.439920
 20
0.515680
  9
$EXTMAX
 10
7.177720
 20
5.108400
  9
$LTSCALE
 40
0.044000
  9
$PDMODE
 70
    35
  9
$PDSIZE
 40
0.035200
  0
ENDSEC
  0
SECTION
  2
TABLES
  0
TABLE
  2
LTYPE
 70
     9
  0
LTYPE
  2
CONTINUOUS
 70
    64
  3
Solid line
 72
    65
 73
     0
 40
0.000000
  0
LTYPE
  2
DASHED
 70
    64
  3
__ __ __ __ __ __ __ __ __ __ __ __ __ __ __
 72
    65
 73
     2
 40
0.000330
 49
0.000220
 49
-0.000110
  0
LTYPE
  2
HIDDEN
 70
    64
  3
 _ _ _ _ _ _ _ _ _ _ _ _ _ _ _ _ _ _ _ _ _ _
 72
    65
 73
     2
 40
0.000165
 49
0.000110
 49
-0.000055
  0
LTYPE
  2
CENTER
 70
    64
  3
____ _ ____ _ ____ _ ____ _ ____ _ ____ _ ____
 72
    65
 73
     4
 40
0.000880
 49
0.000550
 49
-0.000110
 49
0.000110
 49
-0.000110
  0
LTYPE
  2
PHANTOM
 70
    64
  3
_____ _ _ _____ _ _ _____ _ _ _____ _ _ ____
 72
    65
 73
     6
 40
0.001100
 49
0.000550
 49
-0.000110
 49
0.000110
 49
-0.000110
 49
0.000110
 49
-0.000110
  0
LTYPE
  2
DOT
 70
    64
  3
...............................................
 72
    65
 73
     2
 40
0.000110
 49
0.000000
 49
-0.000110
  0
LTYPE
  2
DASHDOT
 70
    64
  3
__ . __ . __ . __ . __ . __ . __ . __ . __ . __
 72
    65
 73
     4
 40
0.000440
 49
0.000220
 49
-0.000110
 49
0.000000
 49
-0.000110
  0
LTYPE
  2
BORDER
 70
    64
  3
__ __ . __ __ . __ __ . __ __ . __ __ . __ __
 72
    65
 73
     6
 40
0.000770
 49
0.000220
 49
-0.000110
 49
0.000220
 49
-0.000110
 49
0.000000
 49
-0.000110
  0
LTYPE
  2
DIVIDE
 70
    64
  3
__ . . __ . . __ . . __ . . __ . . __ . . __
 72
    65
 73
     6
 40
0.000550
 49
0.000220
 49
-0.000110
 49
0.000000
 49
-0.000110
 49
0.000000
 49
-0.000110
  0
LTYPE
  2
DOTDOT
 70
    64
  3
 . .  . .  . .  . .  . .  . . 
 72
    65
 73
     5
 40
0.000242
 49
-0.000110
 49
0.000000
 49
-0.000110
 49
0.000000
 49
-0.000110
  0
ENDTAB
  0
TABLE
  2
STYLE
 70
     2
  0
STYLE
 70
     0
  2
SN0
 40
0.000000
 41
0.000440
 50
0.000000
 71
     0
 42
0.000000
  3
ROMAND
  0
STYLE
 70
    68
  2
SV0
 40
0.000000
 41
0.000440
 50
0.000000
 71
     0
 42
0.000000
  3
ROMAND
  0
ENDTAB
  0
TABLE
  2
LAYER
 70
     3
  0
LAYER
  2
FOREGROUND
 70
    64
 62
     7
  6
CONTINUOUS
  0
LAYER
  2
BACKGROUND
 70
    65
 62
    -7
  6
CONTINUOUS
  0
LAYER
  2
0
 70
    64
 62
     7
  6
CONTINUOUS
  0
ENDTAB
  0
ENDSEC
  0
SECTION
  2
ENTITIES
  0
POLYLINE
  8
FOREGROUND
  6
CONTINUOUS
 66
     1
 40
0.000000
 41
0.000000
  0
VERTEX
  8
FOREGROUND
  6
CONTINUOUS
 10
0.000000
 20
5.624080
  0
VERTEX
  8
FOREGROUND
  6
CONTINUOUS
 10
8.499920
 20
5.624080
  0
VERTEX
  8
FOREGROUND
  6
CONTINUOUS
 10
8.499920
 20
-5.375920
  0
VERTEX
  8
FOREGROUND
  6
CONTINUOUS
 10
0.000000
 20
-5.375920
  0
VERTEX
  8
FOREGROUND
  6
CONTINUOUS
 10
0.000000
 20
5.624080
  0
SEQEND
  8
0
  0
POLYLINE
  8
FOREGROUND
  6
CONTINUOUS
 66
     1
 40
0.000000
 41
0.000000
  0
VERTEX
  8
FOREGROUND
  6
CONTINUOUS
 10
0.000000
 20
5.624080
  0
VERTEX
  8
FOREGROUND
  6
CONTINUOUS
 10
8.499920
 20
5.624080
  0
VERTEX
  8
FOREGROUND
  6
CONTINUOUS
 10
8.499920
 20
-5.375920
  0
VERTEX
  8
FOREGROUND
  6
CONTINUOUS
 10
0.000000
 20
-5.375920
  0
VERTEX
  8
FOREGROUND
  6
CONTINUOUS
 10
0.000000
 20
5.624080
  0
SEQEND
  8
0
  0
SOLID
  8
0
 62
    15
 10
5.639480
 20
2.332000
 11
6.287160
 21
1.956680
 12
5.571280
 22
2.231240
 13
6.218960
 23
1.855480
  0
POLYLINE
  8
0
  6
CONTINUOUS
 66
     1
 40
0.000000
 41
0.000000
  0
VERTEX
  8
0
  6
CONTINUOUS
 10
5.639480
 20
2.332000
  0
VERTEX
  8
0
  6
CONTINUOUS
 10
6.287160
 20
1.956680
  0
VERTEX
  8
0
  6
CONTINUOUS
 10
6.218960
 20
1.855480
  0
VERTEX
  8
0
  6
CONTINUOUS
 10
5.571280
 20
2.231240
  0
VERTEX
  8
0
  6
CONTINUOUS
 10
5.639480
 20
2.332000
  0
SEQEND
  8
0
  0
SOLID
  8
0
 62
    15
 10
6.529600
 20
3.803800
 11
7.177720
 21
3.428480
 12
6.516400
 22
3.427600
 13
7.164520
 23
3.051840
  0
POLYLINE
  8
0
  6
CONTINUOUS
 66
     1
 40
0.000000
 41
0.000000
  0
VERTEX
  8
0
  6
CONTINUOUS
 10
6.529600
 20
3.803800
  0
VERTEX
  8
0
  6
CONTINUOUS
 10
7.177720
 20
3.428480
  0
VERTEX
  8
0
  6
CONTINUOUS
 10
7.164520
 20
3.051840
  0
VERTEX
  8
0
  6
CONTINUOUS
 10
6.516400
 20
3.427600
  0
VERTEX
  8
0
  6
CONTINUOUS
 10
6.529600
 20
3.803800
  0
SEQEND
  8
0
  0
SOLID
  8
0
 62
    15
 10
6.516400
 20
3.427600
 11
7.164520
 21
3.051840
 12
6.442040
 22
3.423640
 13
7.090160
 23
3.048320
  0
POLYLINE
  8
0
  6
CONTINUOUS
 66
     1
 40
0.000000
 41
0.000000
  0
VERTEX
  8
0
  6
CONTINUOUS
 10
6.516400
 20
3.427600
  0
VERTEX
  8
0
  6
CONTINUOUS
 10
7.164520
 20
3.051840
  0
VERTEX
  8
0
  6
CONTINUOUS
 10
7.090160
 20
3.048320
  0
VERTEX
  8
0
  6
CONTINUOUS
 10
6.442040
 20
3.423640
  0
VERTEX
  8
0
  6
CONTINUOUS
 10
6.516400
 20
3.427600
  0
SEQEND
  8
0
  0
SOLID
  8
0
 62
    15
 10
6.442040
 20
3.423640
 11
7.090160
 21
3.048320
 12
6.373400
 22
3.409560
 13
7.021520
 23
3.033800
  0
POLYLINE
  8
0
  6
CONTINUOUS
 66
     1
 40
0.000000
 41
0.000000
  0
VERTEX
  8
0
  6
CONTINUOUS
 10
6.442040
 20
3.423640
  0
VERTEX
  8
0
  6
CONTINUOUS
 10
7.090160
 20
3.048320
  0
VERTEX
  8
0
  6
CONTINUOUS
 10
7.021520
 20
3.033800
  0
VERTEX
  8
0
  6
CONTINUOUS
 10
6.373400
 20
3.409560
  0
VERTEX
  8
0
  6
CONTINUOUS
 10
6.442040
 20
3.423640
  0
SEQEND
  8
0
  0
SOLID
  8
0
 62
    15
 10
6.373400
 20
3.409560
 11
7.021520
 21
3.033800
 12
6.252400
 22
3.352360
 13
6.900520
 23
2.976600
  0
POLYLINE
  8
0
  6
CONTINUOUS
 66
     1
 40
0.000000
 41
0.000000
  0
VERTEX
  8
0
  6
CONTINUOUS
 10
6.373400
 20
3.409560
  0
VERTEX
  8
0
  6
CONTINUOUS
 10
7.021520
 20
3.033800
  0
VERTEX
  8
0
  6
CONTINUOUS
 10
6.900520
 20
2.976600
  0
VERTEX
  8
0
  6
CONTINUOUS
 10
6.252400
 20
3.352360
  0
VERTEX
  8
0
  6
CONTINUOUS
 10
6.373400
 20
3.409560
  0
SEQEND
  8
0
  0
SOLID
  8
0
 62
    15
 10
6.252400
 20
3.352360
 11
6.900520
 21
2.976600
 12
6.150760
 22
3.264360
 13
6.798440
 23
2.889040
  0
POLYLINE
  8
0
  6
CONTINUOUS
 66
     1
 40
0.000000
 41
0.000000
  0
VERTEX
  8
0
  6
CONTINUOUS
 10
6.252400
 20
3.352360
  0
VERTEX
  8
0
  6
CONTINUOUS
 10
6.900520
 20
2.976600
  0
VERTEX
  8
0
  6
CONTINUOUS
 10
6.798440
 20
2.889040
  0
VERTEX
  8
0
  6
CONTINUOUS
 10
6.150760
 20
3.264360
  0
VERTEX
  8
0
  6
CONTINUOUS
 10
6.252400
 20
3.352360
  0
SEQEND
  8
0
  0
SOLID
  8
0
 62
    15
 10
6.150760
 20
3.264360
 11
6.798440
 21
2.889040
 12
6.064080
 22
3.154360
 13
6.712200
 23
2.779040
  0
POLYLINE
  8
0
  6
CONTINUOUS
 66
     1
 40
0.000000
 41
0.000000
  0
VERTEX
  8
0
  6
CONTINUOUS
 10
6.150760
 20
3.264360
  0
VERTEX
  8
0
  6
CONTINUOUS
 10
6.798440
 20
2.889040
  0
VERTEX
  8
0
  6
CONTINUOUS
 10
6.712200
 20
2.779040
  0
VERTEX
  8
0
  6
CONTINUOUS
 10
6.064080
 20
3.154360
  0
VERTEX
  8
0
  6
CONTINUOUS
 10
6.150760
 20
3.264360
  0
SEQEND
  8
0
  0
SOLID
  8
0
 62
    15
 10
6.064080
 20
3.154360
 11
6.712200
 21
2.779040
 12
5.990600
 22
3.030720
 13
6.638720
 23
2.655400
  0
POLYLINE
  8
0
  6
CONTINUOUS
 66
     1
 40
0.000000
 41
0.000000
  0
VERTEX
  8
0
  6
CONTINUOUS
 10
6.064080
 20
3.154360
  0
VERTEX
  8
0
  6
CONTINUOUS
 10
6.712200
 20
2.779040
  0
VERTEX
  8
0
  6
CONTINUOUS
 10
6.638720
 20
2.655400
  0
VERTEX
  8
0
  6
CONTINUOUS
 10
5.990600
 20
3.030720
  0
VERTEX
  8
0
  6
CONTINUOUS
 10
6.064080
 20
3.154360
  0
SEQEND
  8
0
  0
SOLID
  8
0
 62
    15
 10
5.990600
 20
3.030720
 11
6.638720
 21
2.655400
 12
5.925920
 22
2.902240
 13
6.574040
 23
2.526920
  0
POLYLINE
  8
0
  6
CONTINUOUS
 66
     1
 40
0.000000
 41
0.000000
  0
VERTEX
  8
0
  6
CONTINUOUS
 10
5.990600
 20
3.030720
  0
VERTEX
  8
0
  6
CONTINUOUS
 10
6.638720
 20
2.655400
  0
VERTEX
  8
0
  6
CONTINUOUS
 10
6.574040
 20
2.526920
  0
VERTEX
  8
0
  6
CONTINUOUS
 10
5.925920
 20
2.902240
  0
VERTEX
  8
0
  6
CONTINUOUS
 10
5.990600
 20
3.030720
  0
SEQEND
  8
0
  0
SOLID
  8
0
 62
    15
 10
5.925920
 20
2.902240
 11
6.574040
 21
2.526920
 12
5.896440
 22
2.838880
 13
6.544560
 23
2.463560
  0
POLYLINE
  8
0
  6
CONTINUOUS
 66
     1
 40
0.000000
 41
0.000000
  0
VERTEX
  8
0
  6
CONTINUOUS
 10
5.925920
 20
2.902240
  0
VERTEX
  8
0
  6
CONTINUOUS
 10
6.574040
 20
2.526920
  0
VERTEX
  8
0
  6
CONTINUOUS
 10
6.544560
 20
2.463560
  0
VERTEX
  8
0
  6
CONTINUOUS
 10
5.896440
 20
2.838880
  0
VERTEX
  8
0
  6
CONTINUOUS
 10
5.925920
 20
2.902240
  0
SEQEND
  8
0
  0
SOLID
  8
0
 62
    15
 10
5.896440
 20
2.838880
 11
6.544560
 21
2.463560
 12
5.867840
 22
2.777720
 13
6.515960
 23
2.401960
  0
POLYLINE
  8
0
  6
CONTINUOUS
 66
     1
 40
0.000000
 41
0.000000
  0
VERTEX
  8
0
  6
CONTINUOUS
 10
5.896440
 20
2.838880
  0
VERTEX
  8
0
  6
CONTINUOUS
 10
6.544560
 20
2.463560
  0
VERTEX
  8
0
  6
CONTINUOUS
 10
6.515960
 20
2.401960
  0
VERTEX
  8
0
  6
CONTINUOUS
 10
5.867840
 20
2.777720
  0
VERTEX
  8
0
  6
CONTINUOUS
 10
5.896440
 20
2.838880
  0
SEQEND
  8
0
  0
SOLID
  8
0
 62
    15
 10
5.867840
 20
2.777720
 11
6.515960
 21
2.401960
 12
5.812400
 22
2.665080
 13
6.460520
 23
2.289320
  0
POLYLINE
  8
0
  6
CONTINUOUS
 66
     1
 40
0.000000
 41
0.000000
  0
VERTEX
  8
0
  6
CONTINUOUS
 10
5.867840
 20
2.777720
  0
VERTEX
  8
0
  6
CONTINUOUS
 10
6.515960
 20
2.401960
  0
VERTEX
  8
0
  6
CONTINUOUS
 10
6.460520
 20
2.289320
  0
VERTEX
  8
0
  6
CONTINUOUS
 10
5.812400
 20
2.665080
  0
VERTEX
  8
0
  6
CONTINUOUS
 10
5.867840
 20
2.777720
  0
SEQEND
  8
0
  0
SOLID
  8
0
 62
    15
 10
5.812400
 20
2.665080
 11
6.460520
 21
2.289320
 12
5.757400
 22
2.556400
 13
6.405520
 23
2.181080
  0
POLYLINE
  8
0
  6
CONTINUOUS
 66
     1
 40
0.000000
 41
0.000000
  0
VERTEX
  8
0
  6
CONTINUOUS
 10
5.812400
 20
2.665080
  0
VERTEX
  8
0
  6
CONTINUOUS
 10
6.460520
 20
2.289320
  0
VERTEX
  8
0
  6
CONTINUOUS
 10
6.405520
 20
2.181080
  0
VERTEX
  8
0
  6
CONTINUOUS
 10
5.757400
 20
2.556400
  0
VERTEX
  8
0
  6
CONTINUOUS
 10
5.812400
 20
2.665080
  0
SEQEND
  8
0
  0
SOLID
  8
0
 62
    15
 10
5.757400
 20
2.556400
 11
6.405520
 21
2.181080
 12
5.729240
 22
2.500080
 13
6.377360
 23
2.124320
  0
POLYLINE
  8
0
  6
CONTINUOUS
 66
     1
 40
0.000000
 41
0.000000
  0
VERTEX
  8
0
  6
CONTINUOUS
 10
5.757400
 20
2.556400
  0
VERTEX
  8
0
  6
CONTINUOUS
 10
6.405520
 20
2.181080
  0
VERTEX
  8
0
  6
CONTINUOUS
 10
6.377360
 20
2.124320
  0
VERTEX
  8
0
  6
CONTINUOUS
 10
5.729240
 20
2.500080
  0
VERTEX
  8
0
  6
CONTINUOUS
 10
5.757400
 20
2.556400
  0
SEQEND
  8
0
  0
SOLID
  8
0
 62
    15
 10
5.729240
 20
2.500080
 11
6.377360
 21
2.124320
 12
5.700640
 22
2.442880
 13
6.348760
 23
2.067560
  0
POLYLINE
  8
0
  6
CONTINUOUS
 66
     1
 40
0.000000
 41
0.000000
  0
VERTEX
  8
0
  6
CONTINUOUS
 10
5.729240
 20
2.500080
  0
VERTEX
  8
0
  6
CONTINUOUS
 10
6.377360
 20
2.124320
  0
VERTEX
  8
0
  6
CONTINUOUS
 10
6.348760
 20
2.067560
  0
VERTEX
  8
0
  6
CONTINUOUS
 10
5.700640
 20
2.442880
  0
VERTEX
  8
0
  6
CONTINUOUS
 10
5.729240
 20
2.500080
  0
SEQEND
  8
0
  0
SOLID
  8
0
 62
    15
 10
5.700640
 20
2.442880
 11
6.348760
 21
2.067560
 12
5.639480
 22
2.332000
 13
6.287160
 23
1.956680
  0
POLYLINE
  8
0
  6
CONTINUOUS
 66
     1
 40
0.000000
 41
0.000000
  0
VERTEX
  8
0
  6
CONTINUOUS
 10
5.700640
 20
2.442880
  0
VERTEX
  8
0
  6
CONTINUOUS
 10
6.348760
 20
2.067560
  0
VERTEX
  8
0
  6
CONTINUOUS
 10
6.287160
 20
1.956680
  0
VERTEX
  8
0
  6
CONTINUOUS
 10
5.639480
 20
2.332000
  0
VERTEX
  8
0
  6
CONTINUOUS
 10
5.700640
 20
2.442880
  0
SEQEND
  8
0
  0
SOLID
  8
0
 62
    15
 10
4.522760
 20
0.915640
 11
5.170880
 21
0.540320
 12
4.263160
 22
0.891440
 13
4.911280
 23
0.515680
  0
POLYLINE
  8
0
  6
CONTINUOUS
 66
     1
 40
0.000000
 41
0.000000
  0
VERTEX
  8
0
  6
CONTINUOUS
 10
4.522760
 20
0.915640
  0
VERTEX
  8
0
  6
CONTINUOUS
 10
5.170880
 20
0.540320
  0
VERTEX
  8
0
  6
CONTINUOUS
 10
4.911280
 20
0.515680
  0
VERTEX
  8
0
  6
CONTINUOUS
 10
4.263160
 20
0.891440
  0
VERTEX
  8
0
  6
CONTINUOUS
 10
4.522760
 20
0.915640
  0
SEQEND
  8
0
  0
SOLID
  8
0
 62
    15
 10
5.571280
 20
2.231240
 11
6.218960
 21
1.855480
 12
5.492960
 22
2.147200
 13
6.141080
 23
1.771880
  0
POLYLINE
  8
0
  6
CONTINUOUS
 66
     1
 40
0.000000
 41
0.000000
  0
VERTEX
  8
0
  6
CONTINUOUS
 10
5.571280
 20
2.231240
  0
VERTEX
  8
0
  6
CONTINUOUS
 10
6.218960
 20
1.855480
  0
VERTEX
  8
0
  6
CONTINUOUS
 10
6.141080
 20
1.771880
  0
VERTEX
  8
0
  6
CONTINUOUS
 10
5.492960
 20
2.147200
  0
VERTEX
  8
0
  6
CONTINUOUS
 10
5.571280
 20
2.231240
  0
SEQEND
  8
0
  0
SOLID
  8
0
 62
    15
 10
5.492960
 20
2.147200
 11
6.141080
 21
1.771880
 12
5.402760
 22
2.087800
 13
6.050880
 23
1.712040
  0
POLYLINE
  8
0
  6
CONTINUOUS
 66
     1
 40
0.000000
 41
0.000000
  0
VERTEX
  8
0
  6
CONTINUOUS
 10
5.492960
 20
2.147200
  0
VERTEX
  8
0
  6
CONTINUOUS
 10
6.141080
 20
1.771880
  0
VERTEX
  8
0
  6
CONTINUOUS
 10
6.050880
 20
1.712040
  0
VERTEX
  8
0
  6
CONTINUOUS
 10
5.402760
 20
2.087800
  0
VERTEX
  8
0
  6
CONTINUOUS
 10
5.492960
 20
2.147200
  0
SEQEND
  8
0
  0
SOLID
  8
0
 62
    15
 10
5.402760
 20
2.087800
 11
6.050880
 21
1.712040
 12
5.297600
 22
2.060080
 13
5.945280
 23
1.684320
  0
POLYLINE
  8
0
  6
CONTINUOUS
 66
     1
 40
0.000000
 41
0.000000
  0
VERTEX
  8
0
  6
CONTINUOUS
 10
5.402760
 20
2.087800
  0
VERTEX
  8
0
  6
CONTINUOUS
 10
6.050880
 20
1.712040
  0
VERTEX
  8
0
  6
CONTINUOUS
 10
5.945280
 20
1.684320
  0
VERTEX
  8
0
  6
CONTINUOUS
 10
5.297600
 20
2.060080
  0
VERTEX
  8
0
  6
CONTINUOUS
 10
5.402760
 20
2.087800
  0
SEQEND
  8
0
  0
SOLID
  8
0
 62
    15
 10
5.297600
 20
2.060080
 11
5.945280
 21
1.684320
 12
5.238200
 22
2.060520
 13
5.886320
 23
1.684760
  0
POLYLINE
  8
0
  6
CONTINUOUS
 66
     1
 40
0.000000
 41
0.000000
  0
VERTEX
  8
0
  6
CONTINUOUS
 10
5.297600
 20
2.060080
  0
VERTEX
  8
0
  6
CONTINUOUS
 10
5.945280
 20
1.684320
  0
VERTEX
  8
0
  6
CONTINUOUS
 10
5.886320
 20
1.684760
  0
VERTEX
  8
0
  6
CONTINUOUS
 10
5.238200
 20
2.060520
  0
VERTEX
  8
0
  6
CONTINUOUS
 10
5.297600
 20
2.060080
  0
SEQEND
  8
0
  0
SOLID
  8
0
 62
    15
 10
5.238200
 20
2.060520
 11
5.886320
 21
1.684760
 12
5.174400
 22
2.071520
 13
5.822520
 23
1.695760
  0
POLYLINE
  8
0
  6
CONTINUOUS
 66
     1
 40
0.000000
 41
0.000000
  0
VERTEX
  8
0
  6
CONTINUOUS
 10
5.238200
 20
2.060520
  0
VERTEX
  8
0
  6
CONTINUOUS
 10
5.886320
 20
1.684760
  0
VERTEX
  8
0
  6
CONTINUOUS
 10
5.822520
 20
1.695760
  0
VERTEX
  8
0
  6
CONTINUOUS
 10
5.174400
 20
2.071520
  0
VERTEX
  8
0
  6
CONTINUOUS
 10
5.238200
 20
2.060520
  0
SEQEND
  8
0
  0
SOLID
  8
0
 62
    15
 10
5.174400
 20
2.071520
 11
5.822520
 21
1.695760
 12
5.174840
 22
1.716000
 13
5.822960
 23
1.340680
  0
POLYLINE
  8
0
  6
CONTINUOUS
 66
     1
 40
0.000000
 41
0.000000
  0
VERTEX
  8
0
  6
CONTINUOUS
 10
5.174400
 20
2.071520
  0
VERTEX
  8
0
  6
CONTINUOUS
 10
5.822520
 20
1.695760
  0
VERTEX
  8
0
  6
CONTINUOUS
 10
5.822960
 20
1.340680
  0
VERTEX
  8
0
  6
CONTINUOUS
 10
5.174840
 20
1.716000
  0
VERTEX
  8
0
  6
CONTINUOUS
 10
5.174400
 20
2.071520
  0
SEQEND
  8
0
  0
SOLID
  8
0
 62
    15
 10
5.174840
 20
1.716000
 11
5.822960
 21
1.340680
 12
4.935920
 22
1.693560
 13
5.584040
 23
1.318240
  0
POLYLINE
  8
0
  6
CONTINUOUS
 66
     1
 40
0.000000
 41
0.000000
  0
VERTEX
  8
0
  6
CONTINUOUS
 10
5.174840
 20
1.716000
  0
VERTEX
  8
0
  6
CONTINUOUS
 10
5.822960
 20
1.340680
  0
VERTEX
  8
0
  6
CONTINUOUS
 10
5.584040
 20
1.318240
  0
VERTEX
  8
0
  6
CONTINUOUS
 10
4.935920
 20
1.693560
  0
VERTEX
  8
0
  6
CONTINUOUS
 10
5.174840
 20
1.716000
  0
SEQEND
  8
0
  0
SOLID
  8
0
 62
    15
 10
4.935920
 20
1.693560
 11
5.584040
 21
1.318240
 12
4.951320
 22
1.603360
 13
5.599440
 23
1.228040
  0
POLYLINE
  8
0
  6
CONTINUOUS
 66
     1
 40
0.000000
 41
0.000000
  0
VERTEX
  8
0
  6
CONTINUOUS
 10
4.935920
 20
1.693560
  0
VERTEX
  8
0
  6
CONTINUOUS
 10
5.584040
 20
1.318240
  0
VERTEX
  8
0
  6
CONTINUOUS
 10
5.599440
 20
1.228040
  0
VERTEX
  8
0
  6
CONTINUOUS
 10
4.951320
 20
1.603360
  0
VERTEX
  8
0
  6
CONTINUOUS
 10
4.935920
 20
1.693560
  0
SEQEND
  8
0
  0
SOLID
  8
0
 62
    15
 10
4.951320
 20
1.603360
 11
5.599440
 21
1.228040
 12
4.950000
 22
1.507880
 13
5.598120
 23
1.132560
  0
POLYLINE
  8
0
  6
CONTINUOUS
 66
     1
 40
0.000000
 41
0.000000
  0
VERTEX
  8
0
  6
CONTINUOUS
 10
4.951320
 20
1.603360
  0
VERTEX
  8
0
  6
CONTINUOUS
 10
5.599440
 20
1.228040
  0
VERTEX
  8
0
  6
CONTINUOUS
 10
5.598120
 20
1.132560
  0
VERTEX
  8
0
  6
CONTINUOUS
 10
4.950000
 20
1.507880
  0
VERTEX
  8
0
  6
CONTINUOUS
 10
4.951320
 20
1.603360
  0
SEQEND
  8
0
  0
SOLID
  8
0
 62
    15
 10
4.950000
 20
1.507880
 11
5.598120
 21
1.132560
 12
4.931520
 22
1.411960
 13
5.579640
 23
1.036640
  0
POLYLINE
  8
0
  6
CONTINUOUS
 66
     1
 40
0.000000
 41
0.000000
  0
VERTEX
  8
0
  6
CONTINUOUS
 10
4.950000
 20
1.507880
  0
VERTEX
  8
0
  6
CONTINUOUS
 10
5.598120
 20
1.132560
  0
VERTEX
  8
0
  6
CONTINUOUS
 10
5.579640
 20
1.036640
  0
VERTEX
  8
0
  6
CONTINUOUS
 10
4.931520
 20
1.411960
  0
VERTEX
  8
0
  6
CONTINUOUS
 10
4.950000
 20
1.507880
  0
SEQEND
  8
0
  0
SOLID
  8
0
 62
    15
 10
4.931520
 20
1.411960
 11
5.579640
 21
1.036640
 12
4.894560
 22
1.320440
 13
5.542680
 23
0.945120
  0
POLYLINE
  8
0
  6
CONTINUOUS
 66
     1
 40
0.000000
 41
0.000000
  0
VERTEX
  8
0
  6
CONTINUOUS
 10
4.931520
 20
1.411960
  0
VERTEX
  8
0
  6
CONTINUOUS
 10
5.579640
 20
1.036640
  0
VERTEX
  8
0
  6
CONTINUOUS
 10
5.542680
 20
0.945120
  0
VERTEX
  8
0
  6
CONTINUOUS
 10
4.894560
 20
1.320440
  0
VERTEX
  8
0
  6
CONTINUOUS
 10
4.931520
 20
1.411960
  0
SEQEND
  8
0
  0
SOLID
  8
0
 62
    15
 10
4.894560
 20
1.320440
 11
5.542680
 21
0.945120
 12
4.836920
 22
1.237720
 13
5.485040
 23
0.862400
  0
POLYLINE
  8
0
  6
CONTINUOUS
 66
     1
 40
0.000000
 41
0.000000
  0
VERTEX
  8
0
  6
CONTINUOUS
 10
4.894560
 20
1.320440
  0
VERTEX
  8
0
  6
CONTINUOUS
 10
5.542680
 20
0.945120
  0
VERTEX
  8
0
  6
CONTINUOUS
 10
5.485040
 20
0.862400
  0
VERTEX
  8
0
  6
CONTINUOUS
 10
4.836920
 20
1.237720
  0
VERTEX
  8
0
  6
CONTINUOUS
 10
4.894560
 20
1.320440
  0
SEQEND
  8
0
  0
SOLID
  8
0
 62
    15
 10
4.836920
 20
1.237720
 11
5.485040
 21
0.862400
 12
4.758600
 22
1.168640
 13
5.406720
 23
0.792880
  0
POLYLINE
  8
0
  6
CONTINUOUS
 66
     1
 40
0.000000
 41
0.000000
  0
VERTEX
  8
0
  6
CONTINUOUS
 10
4.836920
 20
1.237720
  0
VERTEX
  8
0
  6
CONTINUOUS
 10
5.485040
 20
0.862400
  0
VERTEX
  8
0
  6
CONTINUOUS
 10
5.406720
 20
0.792880
  0
VERTEX
  8
0
  6
CONTINUOUS
 10
4.758600
 20
1.168640
  0
VERTEX
  8
0
  6
CONTINUOUS
 10
4.836920
 20
1.237720
  0
SEQEND
  8
0
  0
SOLID
  8
0
 62
    15
 10
4.758600
 20
1.168640
 11
5.406720
 21
0.792880
 12
4.657840
 22
1.117600
 13
5.305960
 23
0.741840
  0
POLYLINE
  8
0
  6
CONTINUOUS
 66
     1
 40
0.000000
 41
0.000000
  0
VERTEX
  8
0
  6
CONTINUOUS
 10
4.758600
 20
1.168640
  0
VERTEX
  8
0
  6
CONTINUOUS
 10
5.406720
 20
0.792880
  0
VERTEX
  8
0
  6
CONTINUOUS
 10
5.305960
 20
0.741840
  0
VERTEX
  8
0
  6
CONTINUOUS
 10
4.657840
 20
1.117600
  0
VERTEX
  8
0
  6
CONTINUOUS
 10
4.758600
 20
1.168640
  0
SEQEND
  8
0
  0
SOLID
  8
0
 62
    15
 10
4.657840
 20
1.117600
 11
5.305960
 21
0.741840
 12
4.533320
 22
1.089000
 13
5.181440
 23
0.713240
  0
POLYLINE
  8
0
  6
CONTINUOUS
 66
     1
 40
0.000000
 41
0.000000
  0
VERTEX
  8
0
  6
CONTINUOUS
 10
4.657840
 20
1.117600
  0
VERTEX
  8
0
  6
CONTINUOUS
 10
5.305960
 20
0.741840
  0
VERTEX
  8
0
  6
CONTINUOUS
 10
5.181440
 20
0.713240
  0
VERTEX
  8
0
  6
CONTINUOUS
 10
4.533320
 20
1.089000
  0
VERTEX
  8
0
  6
CONTINUOUS
 10
4.657840
 20
1.117600
  0
SEQEND
  8
0
  0
SOLID
  8
0
 62
    15
 10
4.533320
 20
1.089000
 11
5.181440
 21
0.713240
 12
4.522760
 22
0.915640
 13
5.170880
 23
0.540320
  0
POLYLINE
  8
0
  6
CONTINUOUS
 66
     1
 40
0.000000
 41
0.000000
  0
VERTEX
  8
0
  6
CONTINUOUS
 10
4.533320
 20
1.089000
  0
VERTEX
  8
0
  6
CONTINUOUS
 10
5.181440
 20
0.713240
  0
VERTEX
  8
0
  6
CONTINUOUS
 10
5.170880
 20
0.540320
  0
VERTEX
  8
0
  6
CONTINUOUS
 10
4.522760
 20
0.915640
  0
VERTEX
  8
0
  6
CONTINUOUS
 10
4.533320
 20
1.089000
  0
SEQEND
  8
0
  0
POLYLINE
  8
0
  6
CONTINUOUS
 66
     1
 40
0.000000
 41
0.000000
  0
VERTEX
  8
0
  6
CONTINUOUS
 10
4.522760
 20
0.915640
  0
VERTEX
  8
0
  6
CONTINUOUS
 10
4.263160
 20
0.891440
  0
VERTEX
  8
0
  6
CONTINUOUS
 10
4.294840
 20
1.794760
  0
VERTEX
  8
0
  6
CONTINUOUS
 10
5.849800
 20
3.792360
  0
VERTEX
  8
0
  6
CONTINUOUS
 10
6.529600
 20
3.803800
  0
VERTEX
  8
0
  6
CONTINUOUS
 10
6.516400
 20
3.427600
  0
VERTEX
  8
0
  6
CONTINUOUS
 10
6.442040
 20
3.423640
  0
VERTEX
  8
0
  6
CONTINUOUS
 10
6.373400
 20
3.409560
  0
VERTEX
  8
0
  6
CONTINUOUS
 10
6.252400
 20
3.352360
  0
VERTEX
  8
0
  6
CONTINUOUS
 10
6.150760
 20
3.264360
  0
VERTEX
  8
0
  6
CONTINUOUS
 10
6.064080
 20
3.154360
  0
VERTEX
  8
0
  6
CONTINUOUS
 10
5.990600
 20
3.030720
  0
VERTEX
  8
0
  6
CONTINUOUS
 10
5.925920
 20
2.902240
  0
VERTEX
  8
0
  6
CONTINUOUS
 10
5.896440
 20
2.838880
  0
VERTEX
  8
0
  6
CONTINUOUS
 10
5.867840
 20
2.777720
  0
VERTEX
  8
0
  6
CONTINUOUS
 10
5.812400
 20
2.665080
  0
VERTEX
  8
0
  6
CONTINUOUS
 10
5.757400
 20
2.556400
  0
VERTEX
  8
0
  6
CONTINUOUS
 10
5.729240
 20
2.500080
  0
VERTEX
  8
0
  6
CONTINUOUS
 10
5.700640
 20
2.442880
  0
VERTEX
  8
0
  6
CONTINUOUS
 10
5.639480
 20
2.332000
  0
VERTEX
  8
0
  6
CONTINUOUS
 10
5.571280
 20
2.231240
  0
VERTEX
  8
0
  6
CONTINUOUS
 10
5.492960
 20
2.147200
  0
VERTEX
  8
0
  6
CONTINUOUS
 10
5.402760
 20
2.087800
  0
VERTEX
  8
0
  6
CONTINUOUS
 10
5.297600
 20
2.060080
  0
VERTEX
  8
0
  6
CONTINUOUS
 10
5.238200
 20
2.060520
  0
VERTEX
  8
0
  6
CONTINUOUS
 10
5.174400
 20
2.071520
  0
VERTEX
  8
0
  6
CONTINUOUS
 10
5.174840
 20
1.716000
  0
VERTEX
  8
0
  6
CONTINUOUS
 10
4.935920
 20
1.693560
  0
VERTEX
  8
0
  6
CONTINUOUS
 10
4.951320
 20
1.603360
  0
VERTEX
  8
0
  6
CONTINUOUS
 10
4.950000
 20
1.507880
  0
VERTEX
  8
0
  6
CONTINUOUS
 10
4.931520
 20
1.411960
  0
VERTEX
  8
0
  6
CONTINUOUS
 10
4.894560
 20
1.320440
  0
VERTEX
  8
0
  6
CONTINUOUS
 10
4.836920
 20
1.237720
  0
VERTEX
  8
0
  6
CONTINUOUS
 10
4.758600
 20
1.168640
  0
VERTEX
  8
0
  6
CONTINUOUS
 10
4.657840
 20
1.117600
  0
VERTEX
  8
0
  6
CONTINUOUS
 10
4.533320
 20
1.089000
  0
VERTEX
  8
0
  6
CONTINUOUS
 10
4.522760
 20
0.915640
  0
SEQEND
  8
0
  0
TEXT
  8
0
 10
6.040760
 20
0.906400
 40
0.138093
  1
BA  832
 41
1.000000
  7
SN0
 71
     0
 72
     5
 11
6.631613
 21
0.906400
  0
TEXT
  8
0
 10
5.792600
 20
0.714560
 40
0.138093
  1
3/4" x 3-11/16"
 41
1.000000
  7
SN0
 71
     0
 72
     5
 11
6.878549
 21
0.714560
  0
POLYLINE
  8
0
  6
CONTINUOUS
 66
     1
 40
0.014080
 41
0.014080
  0
VERTEX
  8
0
  6
CONTINUOUS
 10
3.773000
 20
4.951760
  0
VERTEX
  8
0
  6
CONTINUOUS
 10
3.821840
 20
4.996640
  0
VERTEX
  8
0
  6
CONTINUOUS
 10
3.872000
 20
5.032720
  0
VERTEX
  8
0
  6
CONTINUOUS
 10
3.897520
 20
5.047680
  0
VERTEX
  8
0
  6
CONTINUOUS
 10
3.948560
 20
5.071440
  0
VERTEX
  8
0
  6
CONTINUOUS
 10
4.000040
 20
5.088160
  0
VERTEX
  8
0
  6
CONTINUOUS
 10
4.026000
 20
5.093880
  0
VERTEX
  8
0
  6
CONTINUOUS
 10
4.051520
 20
5.097840
  0
VERTEX
  8
0
  6
CONTINUOUS
 10
4.102560
 20
5.100920
  0
VERTEX
  8
0
  6
CONTINUOUS
 10
4.152720
 20
5.098280
  0
VERTEX
  8
0
  6
CONTINUOUS
 10
4.202000
 20
5.089480
  0
VERTEX
  8
0
  6
CONTINUOUS
 10
4.225760
 20
5.083760
  0
VERTEX
  8
0
  6
CONTINUOUS
 10
4.272400
 20
5.067920
  0
VERTEX
  8
0
  6
CONTINUOUS
 10
4.317280
 20
5.047680
  0
VERTEX
  8
0
  6
CONTINUOUS
 10
4.359520
 20
5.023480
  0
VERTEX
  8
0
  6
CONTINUOUS
 10
4.399120
 20
4.996200
  0
VERTEX
  8
0
  6
CONTINUOUS
 10
4.435200
 20
4.965840
  0
VERTEX
  8
0
  6
CONTINUOUS
 10
4.468200
 20
4.932840
  0
VERTEX
  8
0
  6
CONTINUOUS
 10
4.497240
 20
4.898080
  0
VERTEX
  8
0
  6
CONTINUOUS
 10
4.661800
 20
5.072760
  0
VERTEX
  8
0
  6
CONTINUOUS
 10
4.942080
 20
4.854080
  0
VERTEX
  8
0
  6
CONTINUOUS
 10
4.964520
 20
4.898080
  0
VERTEX
  8
0
  6
CONTINUOUS
 10
4.990040
 20
4.935920
  0
VERTEX
  8
0
  6
CONTINUOUS
 10
5.018200
 20
4.968480
  0
VERTEX
  8
0
  6
CONTINUOUS
 10
5.049440
 20
4.995320
  0
VERTEX
  8
0
  6
CONTINUOUS
 10
5.071880
 20
5.010720
  0
VERTEX
  8
0
  6
CONTINUOUS
 10
5.095200
 20
5.024360
  0
VERTEX
  8
0
  6
CONTINUOUS
 10
5.119400
 20
5.035800
  0
VERTEX
  8
0
  6
CONTINUOUS
 10
5.170440
 20
5.052960
  0
VERTEX
  8
0
  6
CONTINUOUS
 10
5.197720
 20
5.059120
  0
VERTEX
  8
0
  6
CONTINUOUS
 10
5.253160
 20
5.066600
  0
VERTEX
  8
0
  6
CONTINUOUS
 10
5.311680
 20
5.068800
  0
VERTEX
  8
0
  6
CONTINUOUS
 10
5.371960
 20
5.066600
  0
VERTEX
  8
0
  6
CONTINUOUS
 10
5.433120
 20
5.060880
  0
VERTEX
  8
0
  6
CONTINUOUS
 10
5.495600
 20
5.052080
  0
VERTEX
  8
0
  6
CONTINUOUS
 10
5.621000
 20
5.028760
  0
VERTEX
  8
0
  6
CONTINUOUS
 10
5.862120
 20
4.981680
  0
VERTEX
  8
0
  6
CONTINUOUS
 10
6.059680
 20
4.936800
  0
VERTEX
  8
0
  6
CONTINUOUS
 10
6.200480
 20
4.908640
  0
VERTEX
  8
0
  6
CONTINUOUS
 10
6.271760
 20
4.898080
  0
VERTEX
  8
0
  6
CONTINUOUS
 10
6.343040
 20
4.891040
  0
VERTEX
  8
0
  6
CONTINUOUS
 10
6.413880
 20
4.888840
  0
VERTEX
  8
0
  6
CONTINUOUS
 10
6.448640
 20
4.889280
  0
VERTEX
  8
0
  6
CONTINUOUS
 10
6.482960
 20
4.891480
  0
VERTEX
  8
0
  6
CONTINUOUS
 10
6.516840
 20
4.895440
  0
VERTEX
  8
0
  6
CONTINUOUS
 10
6.550280
 20
4.901160
  0
VERTEX
  8
0
  6
CONTINUOUS
 10
6.582840
 20
4.908640
  0
VERTEX
  8
0
  6
CONTINUOUS
 10
6.614960
 20
4.918320
  0
VERTEX
  8
0
  6
CONTINUOUS
 10
6.661600
 20
4.936360
  0
VERTEX
  8
0
  6
CONTINUOUS
 10
6.706040
 20
4.959680
  0
VERTEX
  8
0
  6
CONTINUOUS
 10
6.748280
 20
4.988720
  0
VERTEX
  8
0
  6
CONTINUOUS
 10
6.787880
 20
5.023480
  0
VERTEX
  8
0
  6
CONTINUOUS
 10
6.824840
 20
5.064840
  0
VERTEX
  8
0
  6
CONTINUOUS
 10
6.836280
 20
5.080240
  0
VERTEX
  8
0
  6
CONTINUOUS
 10
7.141640
 20
4.859360
  0
VERTEX
  8
0
  6
CONTINUOUS
 10
6.714840
 20
4.330040
  0
VERTEX
  8
0
  6
CONTINUOUS
 10
4.183080
 20
4.330040
  0
VERTEX
  8
0
  6
CONTINUOUS
 10
3.450920
 20
4.860240
  0
VERTEX
  8
0
  6
CONTINUOUS
 10
3.630000
 20
5.050320
  0
VERTEX
  8
0
  6
CONTINUOUS
 10
3.773000
 20
4.951760
  0
SEQEND
  8
0
  0
ENDSEC
  0
EOF
