  0
SECTION
  2
HEADER
  9
$ACADVER
  1
AC1006
  9
$EXTMIN
 10
1.135640
 20
0.469920
  9
$EXTMAX
 10
7.120960
 20
3.323320
  9
$LTSCALE
 40
0.044000
  9
$PDMODE
 70
    35
  9
$PDSIZE
 40
0.035200
  0
ENDSEC
  0
SECTION
  2
TABLES
  0
TABLE
  2
LTYPE
 70
     9
  0
LTYPE
  2
CONTINUOUS
 70
    64
  3
Solid line
 72
    65
 73
     0
 40
0.000000
  0
LTYPE
  2
DASHED
 70
    64
  3
__ __ __ __ __ __ __ __ __ __ __ __ __ __ __
 72
    65
 73
     2
 40
0.000330
 49
0.000220
 49
-0.000110
  0
LTYPE
  2
HIDDEN
 70
    64
  3
 _ _ _ _ _ _ _ _ _ _ _ _ _ _ _ _ _ _ _ _ _ _
 72
    65
 73
     2
 40
0.000165
 49
0.000110
 49
-0.000055
  0
LTYPE
  2
CENTER
 70
    64
  3
____ _ ____ _ ____ _ ____ _ ____ _ ____ _ ____
 72
    65
 73
     4
 40
0.000880
 49
0.000550
 49
-0.000110
 49
0.000110
 49
-0.000110
  0
LTYPE
  2
PHANTOM
 70
    64
  3
_____ _ _ _____ _ _ _____ _ _ _____ _ _ ____
 72
    65
 73
     6
 40
0.001100
 49
0.000550
 49
-0.000110
 49
0.000110
 49
-0.000110
 49
0.000110
 49
-0.000110
  0
LTYPE
  2
DOT
 70
    64
  3
...............................................
 72
    65
 73
     2
 40
0.000110
 49
0.000000
 49
-0.000110
  0
LTYPE
  2
DASHDOT
 70
    64
  3
__ . __ . __ . __ . __ . __ . __ . __ . __ . __
 72
    65
 73
     4
 40
0.000440
 49
0.000220
 49
-0.000110
 49
0.000000
 49
-0.000110
  0
LTYPE
  2
BORDER
 70
    64
  3
__ __ . __ __ . __ __ . __ __ . __ __ . __ __
 72
    65
 73
     6
 40
0.000770
 49
0.000220
 49
-0.000110
 49
0.000220
 49
-0.000110
 49
0.000000
 49
-0.000110
  0
LTYPE
  2
DIVIDE
 70
    64
  3
__ . . __ . . __ . . __ . . __ . . __ . . __
 72
    65
 73
     6
 40
0.000550
 49
0.000220
 49
-0.000110
 49
0.000000
 49
-0.000110
 49
0.000000
 49
-0.000110
  0
LTYPE
  2
DOTDOT
 70
    64
  3
 . .  . .  . .  . .  . .  . . 
 72
    65
 73
     5
 40
0.000242
 49
-0.000110
 49
0.000000
 49
-0.000110
 49
0.000000
 49
-0.000110
  0
ENDTAB
  0
TABLE
  2
STYLE
 70
     2
  0
STYLE
 70
     0
  2
SN0
 40
0.000000
 41
0.000440
 50
0.000000
 71
     0
 42
0.000000
  3
ROMAND
  0
STYLE
 70
    68
  2
SV0
 40
0.000000
 41
0.000440
 50
0.000000
 71
     0
 42
0.000000
  3
ROMAND
  0
ENDTAB
  0
TABLE
  2
LAYER
 70
     3
  0
LAYER
  2
FOREGROUND
 70
    64
 62
     7
  6
CONTINUOUS
  0
LAYER
  2
BACKGROUND
 70
    65
 62
    -7
  6
CONTINUOUS
  0
LAYER
  2
0
 70
    64
 62
     7
  6
CONTINUOUS
  0
ENDTAB
  0
ENDSEC
  0
SECTION
  2
ENTITIES
  0
POLYLINE
  8
FOREGROUND
  6
CONTINUOUS
 66
     1
 40
0.000000
 41
0.000000
  0
VERTEX
  8
FOREGROUND
  6
CONTINUOUS
 10
0.000000
 20
3.793240
  0
VERTEX
  8
FOREGROUND
  6
CONTINUOUS
 10
8.499920
 20
3.793240
  0
VERTEX
  8
FOREGROUND
  6
CONTINUOUS
 10
8.499920
 20
-7.206760
  0
VERTEX
  8
FOREGROUND
  6
CONTINUOUS
 10
0.000000
 20
-7.206760
  0
VERTEX
  8
FOREGROUND
  6
CONTINUOUS
 10
0.000000
 20
3.793240
  0
SEQEND
  8
0
  0
POLYLINE
  8
FOREGROUND
  6
CONTINUOUS
 66
     1
 40
0.000000
 41
0.000000
  0
VERTEX
  8
FOREGROUND
  6
CONTINUOUS
 10
0.000000
 20
3.793240
  0
VERTEX
  8
FOREGROUND
  6
CONTINUOUS
 10
8.499920
 20
3.793240
  0
VERTEX
  8
FOREGROUND
  6
CONTINUOUS
 10
8.499920
 20
-7.206760
  0
VERTEX
  8
FOREGROUND
  6
CONTINUOUS
 10
0.000000
 20
-7.206760
  0
VERTEX
  8
FOREGROUND
  6
CONTINUOUS
 10
0.000000
 20
3.793240
  0
SEQEND
  8
0
  0
SOLID
  8
0
 62
    15
 10
1.832600
 20
1.961960
 11
2.458280
 21
1.606440
 12
1.752520
 22
1.756480
 13
2.378200
 23
1.400960
  0
POLYLINE
  8
0
  6
CONTINUOUS
 66
     1
 40
0.000000
 41
0.000000
  0
VERTEX
  8
0
  6
CONTINUOUS
 10
1.832600
 20
1.961960
  0
VERTEX
  8
0
  6
CONTINUOUS
 10
2.458280
 20
1.606440
  0
VERTEX
  8
0
  6
CONTINUOUS
 10
2.378200
 20
1.400960
  0
VERTEX
  8
0
  6
CONTINUOUS
 10
1.752520
 20
1.756480
  0
VERTEX
  8
0
  6
CONTINUOUS
 10
1.832600
 20
1.961960
  0
SEQEND
  8
0
  0
SOLID
  8
0
 62
    15
 10
3.032040
 20
3.322880
 11
3.658160
 21
2.967360
 12
3.035560
 22
3.230480
 13
3.661240
 23
2.875400
  0
POLYLINE
  8
0
  6
CONTINUOUS
 66
     1
 40
0.000000
 41
0.000000
  0
VERTEX
  8
0
  6
CONTINUOUS
 10
3.032040
 20
3.322880
  0
VERTEX
  8
0
  6
CONTINUOUS
 10
3.658160
 20
2.967360
  0
VERTEX
  8
0
  6
CONTINUOUS
 10
3.661240
 20
2.875400
  0
VERTEX
  8
0
  6
CONTINUOUS
 10
3.035560
 20
3.230480
  0
VERTEX
  8
0
  6
CONTINUOUS
 10
3.032040
 20
3.322880
  0
SEQEND
  8
0
  0
SOLID
  8
0
 62
    15
 10
3.216400
 20
3.162280
 11
3.842520
 21
2.806760
 12
3.236200
 22
3.125760
 13
3.862320
 23
2.770240
  0
POLYLINE
  8
0
  6
CONTINUOUS
 66
     1
 40
0.000000
 41
0.000000
  0
VERTEX
  8
0
  6
CONTINUOUS
 10
3.216400
 20
3.162280
  0
VERTEX
  8
0
  6
CONTINUOUS
 10
3.842520
 20
2.806760
  0
VERTEX
  8
0
  6
CONTINUOUS
 10
3.862320
 20
2.770240
  0
VERTEX
  8
0
  6
CONTINUOUS
 10
3.236200
 20
3.125760
  0
VERTEX
  8
0
  6
CONTINUOUS
 10
3.216400
 20
3.162280
  0
SEQEND
  8
0
  0
SOLID
  8
0
 62
    15
 10
3.236200
 20
3.125760
 11
3.862320
 21
2.770240
 12
3.246760
 22
3.085280
 13
3.872440
 23
2.729760
  0
POLYLINE
  8
0
  6
CONTINUOUS
 66
     1
 40
0.000000
 41
0.000000
  0
VERTEX
  8
0
  6
CONTINUOUS
 10
3.236200
 20
3.125760
  0
VERTEX
  8
0
  6
CONTINUOUS
 10
3.862320
 20
2.770240
  0
VERTEX
  8
0
  6
CONTINUOUS
 10
3.872440
 20
2.729760
  0
VERTEX
  8
0
  6
CONTINUOUS
 10
3.246760
 20
3.085280
  0
VERTEX
  8
0
  6
CONTINUOUS
 10
3.236200
 20
3.125760
  0
SEQEND
  8
0
  0
SOLID
  8
0
 62
    15
 10
3.246760
 20
3.085280
 11
3.872440
 21
2.729760
 12
3.239720
 22
2.998600
 13
3.865840
 23
2.643080
  0
POLYLINE
  8
0
  6
CONTINUOUS
 66
     1
 40
0.000000
 41
0.000000
  0
VERTEX
  8
0
  6
CONTINUOUS
 10
3.246760
 20
3.085280
  0
VERTEX
  8
0
  6
CONTINUOUS
 10
3.872440
 20
2.729760
  0
VERTEX
  8
0
  6
CONTINUOUS
 10
3.865840
 20
2.643080
  0
VERTEX
  8
0
  6
CONTINUOUS
 10
3.239720
 20
2.998600
  0
VERTEX
  8
0
  6
CONTINUOUS
 10
3.246760
 20
3.085280
  0
SEQEND
  8
0
  0
SOLID
  8
0
 62
    15
 10
3.239720
 20
2.998600
 11
3.865840
 21
2.643080
 12
3.198800
 22
2.916320
 13
3.824920
 23
2.560800
  0
POLYLINE
  8
0
  6
CONTINUOUS
 66
     1
 40
0.000000
 41
0.000000
  0
VERTEX
  8
0
  6
CONTINUOUS
 10
3.239720
 20
2.998600
  0
VERTEX
  8
0
  6
CONTINUOUS
 10
3.865840
 20
2.643080
  0
VERTEX
  8
0
  6
CONTINUOUS
 10
3.824920
 20
2.560800
  0
VERTEX
  8
0
  6
CONTINUOUS
 10
3.198800
 20
2.916320
  0
VERTEX
  8
0
  6
CONTINUOUS
 10
3.239720
 20
2.998600
  0
SEQEND
  8
0
  0
SOLID
  8
0
 62
    15
 10
3.198800
 20
2.916320
 11
3.824920
 21
2.560800
 12
3.126200
 22
2.852960
 13
3.751880
 23
2.497880
  0
POLYLINE
  8
0
  6
CONTINUOUS
 66
     1
 40
0.000000
 41
0.000000
  0
VERTEX
  8
0
  6
CONTINUOUS
 10
3.198800
 20
2.916320
  0
VERTEX
  8
0
  6
CONTINUOUS
 10
3.824920
 20
2.560800
  0
VERTEX
  8
0
  6
CONTINUOUS
 10
3.751880
 20
2.497880
  0
VERTEX
  8
0
  6
CONTINUOUS
 10
3.126200
 20
2.852960
  0
VERTEX
  8
0
  6
CONTINUOUS
 10
3.198800
 20
2.916320
  0
SEQEND
  8
0
  0
SOLID
  8
0
 62
    15
 10
3.126200
 20
2.852960
 11
3.751880
 21
2.497880
 12
3.078680
 22
2.833160
 13
3.704360
 23
2.477640
  0
POLYLINE
  8
0
  6
CONTINUOUS
 66
     1
 40
0.000000
 41
0.000000
  0
VERTEX
  8
0
  6
CONTINUOUS
 10
3.126200
 20
2.852960
  0
VERTEX
  8
0
  6
CONTINUOUS
 10
3.751880
 20
2.497880
  0
VERTEX
  8
0
  6
CONTINUOUS
 10
3.704360
 20
2.477640
  0
VERTEX
  8
0
  6
CONTINUOUS
 10
3.078680
 20
2.833160
  0
VERTEX
  8
0
  6
CONTINUOUS
 10
3.126200
 20
2.852960
  0
SEQEND
  8
0
  0
SOLID
  8
0
 62
    15
 10
3.078680
 20
2.833160
 11
3.704360
 21
2.477640
 12
3.024120
 22
2.823040
 13
3.649800
 23
2.467520
  0
POLYLINE
  8
0
  6
CONTINUOUS
 66
     1
 40
0.000000
 41
0.000000
  0
VERTEX
  8
0
  6
CONTINUOUS
 10
3.078680
 20
2.833160
  0
VERTEX
  8
0
  6
CONTINUOUS
 10
3.704360
 20
2.477640
  0
VERTEX
  8
0
  6
CONTINUOUS
 10
3.649800
 20
2.467520
  0
VERTEX
  8
0
  6
CONTINUOUS
 10
3.024120
 20
2.823040
  0
VERTEX
  8
0
  6
CONTINUOUS
 10
3.078680
 20
2.833160
  0
SEQEND
  8
0
  0
SOLID
  8
0
 62
    15
 10
3.024120
 20
2.823040
 11
3.649800
 21
2.467520
 12
2.962960
 22
2.825240
 13
3.588640
 23
2.469720
  0
POLYLINE
  8
0
  6
CONTINUOUS
 66
     1
 40
0.000000
 41
0.000000
  0
VERTEX
  8
0
  6
CONTINUOUS
 10
3.024120
 20
2.823040
  0
VERTEX
  8
0
  6
CONTINUOUS
 10
3.649800
 20
2.467520
  0
VERTEX
  8
0
  6
CONTINUOUS
 10
3.588640
 20
2.469720
  0
VERTEX
  8
0
  6
CONTINUOUS
 10
2.962960
 20
2.825240
  0
VERTEX
  8
0
  6
CONTINUOUS
 10
3.024120
 20
2.823040
  0
SEQEND
  8
0
  0
SOLID
  8
0
 62
    15
 10
2.962960
 20
2.825240
 11
3.588640
 21
2.469720
 12
2.895640
 22
2.840640
 13
3.521320
 23
2.485120
  0
POLYLINE
  8
0
  6
CONTINUOUS
 66
     1
 40
0.000000
 41
0.000000
  0
VERTEX
  8
0
  6
CONTINUOUS
 10
2.962960
 20
2.825240
  0
VERTEX
  8
0
  6
CONTINUOUS
 10
3.588640
 20
2.469720
  0
VERTEX
  8
0
  6
CONTINUOUS
 10
3.521320
 20
2.485120
  0
VERTEX
  8
0
  6
CONTINUOUS
 10
2.895640
 20
2.840640
  0
VERTEX
  8
0
  6
CONTINUOUS
 10
2.962960
 20
2.825240
  0
SEQEND
  8
0
  0
SOLID
  8
0
 62
    15
 10
2.895640
 20
2.840640
 11
3.521320
 21
2.485120
 12
2.881120
 22
2.733720
 13
3.506800
 23
2.378200
  0
POLYLINE
  8
0
  6
CONTINUOUS
 66
     1
 40
0.000000
 41
0.000000
  0
VERTEX
  8
0
  6
CONTINUOUS
 10
2.895640
 20
2.840640
  0
VERTEX
  8
0
  6
CONTINUOUS
 10
3.521320
 20
2.485120
  0
VERTEX
  8
0
  6
CONTINUOUS
 10
3.506800
 20
2.378200
  0
VERTEX
  8
0
  6
CONTINUOUS
 10
2.881120
 20
2.733720
  0
VERTEX
  8
0
  6
CONTINUOUS
 10
2.895640
 20
2.840640
  0
SEQEND
  8
0
  0
SOLID
  8
0
 62
    15
 10
2.881120
 20
2.733720
 11
3.506800
 21
2.378200
 12
2.712160
 22
2.711720
 13
3.337840
 23
2.356200
  0
POLYLINE
  8
0
  6
CONTINUOUS
 66
     1
 40
0.000000
 41
0.000000
  0
VERTEX
  8
0
  6
CONTINUOUS
 10
2.881120
 20
2.733720
  0
VERTEX
  8
0
  6
CONTINUOUS
 10
3.506800
 20
2.378200
  0
VERTEX
  8
0
  6
CONTINUOUS
 10
3.337840
 20
2.356200
  0
VERTEX
  8
0
  6
CONTINUOUS
 10
2.712160
 20
2.711720
  0
VERTEX
  8
0
  6
CONTINUOUS
 10
2.881120
 20
2.733720
  0
SEQEND
  8
0
  0
SOLID
  8
0
 62
    15
 10
2.712160
 20
2.711720
 11
3.337840
 21
2.356200
 12
2.541880
 22
2.656280
 13
3.167560
 23
2.300760
  0
POLYLINE
  8
0
  6
CONTINUOUS
 66
     1
 40
0.000000
 41
0.000000
  0
VERTEX
  8
0
  6
CONTINUOUS
 10
2.712160
 20
2.711720
  0
VERTEX
  8
0
  6
CONTINUOUS
 10
3.337840
 20
2.356200
  0
VERTEX
  8
0
  6
CONTINUOUS
 10
3.167560
 20
2.300760
  0
VERTEX
  8
0
  6
CONTINUOUS
 10
2.541880
 20
2.656280
  0
VERTEX
  8
0
  6
CONTINUOUS
 10
2.712160
 20
2.711720
  0
SEQEND
  8
0
  0
SOLID
  8
0
 62
    15
 10
2.541880
 20
2.656280
 11
3.167560
 21
2.300760
 12
2.374680
 22
2.570040
 13
3.000360
 23
2.214520
  0
POLYLINE
  8
0
  6
CONTINUOUS
 66
     1
 40
0.000000
 41
0.000000
  0
VERTEX
  8
0
  6
CONTINUOUS
 10
2.541880
 20
2.656280
  0
VERTEX
  8
0
  6
CONTINUOUS
 10
3.167560
 20
2.300760
  0
VERTEX
  8
0
  6
CONTINUOUS
 10
3.000360
 20
2.214520
  0
VERTEX
  8
0
  6
CONTINUOUS
 10
2.374680
 20
2.570040
  0
VERTEX
  8
0
  6
CONTINUOUS
 10
2.541880
 20
2.656280
  0
SEQEND
  8
0
  0
SOLID
  8
0
 62
    15
 10
2.374680
 20
2.570040
 11
3.000360
 21
2.214520
 12
2.215400
 22
2.454760
 13
2.841080
 23
2.099680
  0
POLYLINE
  8
0
  6
CONTINUOUS
 66
     1
 40
0.000000
 41
0.000000
  0
VERTEX
  8
0
  6
CONTINUOUS
 10
2.374680
 20
2.570040
  0
VERTEX
  8
0
  6
CONTINUOUS
 10
3.000360
 20
2.214520
  0
VERTEX
  8
0
  6
CONTINUOUS
 10
2.841080
 20
2.099680
  0
VERTEX
  8
0
  6
CONTINUOUS
 10
2.215400
 20
2.454760
  0
VERTEX
  8
0
  6
CONTINUOUS
 10
2.374680
 20
2.570040
  0
SEQEND
  8
0
  0
SOLID
  8
0
 62
    15
 10
2.215400
 20
2.454760
 11
2.841080
 21
2.099680
 12
2.068880
 22
2.313520
 13
2.694560
 23
1.958000
  0
POLYLINE
  8
0
  6
CONTINUOUS
 66
     1
 40
0.000000
 41
0.000000
  0
VERTEX
  8
0
  6
CONTINUOUS
 10
2.215400
 20
2.454760
  0
VERTEX
  8
0
  6
CONTINUOUS
 10
2.841080
 20
2.099680
  0
VERTEX
  8
0
  6
CONTINUOUS
 10
2.694560
 20
1.958000
  0
VERTEX
  8
0
  6
CONTINUOUS
 10
2.068880
 20
2.313520
  0
VERTEX
  8
0
  6
CONTINUOUS
 10
2.215400
 20
2.454760
  0
SEQEND
  8
0
  0
SOLID
  8
0
 62
    15
 10
2.068880
 20
2.313520
 11
2.694560
 21
1.958000
 12
1.939520
 22
2.148520
 13
2.565640
 23
1.793000
  0
POLYLINE
  8
0
  6
CONTINUOUS
 66
     1
 40
0.000000
 41
0.000000
  0
VERTEX
  8
0
  6
CONTINUOUS
 10
2.068880
 20
2.313520
  0
VERTEX
  8
0
  6
CONTINUOUS
 10
2.694560
 20
1.958000
  0
VERTEX
  8
0
  6
CONTINUOUS
 10
2.565640
 20
1.793000
  0
VERTEX
  8
0
  6
CONTINUOUS
 10
1.939520
 20
2.148520
  0
VERTEX
  8
0
  6
CONTINUOUS
 10
2.068880
 20
2.313520
  0
SEQEND
  8
0
  0
SOLID
  8
0
 62
    15
 10
1.939520
 20
2.148520
 11
2.565640
 21
1.793000
 12
1.832600
 22
1.961960
 13
2.458280
 23
1.606440
  0
POLYLINE
  8
0
  6
CONTINUOUS
 66
     1
 40
0.000000
 41
0.000000
  0
VERTEX
  8
0
  6
CONTINUOUS
 10
1.939520
 20
2.148520
  0
VERTEX
  8
0
  6
CONTINUOUS
 10
2.565640
 20
1.793000
  0
VERTEX
  8
0
  6
CONTINUOUS
 10
2.458280
 20
1.606440
  0
VERTEX
  8
0
  6
CONTINUOUS
 10
1.832600
 20
1.961960
  0
VERTEX
  8
0
  6
CONTINUOUS
 10
1.939520
 20
2.148520
  0
SEQEND
  8
0
  0
SOLID
  8
0
 62
    15
 10
3.146880
 20
3.215520
 11
3.773000
 21
2.860000
 12
3.186920
 22
3.192640
 13
3.812600
 23
2.837560
  0
POLYLINE
  8
0
  6
CONTINUOUS
 66
     1
 40
0.000000
 41
0.000000
  0
VERTEX
  8
0
  6
CONTINUOUS
 10
3.146880
 20
3.215520
  0
VERTEX
  8
0
  6
CONTINUOUS
 10
3.773000
 20
2.860000
  0
VERTEX
  8
0
  6
CONTINUOUS
 10
3.812600
 20
2.837560
  0
VERTEX
  8
0
  6
CONTINUOUS
 10
3.186920
 20
3.192640
  0
VERTEX
  8
0
  6
CONTINUOUS
 10
3.146880
 20
3.215520
  0
SEQEND
  8
0
  0
SOLID
  8
0
 62
    15
 10
1.752520
 20
1.756480
 11
2.378200
 21
1.400960
 12
1.809720
 22
1.706760
 13
2.435840
 23
1.351240
  0
POLYLINE
  8
0
  6
CONTINUOUS
 66
     1
 40
0.000000
 41
0.000000
  0
VERTEX
  8
0
  6
CONTINUOUS
 10
1.752520
 20
1.756480
  0
VERTEX
  8
0
  6
CONTINUOUS
 10
2.378200
 20
1.400960
  0
VERTEX
  8
0
  6
CONTINUOUS
 10
2.435840
 20
1.351240
  0
VERTEX
  8
0
  6
CONTINUOUS
 10
1.809720
 20
1.706760
  0
VERTEX
  8
0
  6
CONTINUOUS
 10
1.752520
 20
1.756480
  0
SEQEND
  8
0
  0
SOLID
  8
0
 62
    15
 10
1.809720
 20
1.706760
 11
2.435840
 21
1.351240
 12
1.850640
 22
1.655720
 13
2.476760
 23
1.300200
  0
POLYLINE
  8
0
  6
CONTINUOUS
 66
     1
 40
0.000000
 41
0.000000
  0
VERTEX
  8
0
  6
CONTINUOUS
 10
1.809720
 20
1.706760
  0
VERTEX
  8
0
  6
CONTINUOUS
 10
2.435840
 20
1.351240
  0
VERTEX
  8
0
  6
CONTINUOUS
 10
2.476760
 20
1.300200
  0
VERTEX
  8
0
  6
CONTINUOUS
 10
1.850640
 20
1.655720
  0
VERTEX
  8
0
  6
CONTINUOUS
 10
1.809720
 20
1.706760
  0
SEQEND
  8
0
  0
SOLID
  8
0
 62
    15
 10
1.850640
 20
1.655720
 11
2.476760
 21
1.300200
 12
1.876600
 22
1.604240
 13
2.502720
 23
1.248720
  0
POLYLINE
  8
0
  6
CONTINUOUS
 66
     1
 40
0.000000
 41
0.000000
  0
VERTEX
  8
0
  6
CONTINUOUS
 10
1.850640
 20
1.655720
  0
VERTEX
  8
0
  6
CONTINUOUS
 10
2.476760
 20
1.300200
  0
VERTEX
  8
0
  6
CONTINUOUS
 10
2.502720
 20
1.248720
  0
VERTEX
  8
0
  6
CONTINUOUS
 10
1.876600
 20
1.604240
  0
VERTEX
  8
0
  6
CONTINUOUS
 10
1.850640
 20
1.655720
  0
SEQEND
  8
0
  0
SOLID
  8
0
 62
    15
 10
1.876600
 20
1.604240
 11
2.502720
 21
1.248720
 12
1.888920
 22
1.553200
 13
2.515040
 23
1.197680
  0
POLYLINE
  8
0
  6
CONTINUOUS
 66
     1
 40
0.000000
 41
0.000000
  0
VERTEX
  8
0
  6
CONTINUOUS
 10
1.876600
 20
1.604240
  0
VERTEX
  8
0
  6
CONTINUOUS
 10
2.502720
 20
1.248720
  0
VERTEX
  8
0
  6
CONTINUOUS
 10
2.515040
 20
1.197680
  0
VERTEX
  8
0
  6
CONTINUOUS
 10
1.888920
 20
1.553200
  0
VERTEX
  8
0
  6
CONTINUOUS
 10
1.876600
 20
1.604240
  0
SEQEND
  8
0
  0
SOLID
  8
0
 62
    15
 10
1.888920
 20
1.553200
 11
2.515040
 21
1.197680
 12
1.888920
 22
1.503040
 13
2.515040
 23
1.147960
  0
POLYLINE
  8
0
  6
CONTINUOUS
 66
     1
 40
0.000000
 41
0.000000
  0
VERTEX
  8
0
  6
CONTINUOUS
 10
1.888920
 20
1.553200
  0
VERTEX
  8
0
  6
CONTINUOUS
 10
2.515040
 20
1.197680
  0
VERTEX
  8
0
  6
CONTINUOUS
 10
2.515040
 20
1.147960
  0
VERTEX
  8
0
  6
CONTINUOUS
 10
1.888920
 20
1.503040
  0
VERTEX
  8
0
  6
CONTINUOUS
 10
1.888920
 20
1.553200
  0
SEQEND
  8
0
  0
SOLID
  8
0
 62
    15
 10
1.888920
 20
1.503040
 11
2.515040
 21
1.147960
 12
1.878360
 22
1.455080
 13
2.504040
 23
1.099560
  0
POLYLINE
  8
0
  6
CONTINUOUS
 66
     1
 40
0.000000
 41
0.000000
  0
VERTEX
  8
0
  6
CONTINUOUS
 10
1.888920
 20
1.503040
  0
VERTEX
  8
0
  6
CONTINUOUS
 10
2.515040
 20
1.147960
  0
VERTEX
  8
0
  6
CONTINUOUS
 10
2.504040
 20
1.099560
  0
VERTEX
  8
0
  6
CONTINUOUS
 10
1.878360
 20
1.455080
  0
VERTEX
  8
0
  6
CONTINUOUS
 10
1.888920
 20
1.503040
  0
SEQEND
  8
0
  0
SOLID
  8
0
 62
    15
 10
1.878360
 20
1.455080
 11
2.504040
 21
1.099560
 12
1.829520
 22
1.367080
 13
2.455200
 23
1.011560
  0
POLYLINE
  8
0
  6
CONTINUOUS
 66
     1
 40
0.000000
 41
0.000000
  0
VERTEX
  8
0
  6
CONTINUOUS
 10
1.878360
 20
1.455080
  0
VERTEX
  8
0
  6
CONTINUOUS
 10
2.504040
 20
1.099560
  0
VERTEX
  8
0
  6
CONTINUOUS
 10
2.455200
 20
1.011560
  0
VERTEX
  8
0
  6
CONTINUOUS
 10
1.829520
 20
1.367080
  0
VERTEX
  8
0
  6
CONTINUOUS
 10
1.878360
 20
1.455080
  0
SEQEND
  8
0
  0
SOLID
  8
0
 62
    15
 10
1.829520
 20
1.367080
 11
2.455200
 21
1.011560
 12
1.753400
 22
1.295360
 13
2.379520
 23
0.940280
  0
POLYLINE
  8
0
  6
CONTINUOUS
 66
     1
 40
0.000000
 41
0.000000
  0
VERTEX
  8
0
  6
CONTINUOUS
 10
1.829520
 20
1.367080
  0
VERTEX
  8
0
  6
CONTINUOUS
 10
2.455200
 20
1.011560
  0
VERTEX
  8
0
  6
CONTINUOUS
 10
2.379520
 20
0.940280
  0
VERTEX
  8
0
  6
CONTINUOUS
 10
1.753400
 20
1.295360
  0
VERTEX
  8
0
  6
CONTINUOUS
 10
1.829520
 20
1.367080
  0
SEQEND
  8
0
  0
SOLID
  8
0
 62
    15
 10
1.753400
 20
1.295360
 11
2.379520
 21
0.940280
 12
1.661880
 22
1.246520
 13
2.288000
 23
0.891000
  0
POLYLINE
  8
0
  6
CONTINUOUS
 66
     1
 40
0.000000
 41
0.000000
  0
VERTEX
  8
0
  6
CONTINUOUS
 10
1.753400
 20
1.295360
  0
VERTEX
  8
0
  6
CONTINUOUS
 10
2.379520
 20
0.940280
  0
VERTEX
  8
0
  6
CONTINUOUS
 10
2.288000
 20
0.891000
  0
VERTEX
  8
0
  6
CONTINUOUS
 10
1.661880
 20
1.246520
  0
VERTEX
  8
0
  6
CONTINUOUS
 10
1.753400
 20
1.295360
  0
SEQEND
  8
0
  0
SOLID
  8
0
 62
    15
 10
1.661880
 20
1.246520
 11
2.288000
 21
0.891000
 12
1.565520
 22
1.225840
 13
2.191200
 23
0.870320
  0
POLYLINE
  8
0
  6
CONTINUOUS
 66
     1
 40
0.000000
 41
0.000000
  0
VERTEX
  8
0
  6
CONTINUOUS
 10
1.661880
 20
1.246520
  0
VERTEX
  8
0
  6
CONTINUOUS
 10
2.288000
 20
0.891000
  0
VERTEX
  8
0
  6
CONTINUOUS
 10
2.191200
 20
0.870320
  0
VERTEX
  8
0
  6
CONTINUOUS
 10
1.565520
 20
1.225840
  0
VERTEX
  8
0
  6
CONTINUOUS
 10
1.661880
 20
1.246520
  0
SEQEND
  8
0
  0
SOLID
  8
0
 62
    15
 10
1.565520
 20
1.225840
 11
2.191200
 21
0.870320
 12
1.518880
 22
1.227600
 13
2.144560
 23
0.872520
  0
POLYLINE
  8
0
  6
CONTINUOUS
 66
     1
 40
0.000000
 41
0.000000
  0
VERTEX
  8
0
  6
CONTINUOUS
 10
1.565520
 20
1.225840
  0
VERTEX
  8
0
  6
CONTINUOUS
 10
2.191200
 20
0.870320
  0
VERTEX
  8
0
  6
CONTINUOUS
 10
2.144560
 20
0.872520
  0
VERTEX
  8
0
  6
CONTINUOUS
 10
1.518880
 20
1.227600
  0
VERTEX
  8
0
  6
CONTINUOUS
 10
1.565520
 20
1.225840
  0
SEQEND
  8
0
  0
SOLID
  8
0
 62
    15
 10
1.518880
 20
1.227600
 11
2.144560
 21
0.872520
 12
1.475320
 22
1.239480
 13
2.101000
 23
0.883960
  0
POLYLINE
  8
0
  6
CONTINUOUS
 66
     1
 40
0.000000
 41
0.000000
  0
VERTEX
  8
0
  6
CONTINUOUS
 10
1.518880
 20
1.227600
  0
VERTEX
  8
0
  6
CONTINUOUS
 10
2.144560
 20
0.872520
  0
VERTEX
  8
0
  6
CONTINUOUS
 10
2.101000
 20
0.883960
  0
VERTEX
  8
0
  6
CONTINUOUS
 10
1.475320
 20
1.239480
  0
VERTEX
  8
0
  6
CONTINUOUS
 10
1.518880
 20
1.227600
  0
SEQEND
  8
0
  0
SOLID
  8
0
 62
    15
 10
1.475320
 20
1.239480
 11
2.101000
 21
0.883960
 12
1.478840
 22
1.087680
 13
2.104960
 23
0.732600
  0
POLYLINE
  8
0
  6
CONTINUOUS
 66
     1
 40
0.000000
 41
0.000000
  0
VERTEX
  8
0
  6
CONTINUOUS
 10
1.475320
 20
1.239480
  0
VERTEX
  8
0
  6
CONTINUOUS
 10
2.101000
 20
0.883960
  0
VERTEX
  8
0
  6
CONTINUOUS
 10
2.104960
 20
0.732600
  0
VERTEX
  8
0
  6
CONTINUOUS
 10
1.478840
 20
1.087680
  0
VERTEX
  8
0
  6
CONTINUOUS
 10
1.475320
 20
1.239480
  0
SEQEND
  8
0
  0
SOLID
  8
0
 62
    15
 10
1.478840
 20
1.087680
 11
2.104960
 21
0.732600
 12
1.420320
 22
1.063480
 13
2.046440
 23
0.708400
  0
POLYLINE
  8
0
  6
CONTINUOUS
 66
     1
 40
0.000000
 41
0.000000
  0
VERTEX
  8
0
  6
CONTINUOUS
 10
1.478840
 20
1.087680
  0
VERTEX
  8
0
  6
CONTINUOUS
 10
2.104960
 20
0.732600
  0
VERTEX
  8
0
  6
CONTINUOUS
 10
2.046440
 20
0.708400
  0
VERTEX
  8
0
  6
CONTINUOUS
 10
1.420320
 20
1.063480
  0
VERTEX
  8
0
  6
CONTINUOUS
 10
1.478840
 20
1.087680
  0
SEQEND
  8
0
  0
SOLID
  8
0
 62
    15
 10
1.420320
 20
1.063480
 11
2.046440
 21
0.708400
 12
1.362680
 22
1.011120
 13
1.988360
 23
0.655600
  0
POLYLINE
  8
0
  6
CONTINUOUS
 66
     1
 40
0.000000
 41
0.000000
  0
VERTEX
  8
0
  6
CONTINUOUS
 10
1.420320
 20
1.063480
  0
VERTEX
  8
0
  6
CONTINUOUS
 10
2.046440
 20
0.708400
  0
VERTEX
  8
0
  6
CONTINUOUS
 10
1.988360
 20
0.655600
  0
VERTEX
  8
0
  6
CONTINUOUS
 10
1.362680
 20
1.011120
  0
VERTEX
  8
0
  6
CONTINUOUS
 10
1.420320
 20
1.063480
  0
SEQEND
  8
0
  0
SOLID
  8
0
 62
    15
 10
1.362680
 20
1.011120
 11
1.988360
 21
0.655600
 12
1.319120
 22
0.938520
 13
1.944800
 23
0.583000
  0
POLYLINE
  8
0
  6
CONTINUOUS
 66
     1
 40
0.000000
 41
0.000000
  0
VERTEX
  8
0
  6
CONTINUOUS
 10
1.362680
 20
1.011120
  0
VERTEX
  8
0
  6
CONTINUOUS
 10
1.988360
 20
0.655600
  0
VERTEX
  8
0
  6
CONTINUOUS
 10
1.944800
 20
0.583000
  0
VERTEX
  8
0
  6
CONTINUOUS
 10
1.319120
 20
0.938520
  0
VERTEX
  8
0
  6
CONTINUOUS
 10
1.362680
 20
1.011120
  0
SEQEND
  8
0
  0
SOLID
  8
0
 62
    15
 10
1.319120
 20
0.938520
 11
1.944800
 21
0.583000
 12
1.303720
 22
0.855360
 13
1.929400
 23
0.499840
  0
POLYLINE
  8
0
  6
CONTINUOUS
 66
     1
 40
0.000000
 41
0.000000
  0
VERTEX
  8
0
  6
CONTINUOUS
 10
1.319120
 20
0.938520
  0
VERTEX
  8
0
  6
CONTINUOUS
 10
1.944800
 20
0.583000
  0
VERTEX
  8
0
  6
CONTINUOUS
 10
1.929400
 20
0.499840
  0
VERTEX
  8
0
  6
CONTINUOUS
 10
1.303720
 20
0.855360
  0
VERTEX
  8
0
  6
CONTINUOUS
 10
1.319120
 20
0.938520
  0
SEQEND
  8
0
  0
SOLID
  8
0
 62
    15
 10
1.303720
 20
0.855360
 11
1.929400
 21
0.499840
 12
1.136080
 22
0.859760
 13
1.761760
 23
0.504240
  0
POLYLINE
  8
0
  6
CONTINUOUS
 66
     1
 40
0.000000
 41
0.000000
  0
VERTEX
  8
0
  6
CONTINUOUS
 10
1.303720
 20
0.855360
  0
VERTEX
  8
0
  6
CONTINUOUS
 10
1.929400
 20
0.499840
  0
VERTEX
  8
0
  6
CONTINUOUS
 10
1.761760
 20
0.504240
  0
VERTEX
  8
0
  6
CONTINUOUS
 10
1.136080
 20
0.859760
  0
VERTEX
  8
0
  6
CONTINUOUS
 10
1.303720
 20
0.855360
  0
SEQEND
  8
0
  0
SOLID
  8
0
 62
    15
 10
3.186920
 20
3.192640
 11
3.812600
 21
2.837560
 12
3.216400
 22
3.162280
 13
3.842520
 23
2.806760
  0
POLYLINE
  8
0
  6
CONTINUOUS
 66
     1
 40
0.000000
 41
0.000000
  0
VERTEX
  8
0
  6
CONTINUOUS
 10
3.186920
 20
3.192640
  0
VERTEX
  8
0
  6
CONTINUOUS
 10
3.812600
 20
2.837560
  0
VERTEX
  8
0
  6
CONTINUOUS
 10
3.842520
 20
2.806760
  0
VERTEX
  8
0
  6
CONTINUOUS
 10
3.216400
 20
3.162280
  0
VERTEX
  8
0
  6
CONTINUOUS
 10
3.186920
 20
3.192640
  0
SEQEND
  8
0
  0
POLYLINE
  8
0
  6
CONTINUOUS
 66
     1
 40
0.000000
 41
0.000000
  0
VERTEX
  8
0
  6
CONTINUOUS
 10
3.035560
 20
3.230480
  0
VERTEX
  8
0
  6
CONTINUOUS
 10
3.096720
 20
3.228720
  0
VERTEX
  8
0
  6
CONTINUOUS
 10
3.146880
 20
3.215520
  0
VERTEX
  8
0
  6
CONTINUOUS
 10
3.186920
 20
3.192640
  0
VERTEX
  8
0
  6
CONTINUOUS
 10
3.216400
 20
3.162280
  0
VERTEX
  8
0
  6
CONTINUOUS
 10
3.236200
 20
3.125760
  0
VERTEX
  8
0
  6
CONTINUOUS
 10
3.246760
 20
3.085280
  0
VERTEX
  8
0
  6
CONTINUOUS
 10
3.239720
 20
2.998600
  0
VERTEX
  8
0
  6
CONTINUOUS
 10
3.198800
 20
2.916320
  0
VERTEX
  8
0
  6
CONTINUOUS
 10
3.126200
 20
2.852960
  0
VERTEX
  8
0
  6
CONTINUOUS
 10
3.078680
 20
2.833160
  0
VERTEX
  8
0
  6
CONTINUOUS
 10
3.024120
 20
2.823040
  0
VERTEX
  8
0
  6
CONTINUOUS
 10
2.962960
 20
2.825240
  0
VERTEX
  8
0
  6
CONTINUOUS
 10
2.895640
 20
2.840640
  0
VERTEX
  8
0
  6
CONTINUOUS
 10
2.881120
 20
2.733720
  0
VERTEX
  8
0
  6
CONTINUOUS
 10
2.712160
 20
2.711720
  0
VERTEX
  8
0
  6
CONTINUOUS
 10
2.541880
 20
2.656280
  0
VERTEX
  8
0
  6
CONTINUOUS
 10
2.374680
 20
2.570040
  0
VERTEX
  8
0
  6
CONTINUOUS
 10
2.215400
 20
2.454760
  0
VERTEX
  8
0
  6
CONTINUOUS
 10
2.068880
 20
2.313520
  0
VERTEX
  8
0
  6
CONTINUOUS
 10
1.939520
 20
2.148520
  0
VERTEX
  8
0
  6
CONTINUOUS
 10
1.832600
 20
1.961960
  0
VERTEX
  8
0
  6
CONTINUOUS
 10
1.752520
 20
1.756480
  0
VERTEX
  8
0
  6
CONTINUOUS
 10
1.809720
 20
1.706760
  0
VERTEX
  8
0
  6
CONTINUOUS
 10
1.850640
 20
1.655720
  0
VERTEX
  8
0
  6
CONTINUOUS
 10
1.876600
 20
1.604240
  0
VERTEX
  8
0
  6
CONTINUOUS
 10
1.888920
 20
1.553200
  0
VERTEX
  8
0
  6
CONTINUOUS
 10
1.888920
 20
1.503040
  0
VERTEX
  8
0
  6
CONTINUOUS
 10
1.878360
 20
1.455080
  0
VERTEX
  8
0
  6
CONTINUOUS
 10
1.829520
 20
1.367080
  0
VERTEX
  8
0
  6
CONTINUOUS
 10
1.753400
 20
1.295360
  0
VERTEX
  8
0
  6
CONTINUOUS
 10
1.661880
 20
1.246520
  0
VERTEX
  8
0
  6
CONTINUOUS
 10
1.565520
 20
1.225840
  0
VERTEX
  8
0
  6
CONTINUOUS
 10
1.518880
 20
1.227600
  0
VERTEX
  8
0
  6
CONTINUOUS
 10
1.475320
 20
1.239480
  0
VERTEX
  8
0
  6
CONTINUOUS
 10
1.478840
 20
1.087680
  0
VERTEX
  8
0
  6
CONTINUOUS
 10
1.420320
 20
1.063480
  0
VERTEX
  8
0
  6
CONTINUOUS
 10
1.362680
 20
1.011120
  0
VERTEX
  8
0
  6
CONTINUOUS
 10
1.319120
 20
0.938520
  0
VERTEX
  8
0
  6
CONTINUOUS
 10
1.303720
 20
0.855360
  0
VERTEX
  8
0
  6
CONTINUOUS
 10
1.136080
 20
0.859760
  0
VERTEX
  8
0
  6
CONTINUOUS
 10
1.138280
 20
1.736680
  0
VERTEX
  8
0
  6
CONTINUOUS
 10
2.529120
 20
3.319800
  0
VERTEX
  8
0
  6
CONTINUOUS
 10
3.032040
 20
3.322880
  0
VERTEX
  8
0
  6
CONTINUOUS
 10
3.035560
 20
3.230480
  0
SEQEND
  8
0
  0
TEXT
  8
0
 10
2.699400
 20
0.704880
 40
0.137992
  1
BA  831
 41
1.000000
  7
SN0
 71
     0
 72
     5
 11
3.289253
 21
0.704880
  0
TEXT
  8
0
 10
2.543640
 20
0.513480
 40
0.137992
  1
3/4" x 3-1/8"
 41
1.000000
  7
SN0
 71
     0
 72
     5
 11
3.443234
 21
0.513480
  0
POLYLINE
  8
0
  6
CONTINUOUS
 66
     1
 40
0.014080
 41
0.014080
  0
VERTEX
  8
0
  6
CONTINUOUS
 10
4.076160
 20
2.764520
  0
VERTEX
  8
0
  6
CONTINUOUS
 10
4.045360
 20
2.799720
  0
VERTEX
  8
0
  6
CONTINUOUS
 10
4.023800
 20
2.834920
  0
VERTEX
  8
0
  6
CONTINUOUS
 10
4.010160
 20
2.869680
  0
VERTEX
  8
0
  6
CONTINUOUS
 10
4.005760
 20
2.892120
  0
VERTEX
  8
0
  6
CONTINUOUS
 10
4.004440
 20
2.914120
  0
VERTEX
  8
0
  6
CONTINUOUS
 10
4.006200
 20
2.935240
  0
VERTEX
  8
0
  6
CONTINUOUS
 10
4.010600
 20
2.955480
  0
VERTEX
  8
0
  6
CONTINUOUS
 10
4.017640
 20
2.975280
  0
VERTEX
  8
0
  6
CONTINUOUS
 10
4.033040
 20
3.002560
  0
VERTEX
  8
0
  6
CONTINUOUS
 10
4.046240
 20
3.018840
  0
VERTEX
  8
0
  6
CONTINUOUS
 10
4.061200
 20
3.034240
  0
VERTEX
  8
0
  6
CONTINUOUS
 10
4.077920
 20
3.048320
  0
VERTEX
  8
0
  6
CONTINUOUS
 10
4.095960
 20
3.060640
  0
VERTEX
  8
0
  6
CONTINUOUS
 10
4.115760
 20
3.071200
  0
VERTEX
  8
0
  6
CONTINUOUS
 10
4.136440
 20
3.080000
  0
VERTEX
  8
0
  6
CONTINUOUS
 10
4.158440
 20
3.087040
  0
VERTEX
  8
0
  6
CONTINUOUS
 10
4.181320
 20
3.091880
  0
VERTEX
  8
0
  6
CONTINUOUS
 10
4.204640
 20
3.094960
  0
VERTEX
  8
0
  6
CONTINUOUS
 10
4.228400
 20
3.095400
  0
VERTEX
  8
0
  6
CONTINUOUS
 10
4.252160
 20
3.093200
  0
VERTEX
  8
0
  6
CONTINUOUS
 10
4.288240
 20
3.085720
  0
VERTEX
  8
0
  6
CONTINUOUS
 10
4.323440
 20
3.072080
  0
VERTEX
  8
0
  6
CONTINUOUS
 10
4.357760
 20
3.051840
  0
VERTEX
  8
0
  6
CONTINUOUS
 10
4.379320
 20
3.034680
  0
VERTEX
  8
0
  6
CONTINUOUS
 10
4.410120
 20
3.003000
  0
VERTEX
  8
0
  6
CONTINUOUS
 10
4.437400
 20
2.963840
  0
VERTEX
  8
0
  6
CONTINUOUS
 10
4.454120
 20
2.933480
  0
VERTEX
  8
0
  6
CONTINUOUS
 10
4.461600
 20
2.916760
  0
VERTEX
  8
0
  6
CONTINUOUS
 10
4.551800
 20
2.976600
  0
VERTEX
  8
0
  6
CONTINUOUS
 10
4.580840
 20
2.946680
  0
VERTEX
  8
0
  6
CONTINUOUS
 10
4.612080
 20
2.917640
  0
VERTEX
  8
0
  6
CONTINUOUS
 10
4.679840
 20
2.863960
  0
VERTEX
  8
0
  6
CONTINUOUS
 10
4.715920
 20
2.838880
  0
VERTEX
  8
0
  6
CONTINUOUS
 10
4.792920
 20
2.793120
  0
VERTEX
  8
0
  6
CONTINUOUS
 10
4.875640
 20
2.753080
  0
VERTEX
  8
0
  6
CONTINUOUS
 10
4.919200
 20
2.735040
  0
VERTEX
  8
0
  6
CONTINUOUS
 10
5.008960
 20
2.703800
  0
VERTEX
  8
0
  6
CONTINUOUS
 10
5.103120
 20
2.678720
  0
VERTEX
  8
0
  6
CONTINUOUS
 10
5.151520
 20
2.668600
  0
VERTEX
  8
0
  6
CONTINUOUS
 10
5.250520
 20
2.653200
  0
VERTEX
  8
0
  6
CONTINUOUS
 10
5.351720
 20
2.644840
  0
VERTEX
  8
0
  6
CONTINUOUS
 10
5.455120
 20
2.643520
  0
VERTEX
  8
0
  6
CONTINUOUS
 10
5.507480
 20
2.645720
  0
VERTEX
  8
0
  6
CONTINUOUS
 10
5.559840
 20
2.649680
  0
VERTEX
  8
0
  6
CONTINUOUS
 10
5.612640
 20
2.655400
  0
VERTEX
  8
0
  6
CONTINUOUS
 10
5.665440
 20
2.663320
  0
VERTEX
  8
0
  6
CONTINUOUS
 10
5.718240
 20
2.673000
  0
VERTEX
  8
0
  6
CONTINUOUS
 10
5.770600
 20
2.684440
  0
VERTEX
  8
0
  6
CONTINUOUS
 10
5.823400
 20
2.698080
  0
VERTEX
  8
0
  6
CONTINUOUS
 10
5.875760
 20
2.713920
  0
VERTEX
  8
0
  6
CONTINUOUS
 10
5.979600
 20
2.751760
  0
VERTEX
  8
0
  6
CONTINUOUS
 10
6.030640
 20
2.773760
  0
VERTEX
  8
0
  6
CONTINUOUS
 10
6.028880
 20
2.813360
  0
VERTEX
  8
0
  6
CONTINUOUS
 10
6.030200
 20
2.849440
  0
VERTEX
  8
0
  6
CONTINUOUS
 10
6.034600
 20
2.883320
  0
VERTEX
  8
0
  6
CONTINUOUS
 10
6.041200
 20
2.914120
  0
VERTEX
  8
0
  6
CONTINUOUS
 10
6.056600
 20
2.955040
  0
VERTEX
  8
0
  6
CONTINUOUS
 10
6.076840
 20
2.990240
  0
VERTEX
  8
0
  6
CONTINUOUS
 10
6.101920
 20
3.019720
  0
VERTEX
  8
0
  6
CONTINUOUS
 10
6.130520
 20
3.043480
  0
VERTEX
  8
0
  6
CONTINUOUS
 10
6.162640
 20
3.061960
  0
VERTEX
  8
0
  6
CONTINUOUS
 10
6.197400
 20
3.075600
  0
VERTEX
  8
0
  6
CONTINUOUS
 10
6.221600
 20
3.081760
  0
VERTEX
  8
0
  6
CONTINUOUS
 10
6.246680
 20
3.086160
  0
VERTEX
  8
0
  6
CONTINUOUS
 10
6.272200
 20
3.088360
  0
VERTEX
  8
0
  6
CONTINUOUS
 10
6.298160
 20
3.088800
  0
VERTEX
  8
0
  6
CONTINUOUS
 10
6.350520
 20
3.083960
  0
VERTEX
  8
0
  6
CONTINUOUS
 10
6.401560
 20
3.072080
  0
VERTEX
  8
0
  6
CONTINUOUS
 10
6.426200
 20
3.063720
  0
VERTEX
  8
0
  6
CONTINUOUS
 10
6.473720
 20
3.042160
  0
VERTEX
  8
0
  6
CONTINUOUS
 10
6.495720
 20
3.029400
  0
VERTEX
  8
0
  6
CONTINUOUS
 10
6.516400
 20
3.015320
  0
VERTEX
  8
0
  6
CONTINUOUS
 10
6.552920
 20
2.983640
  0
VERTEX
  8
0
  6
CONTINUOUS
 10
6.568320
 20
2.966040
  0
VERTEX
  8
0
  6
CONTINUOUS
 10
6.588120
 20
2.937440
  0
VERTEX
  8
0
  6
CONTINUOUS
 10
6.602200
 20
2.906640
  0
VERTEX
  8
0
  6
CONTINUOUS
 10
6.713520
 20
3.009160
  0
VERTEX
  8
0
  6
CONTINUOUS
 10
6.738160
 20
2.993320
  0
VERTEX
  8
0
  6
CONTINUOUS
 10
6.770280
 20
2.981440
  0
VERTEX
  8
0
  6
CONTINUOUS
 10
6.788320
 20
2.977040
  0
VERTEX
  8
0
  6
CONTINUOUS
 10
6.827480
 20
2.972640
  0
VERTEX
  8
0
  6
CONTINUOUS
 10
6.868840
 20
2.973960
  0
VERTEX
  8
0
  6
CONTINUOUS
 10
6.910640
 20
2.981440
  0
VERTEX
  8
0
  6
CONTINUOUS
 10
6.931320
 20
2.987600
  0
VERTEX
  8
0
  6
CONTINUOUS
 10
6.969600
 20
3.005640
  0
VERTEX
  8
0
  6
CONTINUOUS
 10
6.996000
 20
3.024120
  0
VERTEX
  8
0
  6
CONTINUOUS
 10
7.003920
 20
3.031160
  0
VERTEX
  8
0
  6
CONTINUOUS
 10
7.110840
 20
2.902240
  0
VERTEX
  8
0
  6
CONTINUOUS
 10
6.450840
 20
2.325400
  0
VERTEX
  8
0
  6
CONTINUOUS
 10
4.343680
 20
2.325400
  0
VERTEX
  8
0
  6
CONTINUOUS
 10
4.009280
 20
2.701160
  0
VERTEX
  8
0
  6
CONTINUOUS
 10
4.076160
 20
2.764520
  0
SEQEND
  8
0
  0
ENDSEC
  0
EOF
