  0
SECTION
  2
HEADER
  9
$ACADVER
  1
AC1006
  9
$EXTMIN
 10
3.859240
 20
0.490600
  9
$EXTMAX
 10
7.030320
 20
2.519000
  9
$LTSCALE
 40
0.044000
  9
$PDMODE
 70
    35
  9
$PDSIZE
 40
0.035200
  0
ENDSEC
  0
SECTION
  2
TABLES
  0
TABLE
  2
LTYPE
 70
     9
  0
LTYPE
  2
CONTINUOUS
 70
    64
  3
Solid line
 72
    65
 73
     0
 40
0.000000
  0
LTYPE
  2
DASHED
 70
    64
  3
__ __ __ __ __ __ __ __ __ __ __ __ __ __ __
 72
    65
 73
     2
 40
0.000330
 49
0.000220
 49
-0.000110
  0
LTYPE
  2
HIDDEN
 70
    64
  3
 _ _ _ _ _ _ _ _ _ _ _ _ _ _ _ _ _ _ _ _ _ _
 72
    65
 73
     2
 40
0.000165
 49
0.000110
 49
-0.000055
  0
LTYPE
  2
CENTER
 70
    64
  3
____ _ ____ _ ____ _ ____ _ ____ _ ____ _ ____
 72
    65
 73
     4
 40
0.000880
 49
0.000550
 49
-0.000110
 49
0.000110
 49
-0.000110
  0
LTYPE
  2
PHANTOM
 70
    64
  3
_____ _ _ _____ _ _ _____ _ _ _____ _ _ ____
 72
    65
 73
     6
 40
0.001100
 49
0.000550
 49
-0.000110
 49
0.000110
 49
-0.000110
 49
0.000110
 49
-0.000110
  0
LTYPE
  2
DOT
 70
    64
  3
...............................................
 72
    65
 73
     2
 40
0.000110
 49
0.000000
 49
-0.000110
  0
LTYPE
  2
DASHDOT
 70
    64
  3
__ . __ . __ . __ . __ . __ . __ . __ . __ . __
 72
    65
 73
     4
 40
0.000440
 49
0.000220
 49
-0.000110
 49
0.000000
 49
-0.000110
  0
LTYPE
  2
BORDER
 70
    64
  3
__ __ . __ __ . __ __ . __ __ . __ __ . __ __
 72
    65
 73
     6
 40
0.000770
 49
0.000220
 49
-0.000110
 49
0.000220
 49
-0.000110
 49
0.000000
 49
-0.000110
  0
LTYPE
  2
DIVIDE
 70
    64
  3
__ . . __ . . __ . . __ . . __ . . __ . . __
 72
    65
 73
     6
 40
0.000550
 49
0.000220
 49
-0.000110
 49
0.000000
 49
-0.000110
 49
0.000000
 49
-0.000110
  0
LTYPE
  2
DOTDOT
 70
    64
  3
 . .  . .  . .  . .  . .  . . 
 72
    65
 73
     5
 40
0.000242
 49
-0.000110
 49
0.000000
 49
-0.000110
 49
0.000000
 49
-0.000110
  0
ENDTAB
  0
TABLE
  2
STYLE
 70
     2
  0
STYLE
 70
     0
  2
SN0
 40
0.000000
 41
0.000440
 50
0.000000
 71
     0
 42
0.000000
  3
ROMAND
  0
STYLE
 70
    68
  2
SV0
 40
0.000000
 41
0.000440
 50
0.000000
 71
     0
 42
0.000000
  3
ROMAND
  0
ENDTAB
  0
TABLE
  2
LAYER
 70
     3
  0
LAYER
  2
FOREGROUND
 70
    64
 62
     7
  6
CONTINUOUS
  0
LAYER
  2
BACKGROUND
 70
    65
 62
    -7
  6
CONTINUOUS
  0
LAYER
  2
0
 70
    64
 62
     7
  6
CONTINUOUS
  0
ENDTAB
  0
ENDSEC
  0
SECTION
  2
ENTITIES
  0
POLYLINE
  8
FOREGROUND
  6
CONTINUOUS
 66
     1
 40
0.000000
 41
0.000000
  0
VERTEX
  8
FOREGROUND
  6
CONTINUOUS
 10
0.000000
 20
3.009600
  0
VERTEX
  8
FOREGROUND
  6
CONTINUOUS
 10
8.499920
 20
3.009600
  0
VERTEX
  8
FOREGROUND
  6
CONTINUOUS
 10
8.499920
 20
-7.990400
  0
VERTEX
  8
FOREGROUND
  6
CONTINUOUS
 10
0.000000
 20
-7.990400
  0
VERTEX
  8
FOREGROUND
  6
CONTINUOUS
 10
0.000000
 20
3.009600
  0
SEQEND
  8
0
  0
POLYLINE
  8
FOREGROUND
  6
CONTINUOUS
 66
     1
 40
0.000000
 41
0.000000
  0
VERTEX
  8
FOREGROUND
  6
CONTINUOUS
 10
0.000000
 20
3.009600
  0
VERTEX
  8
FOREGROUND
  6
CONTINUOUS
 10
8.499920
 20
3.009600
  0
VERTEX
  8
FOREGROUND
  6
CONTINUOUS
 10
8.499920
 20
-7.990400
  0
VERTEX
  8
FOREGROUND
  6
CONTINUOUS
 10
0.000000
 20
-7.990400
  0
VERTEX
  8
FOREGROUND
  6
CONTINUOUS
 10
0.000000
 20
3.009600
  0
SEQEND
  8
0
  0
SOLID
  8
0
 62
    15
 10
4.220040
 20
1.458600
 11
4.862440
 21
1.829960
 12
4.187040
 22
1.407560
 13
4.829440
 23
1.778920
  0
POLYLINE
  8
0
  6
CONTINUOUS
 66
     1
 40
0.000000
 41
0.000000
  0
VERTEX
  8
0
  6
CONTINUOUS
 10
4.220040
 20
1.458600
  0
VERTEX
  8
0
  6
CONTINUOUS
 10
4.862440
 20
1.829960
  0
VERTEX
  8
0
  6
CONTINUOUS
 10
4.829440
 20
1.778920
  0
VERTEX
  8
0
  6
CONTINUOUS
 10
4.187040
 20
1.407560
  0
VERTEX
  8
0
  6
CONTINUOUS
 10
4.220040
 20
1.458600
  0
SEQEND
  8
0
  0
SOLID
  8
0
 62
    15
 10
4.408360
 20
1.633720
 11
5.051200
 21
2.005520
 12
4.369640
 22
1.608640
 13
5.012040
 23
1.980000
  0
POLYLINE
  8
0
  6
CONTINUOUS
 66
     1
 40
0.000000
 41
0.000000
  0
VERTEX
  8
0
  6
CONTINUOUS
 10
4.408360
 20
1.633720
  0
VERTEX
  8
0
  6
CONTINUOUS
 10
5.051200
 20
2.005520
  0
VERTEX
  8
0
  6
CONTINUOUS
 10
5.012040
 20
1.980000
  0
VERTEX
  8
0
  6
CONTINUOUS
 10
4.369640
 20
1.608640
  0
VERTEX
  8
0
  6
CONTINUOUS
 10
4.408360
 20
1.633720
  0
SEQEND
  8
0
  0
SOLID
  8
0
 62
    15
 10
4.369640
 20
1.608640
 11
5.012040
 21
1.980000
 12
4.330920
 22
1.578720
 13
4.973320
 23
1.950080
  0
POLYLINE
  8
0
  6
CONTINUOUS
 66
     1
 40
0.000000
 41
0.000000
  0
VERTEX
  8
0
  6
CONTINUOUS
 10
4.369640
 20
1.608640
  0
VERTEX
  8
0
  6
CONTINUOUS
 10
5.012040
 20
1.980000
  0
VERTEX
  8
0
  6
CONTINUOUS
 10
4.973320
 20
1.950080
  0
VERTEX
  8
0
  6
CONTINUOUS
 10
4.330920
 20
1.578720
  0
VERTEX
  8
0
  6
CONTINUOUS
 10
4.369640
 20
1.608640
  0
SEQEND
  8
0
  0
SOLID
  8
0
 62
    15
 10
4.330920
 20
1.578720
 11
4.973320
 21
1.950080
 12
4.292200
 22
1.543960
 13
4.935040
 23
1.915320
  0
POLYLINE
  8
0
  6
CONTINUOUS
 66
     1
 40
0.000000
 41
0.000000
  0
VERTEX
  8
0
  6
CONTINUOUS
 10
4.330920
 20
1.578720
  0
VERTEX
  8
0
  6
CONTINUOUS
 10
4.973320
 20
1.950080
  0
VERTEX
  8
0
  6
CONTINUOUS
 10
4.935040
 20
1.915320
  0
VERTEX
  8
0
  6
CONTINUOUS
 10
4.292200
 20
1.543960
  0
VERTEX
  8
0
  6
CONTINUOUS
 10
4.330920
 20
1.578720
  0
SEQEND
  8
0
  0
SOLID
  8
0
 62
    15
 10
4.551800
 20
2.085600
 11
5.194200
 21
2.457400
 12
4.551800
 22
1.694440
 13
5.194200
 23
2.065800
  0
POLYLINE
  8
0
  6
CONTINUOUS
 66
     1
 40
0.000000
 41
0.000000
  0
VERTEX
  8
0
  6
CONTINUOUS
 10
4.551800
 20
2.085600
  0
VERTEX
  8
0
  6
CONTINUOUS
 10
5.194200
 20
2.457400
  0
VERTEX
  8
0
  6
CONTINUOUS
 10
5.194200
 20
2.065800
  0
VERTEX
  8
0
  6
CONTINUOUS
 10
4.551800
 20
1.694440
  0
VERTEX
  8
0
  6
CONTINUOUS
 10
4.551800
 20
2.085600
  0
SEQEND
  8
0
  0
SOLID
  8
0
 62
    15
 10
4.292200
 20
1.543960
 11
4.935040
 21
1.915320
 12
4.255240
 22
1.503920
 13
4.897640
 23
1.875280
  0
POLYLINE
  8
0
  6
CONTINUOUS
 66
     1
 40
0.000000
 41
0.000000
  0
VERTEX
  8
0
  6
CONTINUOUS
 10
4.292200
 20
1.543960
  0
VERTEX
  8
0
  6
CONTINUOUS
 10
4.935040
 20
1.915320
  0
VERTEX
  8
0
  6
CONTINUOUS
 10
4.897640
 20
1.875280
  0
VERTEX
  8
0
  6
CONTINUOUS
 10
4.255240
 20
1.503920
  0
VERTEX
  8
0
  6
CONTINUOUS
 10
4.292200
 20
1.543960
  0
SEQEND
  8
0
  0
SOLID
  8
0
 62
    15
 10
4.255240
 20
1.503920
 11
4.897640
 21
1.875280
 12
4.220040
 22
1.458600
 13
4.862440
 23
1.829960
  0
POLYLINE
  8
0
  6
CONTINUOUS
 66
     1
 40
0.000000
 41
0.000000
  0
VERTEX
  8
0
  6
CONTINUOUS
 10
4.255240
 20
1.503920
  0
VERTEX
  8
0
  6
CONTINUOUS
 10
4.897640
 20
1.875280
  0
VERTEX
  8
0
  6
CONTINUOUS
 10
4.862440
 20
1.829960
  0
VERTEX
  8
0
  6
CONTINUOUS
 10
4.220040
 20
1.458600
  0
VERTEX
  8
0
  6
CONTINUOUS
 10
4.255240
 20
1.503920
  0
SEQEND
  8
0
  0
SOLID
  8
0
 62
    15
 10
3.860120
 20
2.085600
 11
4.502520
 21
2.457400
 12
4.551800
 22
2.085600
 13
5.194200
 23
2.457400
  0
POLYLINE
  8
0
  6
CONTINUOUS
 66
     1
 40
0.000000
 41
0.000000
  0
VERTEX
  8
0
  6
CONTINUOUS
 10
3.860120
 20
2.085600
  0
VERTEX
  8
0
  6
CONTINUOUS
 10
4.502520
 20
2.457400
  0
VERTEX
  8
0
  6
CONTINUOUS
 10
5.194200
 20
2.457400
  0
VERTEX
  8
0
  6
CONTINUOUS
 10
4.551800
 20
2.085600
  0
VERTEX
  8
0
  6
CONTINUOUS
 10
3.860120
 20
2.085600
  0
SEQEND
  8
0
  0
SOLID
  8
0
 62
    15
 10
4.187040
 20
1.407560
 11
4.829440
 21
1.778920
 12
4.157120
 22
1.350800
 13
4.799520
 23
1.722160
  0
POLYLINE
  8
0
  6
CONTINUOUS
 66
     1
 40
0.000000
 41
0.000000
  0
VERTEX
  8
0
  6
CONTINUOUS
 10
4.187040
 20
1.407560
  0
VERTEX
  8
0
  6
CONTINUOUS
 10
4.829440
 20
1.778920
  0
VERTEX
  8
0
  6
CONTINUOUS
 10
4.799520
 20
1.722160
  0
VERTEX
  8
0
  6
CONTINUOUS
 10
4.157120
 20
1.350800
  0
VERTEX
  8
0
  6
CONTINUOUS
 10
4.187040
 20
1.407560
  0
SEQEND
  8
0
  0
SOLID
  8
0
 62
    15
 10
4.157120
 20
1.350800
 11
4.799520
 21
1.722160
 12
4.130720
 22
1.287880
 13
4.773120
 23
1.659240
  0
POLYLINE
  8
0
  6
CONTINUOUS
 66
     1
 40
0.000000
 41
0.000000
  0
VERTEX
  8
0
  6
CONTINUOUS
 10
4.157120
 20
1.350800
  0
VERTEX
  8
0
  6
CONTINUOUS
 10
4.799520
 20
1.722160
  0
VERTEX
  8
0
  6
CONTINUOUS
 10
4.773120
 20
1.659240
  0
VERTEX
  8
0
  6
CONTINUOUS
 10
4.130720
 20
1.287880
  0
VERTEX
  8
0
  6
CONTINUOUS
 10
4.157120
 20
1.350800
  0
SEQEND
  8
0
  0
SOLID
  8
0
 62
    15
 10
4.130720
 20
1.287880
 11
4.773120
 21
1.659240
 12
4.108280
 22
1.218360
 13
4.751120
 23
1.589720
  0
POLYLINE
  8
0
  6
CONTINUOUS
 66
     1
 40
0.000000
 41
0.000000
  0
VERTEX
  8
0
  6
CONTINUOUS
 10
4.130720
 20
1.287880
  0
VERTEX
  8
0
  6
CONTINUOUS
 10
4.773120
 20
1.659240
  0
VERTEX
  8
0
  6
CONTINUOUS
 10
4.751120
 20
1.589720
  0
VERTEX
  8
0
  6
CONTINUOUS
 10
4.108280
 20
1.218360
  0
VERTEX
  8
0
  6
CONTINUOUS
 10
4.130720
 20
1.287880
  0
SEQEND
  8
0
  0
SOLID
  8
0
 62
    15
 10
4.108280
 20
1.218360
 11
4.751120
 21
1.589720
 12
4.091120
 22
1.142240
 13
4.733520
 23
1.513600
  0
POLYLINE
  8
0
  6
CONTINUOUS
 66
     1
 40
0.000000
 41
0.000000
  0
VERTEX
  8
0
  6
CONTINUOUS
 10
4.108280
 20
1.218360
  0
VERTEX
  8
0
  6
CONTINUOUS
 10
4.751120
 20
1.589720
  0
VERTEX
  8
0
  6
CONTINUOUS
 10
4.733520
 20
1.513600
  0
VERTEX
  8
0
  6
CONTINUOUS
 10
4.091120
 20
1.142240
  0
VERTEX
  8
0
  6
CONTINUOUS
 10
4.108280
 20
1.218360
  0
SEQEND
  8
0
  0
SOLID
  8
0
 62
    15
 10
4.091120
 20
1.142240
 11
4.733520
 21
1.513600
 12
4.078800
 22
1.059080
 13
4.721640
 23
1.430440
  0
POLYLINE
  8
0
  6
CONTINUOUS
 66
     1
 40
0.000000
 41
0.000000
  0
VERTEX
  8
0
  6
CONTINUOUS
 10
4.091120
 20
1.142240
  0
VERTEX
  8
0
  6
CONTINUOUS
 10
4.733520
 20
1.513600
  0
VERTEX
  8
0
  6
CONTINUOUS
 10
4.721640
 20
1.430440
  0
VERTEX
  8
0
  6
CONTINUOUS
 10
4.078800
 20
1.059080
  0
VERTEX
  8
0
  6
CONTINUOUS
 10
4.091120
 20
1.142240
  0
SEQEND
  8
0
  0
SOLID
  8
0
 62
    15
 10
4.078800
 20
1.059080
 11
4.721640
 21
1.430440
 12
4.073080
 22
0.968440
 13
4.715480
 23
1.339800
  0
POLYLINE
  8
0
  6
CONTINUOUS
 66
     1
 40
0.000000
 41
0.000000
  0
VERTEX
  8
0
  6
CONTINUOUS
 10
4.078800
 20
1.059080
  0
VERTEX
  8
0
  6
CONTINUOUS
 10
4.721640
 20
1.430440
  0
VERTEX
  8
0
  6
CONTINUOUS
 10
4.715480
 20
1.339800
  0
VERTEX
  8
0
  6
CONTINUOUS
 10
4.073080
 20
0.968440
  0
VERTEX
  8
0
  6
CONTINUOUS
 10
4.078800
 20
1.059080
  0
SEQEND
  8
0
  0
POLYLINE
  8
0
  6
CONTINUOUS
 66
     1
 40
0.000000
 41
0.000000
  0
VERTEX
  8
0
  6
CONTINUOUS
 10
4.073080
 20
0.968440
  0
VERTEX
  8
0
  6
CONTINUOUS
 10
3.860120
 20
0.968440
  0
VERTEX
  8
0
  6
CONTINUOUS
 10
3.860120
 20
2.085600
  0
VERTEX
  8
0
  6
CONTINUOUS
 10
4.551800
 20
2.085600
  0
VERTEX
  8
0
  6
CONTINUOUS
 10
4.551800
 20
1.694440
  0
VERTEX
  8
0
  6
CONTINUOUS
 10
4.518800
 20
1.684760
  0
VERTEX
  8
0
  6
CONTINUOUS
 10
4.483600
 20
1.671560
  0
VERTEX
  8
0
  6
CONTINUOUS
 10
4.446640
 20
1.654840
  0
VERTEX
  8
0
  6
CONTINUOUS
 10
4.408360
 20
1.633720
  0
VERTEX
  8
0
  6
CONTINUOUS
 10
4.369640
 20
1.608640
  0
VERTEX
  8
0
  6
CONTINUOUS
 10
4.330920
 20
1.578720
  0
VERTEX
  8
0
  6
CONTINUOUS
 10
4.292200
 20
1.543960
  0
VERTEX
  8
0
  6
CONTINUOUS
 10
4.255240
 20
1.503920
  0
VERTEX
  8
0
  6
CONTINUOUS
 10
4.220040
 20
1.458600
  0
VERTEX
  8
0
  6
CONTINUOUS
 10
4.187040
 20
1.407560
  0
VERTEX
  8
0
  6
CONTINUOUS
 10
4.157120
 20
1.350800
  0
VERTEX
  8
0
  6
CONTINUOUS
 10
4.130720
 20
1.287880
  0
VERTEX
  8
0
  6
CONTINUOUS
 10
4.108280
 20
1.218360
  0
VERTEX
  8
0
  6
CONTINUOUS
 10
4.091120
 20
1.142240
  0
VERTEX
  8
0
  6
CONTINUOUS
 10
4.078800
 20
1.059080
  0
VERTEX
  8
0
  6
CONTINUOUS
 10
4.073080
 20
0.968440
  0
SEQEND
  8
0
  0
TEXT
  8
0
 10
4.231920
 20
0.726000
 40
0.138224
  1
BA  829
 41
1.000000
  7
SN0
 71
     0
 72
     5
 11
4.822375
 21
0.726000
  0
TEXT
  8
0
 10
3.983760
 20
0.534160
 40
0.138224
  1
11/16" x 1-1/8"
 41
1.000000
  7
SN0
 71
     0
 72
     5
 11
5.069696
 21
0.534160
  0
POLYLINE
  8
0
  6
CONTINUOUS
 66
     1
 40
0.014080
 41
0.014080
  0
VERTEX
  8
0
  6
CONTINUOUS
 10
6.954200
 20
2.032800
  0
VERTEX
  8
0
  6
CONTINUOUS
 10
6.954200
 20
1.819840
  0
VERTEX
  8
0
  6
CONTINUOUS
 10
5.837040
 20
1.819840
  0
VERTEX
  8
0
  6
CONTINUOUS
 10
5.837040
 20
2.511520
  0
VERTEX
  8
0
  6
CONTINUOUS
 10
6.228200
 20
2.511520
  0
VERTEX
  8
0
  6
CONTINUOUS
 10
6.232600
 20
2.495680
  0
VERTEX
  8
0
  6
CONTINUOUS
 10
6.237880
 20
2.478960
  0
VERTEX
  8
0
  6
CONTINUOUS
 10
6.243600
 20
2.461360
  0
VERTEX
  8
0
  6
CONTINUOUS
 10
6.250640
 20
2.443760
  0
VERTEX
  8
0
  6
CONTINUOUS
 10
6.259000
 20
2.425280
  0
VERTEX
  8
0
  6
CONTINUOUS
 10
6.267800
 20
2.406360
  0
VERTEX
  8
0
  6
CONTINUOUS
 10
6.277920
 20
2.387440
  0
VERTEX
  8
0
  6
CONTINUOUS
 10
6.288920
 20
2.368080
  0
VERTEX
  8
0
  6
CONTINUOUS
 10
6.300800
 20
2.348720
  0
VERTEX
  8
0
  6
CONTINUOUS
 10
6.314000
 20
2.329360
  0
VERTEX
  8
0
  6
CONTINUOUS
 10
6.328520
 20
2.310000
  0
VERTEX
  8
0
  6
CONTINUOUS
 10
6.343920
 20
2.290640
  0
VERTEX
  8
0
  6
CONTINUOUS
 10
6.360640
 20
2.271280
  0
VERTEX
  8
0
  6
CONTINUOUS
 10
6.378680
 20
2.252360
  0
VERTEX
  8
0
  6
CONTINUOUS
 10
6.398040
 20
2.233440
  0
VERTEX
  8
0
  6
CONTINUOUS
 10
6.418720
 20
2.214960
  0
VERTEX
  8
0
  6
CONTINUOUS
 10
6.440720
 20
2.196920
  0
VERTEX
  8
0
  6
CONTINUOUS
 10
6.464040
 20
2.179760
  0
VERTEX
  8
0
  6
CONTINUOUS
 10
6.488680
 20
2.163040
  0
VERTEX
  8
0
  6
CONTINUOUS
 10
6.515080
 20
2.146760
  0
VERTEX
  8
0
  6
CONTINUOUS
 10
6.542800
 20
2.131360
  0
VERTEX
  8
0
  6
CONTINUOUS
 10
6.571840
 20
2.116840
  0
VERTEX
  8
0
  6
CONTINUOUS
 10
6.602640
 20
2.103200
  0
VERTEX
  8
0
  6
CONTINUOUS
 10
6.635200
 20
2.090440
  0
VERTEX
  8
0
  6
CONTINUOUS
 10
6.669080
 20
2.078560
  0
VERTEX
  8
0
  6
CONTINUOUS
 10
6.704720
 20
2.068000
  0
VERTEX
  8
0
  6
CONTINUOUS
 10
6.741680
 20
2.058760
  0
VERTEX
  8
0
  6
CONTINUOUS
 10
6.780840
 20
2.050840
  0
VERTEX
  8
0
  6
CONTINUOUS
 10
6.821320
 20
2.044240
  0
VERTEX
  8
0
  6
CONTINUOUS
 10
6.864000
 20
2.038960
  0
VERTEX
  8
0
  6
CONTINUOUS
 10
6.908000
 20
2.035000
  0
VERTEX
  8
0
  6
CONTINUOUS
 10
6.954200
 20
2.032800
  0
SEQEND
  8
0
  0
TEXT
  8
0
 10
6.078600
 20
1.573440
 40
0.138224
  1
BA  829
 41
1.000000
  7
SN0
 71
     0
 72
     5
 11
6.669055
 21
1.573440
  0
TEXT
  8
0
 10
5.830440
 20
1.381600
 40
0.138224
  1
11/16" x 1-1/8"
 41
1.000000
  7
SN0
 71
     0
 72
     5
 11
6.916376
 21
1.381600
  0
ENDSEC
  0
EOF
