  0
SECTION
  2
HEADER
  9
$ACADVER
  1
AC1006
  9
$EXTMIN
 10
4.880480
 20
0.484000
  9
$EXTMAX
 10
6.824840
 20
2.055240
  9
$LTSCALE
 40
0.044000
  9
$PDMODE
 70
    35
  9
$PDSIZE
 40
0.035200
  0
ENDSEC
  0
SECTION
  2
TABLES
  0
TABLE
  2
LTYPE
 70
     9
  0
LTYPE
  2
CONTINUOUS
 70
    64
  3
Solid line
 72
    65
 73
     0
 40
0.000000
  0
LTYPE
  2
DASHED
 70
    64
  3
__ __ __ __ __ __ __ __ __ __ __ __ __ __ __
 72
    65
 73
     2
 40
0.000330
 49
0.000220
 49
-0.000110
  0
LTYPE
  2
HIDDEN
 70
    64
  3
 _ _ _ _ _ _ _ _ _ _ _ _ _ _ _ _ _ _ _ _ _ _
 72
    65
 73
     2
 40
0.000165
 49
0.000110
 49
-0.000055
  0
LTYPE
  2
CENTER
 70
    64
  3
____ _ ____ _ ____ _ ____ _ ____ _ ____ _ ____
 72
    65
 73
     4
 40
0.000880
 49
0.000550
 49
-0.000110
 49
0.000110
 49
-0.000110
  0
LTYPE
  2
PHANTOM
 70
    64
  3
_____ _ _ _____ _ _ _____ _ _ _____ _ _ ____
 72
    65
 73
     6
 40
0.001100
 49
0.000550
 49
-0.000110
 49
0.000110
 49
-0.000110
 49
0.000110
 49
-0.000110
  0
LTYPE
  2
DOT
 70
    64
  3
...............................................
 72
    65
 73
     2
 40
0.000110
 49
0.000000
 49
-0.000110
  0
LTYPE
  2
DASHDOT
 70
    64
  3
__ . __ . __ . __ . __ . __ . __ . __ . __ . __
 72
    65
 73
     4
 40
0.000440
 49
0.000220
 49
-0.000110
 49
0.000000
 49
-0.000110
  0
LTYPE
  2
BORDER
 70
    64
  3
__ __ . __ __ . __ __ . __ __ . __ __ . __ __
 72
    65
 73
     6
 40
0.000770
 49
0.000220
 49
-0.000110
 49
0.000220
 49
-0.000110
 49
0.000000
 49
-0.000110
  0
LTYPE
  2
DIVIDE
 70
    64
  3
__ . . __ . . __ . . __ . . __ . . __ . . __
 72
    65
 73
     6
 40
0.000550
 49
0.000220
 49
-0.000110
 49
0.000000
 49
-0.000110
 49
0.000000
 49
-0.000110
  0
LTYPE
  2
DOTDOT
 70
    64
  3
 . .  . .  . .  . .  . .  . . 
 72
    65
 73
     5
 40
0.000242
 49
-0.000110
 49
0.000000
 49
-0.000110
 49
0.000000
 49
-0.000110
  0
ENDTAB
  0
TABLE
  2
STYLE
 70
     2
  0
STYLE
 70
     0
  2
SN0
 40
0.000000
 41
0.000440
 50
0.000000
 71
     0
 42
0.000000
  3
ROMAND
  0
STYLE
 70
    68
  2
SV0
 40
0.000000
 41
0.000440
 50
0.000000
 71
     0
 42
0.000000
  3
ROMAND
  0
ENDTAB
  0
TABLE
  2
LAYER
 70
     3
  0
LAYER
  2
FOREGROUND
 70
    64
 62
     7
  6
CONTINUOUS
  0
LAYER
  2
BACKGROUND
 70
    65
 62
    -7
  6
CONTINUOUS
  0
LAYER
  2
0
 70
    64
 62
     7
  6
CONTINUOUS
  0
ENDTAB
  0
ENDSEC
  0
SECTION
  2
ENTITIES
  0
POLYLINE
  8
FOREGROUND
  6
CONTINUOUS
 66
     1
 40
0.000000
 41
0.000000
  0
VERTEX
  8
FOREGROUND
  6
CONTINUOUS
 10
0.000000
 20
2.539240
  0
VERTEX
  8
FOREGROUND
  6
CONTINUOUS
 10
8.499920
 20
2.539240
  0
VERTEX
  8
FOREGROUND
  6
CONTINUOUS
 10
8.499920
 20
-8.460760
  0
VERTEX
  8
FOREGROUND
  6
CONTINUOUS
 10
0.000000
 20
-8.460760
  0
VERTEX
  8
FOREGROUND
  6
CONTINUOUS
 10
0.000000
 20
2.539240
  0
SEQEND
  8
0
  0
POLYLINE
  8
FOREGROUND
  6
CONTINUOUS
 66
     1
 40
0.000000
 41
0.000000
  0
VERTEX
  8
FOREGROUND
  6
CONTINUOUS
 10
0.000000
 20
2.539240
  0
VERTEX
  8
FOREGROUND
  6
CONTINUOUS
 10
8.499920
 20
2.539240
  0
VERTEX
  8
FOREGROUND
  6
CONTINUOUS
 10
8.499920
 20
-8.460760
  0
VERTEX
  8
FOREGROUND
  6
CONTINUOUS
 10
0.000000
 20
-8.460760
  0
VERTEX
  8
FOREGROUND
  6
CONTINUOUS
 10
0.000000
 20
2.539240
  0
SEQEND
  8
0
  0
SOLID
  8
0
 62
     7
 10
5.423440
 20
1.148400
 11
5.421680
 21
1.895520
 12
5.454680
 22
1.125080
 13
5.453360
 23
1.871760
  0
POLYLINE
  8
0
  6
CONTINUOUS
 66
     1
 40
0.000000
 41
0.000000
  0
VERTEX
  8
0
  6
CONTINUOUS
 10
5.423440
 20
1.148400
  0
VERTEX
  8
0
  6
CONTINUOUS
 10
5.421680
 20
1.895520
  0
VERTEX
  8
0
  6
CONTINUOUS
 10
5.453360
 20
1.871760
  0
VERTEX
  8
0
  6
CONTINUOUS
 10
5.454680
 20
1.125080
  0
VERTEX
  8
0
  6
CONTINUOUS
 10
5.423440
 20
1.148400
  0
SEQEND
  8
0
  0
SOLID
  8
0
 62
    15
 10
5.004560
 20
1.189320
 11
5.003240
 21
1.936000
 12
5.016440
 22
1.212200
 13
5.014680
 23
1.958880
  0
POLYLINE
  8
0
  6
CONTINUOUS
 66
     1
 40
0.000000
 41
0.000000
  0
VERTEX
  8
0
  6
CONTINUOUS
 10
5.004560
 20
1.189320
  0
VERTEX
  8
0
  6
CONTINUOUS
 10
5.003240
 20
1.936000
  0
VERTEX
  8
0
  6
CONTINUOUS
 10
5.014680
 20
1.958880
  0
VERTEX
  8
0
  6
CONTINUOUS
 10
5.016440
 20
1.212200
  0
VERTEX
  8
0
  6
CONTINUOUS
 10
5.004560
 20
1.189320
  0
SEQEND
  8
0
  0
SOLID
  8
0
 62
    15
 10
5.016440
 20
1.212200
 11
5.014680
 21
1.958880
 12
5.030960
 22
1.232880
 13
5.029640
 23
1.979560
  0
POLYLINE
  8
0
  6
CONTINUOUS
 66
     1
 40
0.000000
 41
0.000000
  0
VERTEX
  8
0
  6
CONTINUOUS
 10
5.016440
 20
1.212200
  0
VERTEX
  8
0
  6
CONTINUOUS
 10
5.014680
 20
1.958880
  0
VERTEX
  8
0
  6
CONTINUOUS
 10
5.029640
 20
1.979560
  0
VERTEX
  8
0
  6
CONTINUOUS
 10
5.030960
 20
1.232880
  0
VERTEX
  8
0
  6
CONTINUOUS
 10
5.016440
 20
1.212200
  0
SEQEND
  8
0
  0
SOLID
  8
0
 62
    15
 10
5.030960
 20
1.232880
 11
5.029640
 21
1.979560
 12
5.048560
 22
1.250920
 13
5.046800
 23
1.997600
  0
POLYLINE
  8
0
  6
CONTINUOUS
 66
     1
 40
0.000000
 41
0.000000
  0
VERTEX
  8
0
  6
CONTINUOUS
 10
5.030960
 20
1.232880
  0
VERTEX
  8
0
  6
CONTINUOUS
 10
5.029640
 20
1.979560
  0
VERTEX
  8
0
  6
CONTINUOUS
 10
5.046800
 20
1.997600
  0
VERTEX
  8
0
  6
CONTINUOUS
 10
5.048560
 20
1.250920
  0
VERTEX
  8
0
  6
CONTINUOUS
 10
5.030960
 20
1.232880
  0
SEQEND
  8
0
  0
SOLID
  8
0
 62
    15
 10
5.048560
 20
1.250920
 11
5.046800
 21
1.997600
 12
5.068360
 22
1.265880
 13
5.066600
 23
2.012560
  0
POLYLINE
  8
0
  6
CONTINUOUS
 66
     1
 40
0.000000
 41
0.000000
  0
VERTEX
  8
0
  6
CONTINUOUS
 10
5.048560
 20
1.250920
  0
VERTEX
  8
0
  6
CONTINUOUS
 10
5.046800
 20
1.997600
  0
VERTEX
  8
0
  6
CONTINUOUS
 10
5.066600
 20
2.012560
  0
VERTEX
  8
0
  6
CONTINUOUS
 10
5.068360
 20
1.265880
  0
VERTEX
  8
0
  6
CONTINUOUS
 10
5.048560
 20
1.250920
  0
SEQEND
  8
0
  0
SOLID
  8
0
 62
    15
 10
5.068360
 20
1.265880
 11
5.066600
 21
2.012560
 12
5.090360
 22
1.277760
 13
5.088600
 23
2.024440
  0
POLYLINE
  8
0
  6
CONTINUOUS
 66
     1
 40
0.000000
 41
0.000000
  0
VERTEX
  8
0
  6
CONTINUOUS
 10
5.068360
 20
1.265880
  0
VERTEX
  8
0
  6
CONTINUOUS
 10
5.066600
 20
2.012560
  0
VERTEX
  8
0
  6
CONTINUOUS
 10
5.088600
 20
2.024440
  0
VERTEX
  8
0
  6
CONTINUOUS
 10
5.090360
 20
1.277760
  0
VERTEX
  8
0
  6
CONTINUOUS
 10
5.068360
 20
1.265880
  0
SEQEND
  8
0
  0
SOLID
  8
0
 62
    15
 10
5.090360
 20
1.277760
 11
5.088600
 21
2.024440
 12
5.114560
 22
1.286120
 13
5.112800
 23
2.032800
  0
POLYLINE
  8
0
  6
CONTINUOUS
 66
     1
 40
0.000000
 41
0.000000
  0
VERTEX
  8
0
  6
CONTINUOUS
 10
5.090360
 20
1.277760
  0
VERTEX
  8
0
  6
CONTINUOUS
 10
5.088600
 20
2.024440
  0
VERTEX
  8
0
  6
CONTINUOUS
 10
5.112800
 20
2.032800
  0
VERTEX
  8
0
  6
CONTINUOUS
 10
5.114560
 20
1.286120
  0
VERTEX
  8
0
  6
CONTINUOUS
 10
5.090360
 20
1.277760
  0
SEQEND
  8
0
  0
SOLID
  8
0
 62
    15
 10
5.114560
 20
1.286120
 11
5.112800
 21
2.032800
 12
5.140520
 22
1.290960
 13
5.138760
 23
2.038080
  0
POLYLINE
  8
0
  6
CONTINUOUS
 66
     1
 40
0.000000
 41
0.000000
  0
VERTEX
  8
0
  6
CONTINUOUS
 10
5.114560
 20
1.286120
  0
VERTEX
  8
0
  6
CONTINUOUS
 10
5.112800
 20
2.032800
  0
VERTEX
  8
0
  6
CONTINUOUS
 10
5.138760
 20
2.038080
  0
VERTEX
  8
0
  6
CONTINUOUS
 10
5.140520
 20
1.290960
  0
VERTEX
  8
0
  6
CONTINUOUS
 10
5.114560
 20
1.286120
  0
SEQEND
  8
0
  0
SOLID
  8
0
 62
    15
 10
5.140520
 20
1.290960
 11
5.138760
 21
2.038080
 12
5.168240
 22
1.292280
 13
5.166480
 23
2.039400
  0
POLYLINE
  8
0
  6
CONTINUOUS
 66
     1
 40
0.000000
 41
0.000000
  0
VERTEX
  8
0
  6
CONTINUOUS
 10
5.140520
 20
1.290960
  0
VERTEX
  8
0
  6
CONTINUOUS
 10
5.138760
 20
2.038080
  0
VERTEX
  8
0
  6
CONTINUOUS
 10
5.166480
 20
2.039400
  0
VERTEX
  8
0
  6
CONTINUOUS
 10
5.168240
 20
1.292280
  0
VERTEX
  8
0
  6
CONTINUOUS
 10
5.140520
 20
1.290960
  0
SEQEND
  8
0
  0
SOLID
  8
0
 62
     7
 10
5.168240
 20
1.292280
 11
5.166480
 21
2.039400
 12
5.197280
 22
1.289640
 13
5.195520
 23
2.036320
  0
POLYLINE
  8
0
  6
CONTINUOUS
 66
     1
 40
0.000000
 41
0.000000
  0
VERTEX
  8
0
  6
CONTINUOUS
 10
5.168240
 20
1.292280
  0
VERTEX
  8
0
  6
CONTINUOUS
 10
5.166480
 20
2.039400
  0
VERTEX
  8
0
  6
CONTINUOUS
 10
5.195520
 20
2.036320
  0
VERTEX
  8
0
  6
CONTINUOUS
 10
5.197280
 20
1.289640
  0
VERTEX
  8
0
  6
CONTINUOUS
 10
5.168240
 20
1.292280
  0
SEQEND
  8
0
  0
SOLID
  8
0
 62
     7
 10
5.197280
 20
1.289640
 11
5.195520
 21
2.036320
 12
5.227200
 22
1.282600
 13
5.225880
 23
2.029720
  0
POLYLINE
  8
0
  6
CONTINUOUS
 66
     1
 40
0.000000
 41
0.000000
  0
VERTEX
  8
0
  6
CONTINUOUS
 10
5.197280
 20
1.289640
  0
VERTEX
  8
0
  6
CONTINUOUS
 10
5.195520
 20
2.036320
  0
VERTEX
  8
0
  6
CONTINUOUS
 10
5.225880
 20
2.029720
  0
VERTEX
  8
0
  6
CONTINUOUS
 10
5.227200
 20
1.282600
  0
VERTEX
  8
0
  6
CONTINUOUS
 10
5.197280
 20
1.289640
  0
SEQEND
  8
0
  0
SOLID
  8
0
 62
     7
 10
5.227200
 20
1.282600
 11
5.225880
 21
2.029720
 12
5.258880
 22
1.271600
 13
5.257120
 23
2.018280
  0
POLYLINE
  8
0
  6
CONTINUOUS
 66
     1
 40
0.000000
 41
0.000000
  0
VERTEX
  8
0
  6
CONTINUOUS
 10
5.227200
 20
1.282600
  0
VERTEX
  8
0
  6
CONTINUOUS
 10
5.225880
 20
2.029720
  0
VERTEX
  8
0
  6
CONTINUOUS
 10
5.257120
 20
2.018280
  0
VERTEX
  8
0
  6
CONTINUOUS
 10
5.258880
 20
1.271600
  0
VERTEX
  8
0
  6
CONTINUOUS
 10
5.227200
 20
1.282600
  0
SEQEND
  8
0
  0
SOLID
  8
0
 62
     7
 10
5.258880
 20
1.271600
 11
5.257120
 21
2.018280
 12
5.291000
 22
1.255760
 13
5.289240
 23
2.002440
  0
POLYLINE
  8
0
  6
CONTINUOUS
 66
     1
 40
0.000000
 41
0.000000
  0
VERTEX
  8
0
  6
CONTINUOUS
 10
5.258880
 20
1.271600
  0
VERTEX
  8
0
  6
CONTINUOUS
 10
5.257120
 20
2.018280
  0
VERTEX
  8
0
  6
CONTINUOUS
 10
5.289240
 20
2.002440
  0
VERTEX
  8
0
  6
CONTINUOUS
 10
5.291000
 20
1.255760
  0
VERTEX
  8
0
  6
CONTINUOUS
 10
5.258880
 20
1.271600
  0
SEQEND
  8
0
  0
SOLID
  8
0
 62
     7
 10
5.291000
 20
1.255760
 11
5.289240
 21
2.002440
 12
5.323560
 22
1.235080
 13
5.322240
 23
1.981760
  0
POLYLINE
  8
0
  6
CONTINUOUS
 66
     1
 40
0.000000
 41
0.000000
  0
VERTEX
  8
0
  6
CONTINUOUS
 10
5.291000
 20
1.255760
  0
VERTEX
  8
0
  6
CONTINUOUS
 10
5.289240
 20
2.002440
  0
VERTEX
  8
0
  6
CONTINUOUS
 10
5.322240
 20
1.981760
  0
VERTEX
  8
0
  6
CONTINUOUS
 10
5.323560
 20
1.235080
  0
VERTEX
  8
0
  6
CONTINUOUS
 10
5.291000
 20
1.255760
  0
SEQEND
  8
0
  0
SOLID
  8
0
 62
     7
 10
5.323560
 20
1.235080
 11
5.322240
 21
1.981760
 12
5.357000
 22
1.209560
 13
5.355240
 23
1.956240
  0
POLYLINE
  8
0
  6
CONTINUOUS
 66
     1
 40
0.000000
 41
0.000000
  0
VERTEX
  8
0
  6
CONTINUOUS
 10
5.323560
 20
1.235080
  0
VERTEX
  8
0
  6
CONTINUOUS
 10
5.322240
 20
1.981760
  0
VERTEX
  8
0
  6
CONTINUOUS
 10
5.355240
 20
1.956240
  0
VERTEX
  8
0
  6
CONTINUOUS
 10
5.357000
 20
1.209560
  0
VERTEX
  8
0
  6
CONTINUOUS
 10
5.323560
 20
1.235080
  0
SEQEND
  8
0
  0
SOLID
  8
0
 62
     7
 10
5.357000
 20
1.209560
 11
5.355240
 21
1.956240
 12
5.390440
 22
1.178760
 13
5.388680
 23
1.925440
  0
POLYLINE
  8
0
  6
CONTINUOUS
 66
     1
 40
0.000000
 41
0.000000
  0
VERTEX
  8
0
  6
CONTINUOUS
 10
5.357000
 20
1.209560
  0
VERTEX
  8
0
  6
CONTINUOUS
 10
5.355240
 20
1.956240
  0
VERTEX
  8
0
  6
CONTINUOUS
 10
5.388680
 20
1.925440
  0
VERTEX
  8
0
  6
CONTINUOUS
 10
5.390440
 20
1.178760
  0
VERTEX
  8
0
  6
CONTINUOUS
 10
5.357000
 20
1.209560
  0
SEQEND
  8
0
  0
SOLID
  8
0
 62
     7
 10
5.390440
 20
1.178760
 11
5.388680
 21
1.925440
 12
5.407160
 22
1.162920
 13
5.405400
 23
1.909600
  0
POLYLINE
  8
0
  6
CONTINUOUS
 66
     1
 40
0.000000
 41
0.000000
  0
VERTEX
  8
0
  6
CONTINUOUS
 10
5.390440
 20
1.178760
  0
VERTEX
  8
0
  6
CONTINUOUS
 10
5.388680
 20
1.925440
  0
VERTEX
  8
0
  6
CONTINUOUS
 10
5.405400
 20
1.909600
  0
VERTEX
  8
0
  6
CONTINUOUS
 10
5.407160
 20
1.162920
  0
VERTEX
  8
0
  6
CONTINUOUS
 10
5.390440
 20
1.178760
  0
SEQEND
  8
0
  0
SOLID
  8
0
 62
     7
 10
5.407160
 20
1.162920
 11
5.405400
 21
1.909600
 12
5.423440
 22
1.148400
 13
5.421680
 23
1.895520
  0
POLYLINE
  8
0
  6
CONTINUOUS
 66
     1
 40
0.000000
 41
0.000000
  0
VERTEX
  8
0
  6
CONTINUOUS
 10
5.407160
 20
1.162920
  0
VERTEX
  8
0
  6
CONTINUOUS
 10
5.405400
 20
1.909600
  0
VERTEX
  8
0
  6
CONTINUOUS
 10
5.421680
 20
1.895520
  0
VERTEX
  8
0
  6
CONTINUOUS
 10
5.423440
 20
1.148400
  0
VERTEX
  8
0
  6
CONTINUOUS
 10
5.407160
 20
1.162920
  0
SEQEND
  8
0
  0
SOLID
  8
0
 62
    15
 10
4.905120
 20
0.923120
 11
4.903360
 21
1.669800
 12
4.905120
 22
1.162920
 13
4.903360
 23
1.909600
  0
POLYLINE
  8
0
  6
CONTINUOUS
 66
     1
 40
0.000000
 41
0.000000
  0
VERTEX
  8
0
  6
CONTINUOUS
 10
4.905120
 20
0.923120
  0
VERTEX
  8
0
  6
CONTINUOUS
 10
4.903360
 20
1.669800
  0
VERTEX
  8
0
  6
CONTINUOUS
 10
4.903360
 20
1.909600
  0
VERTEX
  8
0
  6
CONTINUOUS
 10
4.905120
 20
1.162920
  0
VERTEX
  8
0
  6
CONTINUOUS
 10
4.905120
 20
0.923120
  0
SEQEND
  8
0
  0
SOLID
  8
0
 62
     7
 10
5.454680
 20
1.125080
 11
5.453360
 21
1.871760
 12
5.484600
 22
1.107480
 13
5.483280
 23
1.854160
  0
POLYLINE
  8
0
  6
CONTINUOUS
 66
     1
 40
0.000000
 41
0.000000
  0
VERTEX
  8
0
  6
CONTINUOUS
 10
5.454680
 20
1.125080
  0
VERTEX
  8
0
  6
CONTINUOUS
 10
5.453360
 20
1.871760
  0
VERTEX
  8
0
  6
CONTINUOUS
 10
5.483280
 20
1.854160
  0
VERTEX
  8
0
  6
CONTINUOUS
 10
5.484600
 20
1.107480
  0
VERTEX
  8
0
  6
CONTINUOUS
 10
5.454680
 20
1.125080
  0
SEQEND
  8
0
  0
SOLID
  8
0
 62
     7
 10
5.484600
 20
1.107480
 11
5.483280
 21
1.854160
 12
5.513200
 22
1.095160
 13
5.511880
 23
1.841840
  0
POLYLINE
  8
0
  6
CONTINUOUS
 66
     1
 40
0.000000
 41
0.000000
  0
VERTEX
  8
0
  6
CONTINUOUS
 10
5.484600
 20
1.107480
  0
VERTEX
  8
0
  6
CONTINUOUS
 10
5.483280
 20
1.854160
  0
VERTEX
  8
0
  6
CONTINUOUS
 10
5.511880
 20
1.841840
  0
VERTEX
  8
0
  6
CONTINUOUS
 10
5.513200
 20
1.095160
  0
VERTEX
  8
0
  6
CONTINUOUS
 10
5.484600
 20
1.107480
  0
SEQEND
  8
0
  0
SOLID
  8
0
 62
     7
 10
5.513200
 20
1.095160
 11
5.511880
 21
1.841840
 12
5.540040
 22
1.087240
 13
5.538720
 23
1.834360
  0
POLYLINE
  8
0
  6
CONTINUOUS
 66
     1
 40
0.000000
 41
0.000000
  0
VERTEX
  8
0
  6
CONTINUOUS
 10
5.513200
 20
1.095160
  0
VERTEX
  8
0
  6
CONTINUOUS
 10
5.511880
 20
1.841840
  0
VERTEX
  8
0
  6
CONTINUOUS
 10
5.538720
 20
1.834360
  0
VERTEX
  8
0
  6
CONTINUOUS
 10
5.540040
 20
1.087240
  0
VERTEX
  8
0
  6
CONTINUOUS
 10
5.513200
 20
1.095160
  0
SEQEND
  8
0
  0
SOLID
  8
0
 62
     7
 10
5.540040
 20
1.087240
 11
5.538720
 21
1.834360
 12
5.565120
 22
1.083720
 13
5.563360
 23
1.830400
  0
POLYLINE
  8
0
  6
CONTINUOUS
 66
     1
 40
0.000000
 41
0.000000
  0
VERTEX
  8
0
  6
CONTINUOUS
 10
5.540040
 20
1.087240
  0
VERTEX
  8
0
  6
CONTINUOUS
 10
5.538720
 20
1.834360
  0
VERTEX
  8
0
  6
CONTINUOUS
 10
5.563360
 20
1.830400
  0
VERTEX
  8
0
  6
CONTINUOUS
 10
5.565120
 20
1.083720
  0
VERTEX
  8
0
  6
CONTINUOUS
 10
5.540040
 20
1.087240
  0
SEQEND
  8
0
  0
SOLID
  8
0
 62
     7
 10
5.565120
 20
1.083720
 11
5.563360
 21
1.830400
 12
5.588440
 22
1.083280
 13
5.586680
 23
1.829960
  0
POLYLINE
  8
0
  6
CONTINUOUS
 66
     1
 40
0.000000
 41
0.000000
  0
VERTEX
  8
0
  6
CONTINUOUS
 10
5.565120
 20
1.083720
  0
VERTEX
  8
0
  6
CONTINUOUS
 10
5.563360
 20
1.830400
  0
VERTEX
  8
0
  6
CONTINUOUS
 10
5.586680
 20
1.829960
  0
VERTEX
  8
0
  6
CONTINUOUS
 10
5.588440
 20
1.083280
  0
VERTEX
  8
0
  6
CONTINUOUS
 10
5.565120
 20
1.083720
  0
SEQEND
  8
0
  0
SOLID
  8
0
 62
     7
 10
5.588440
 20
1.083280
 11
5.586680
 21
1.829960
 12
5.609560
 22
1.085480
 13
5.607800
 23
1.832600
  0
POLYLINE
  8
0
  6
CONTINUOUS
 66
     1
 40
0.000000
 41
0.000000
  0
VERTEX
  8
0
  6
CONTINUOUS
 10
5.588440
 20
1.083280
  0
VERTEX
  8
0
  6
CONTINUOUS
 10
5.586680
 20
1.829960
  0
VERTEX
  8
0
  6
CONTINUOUS
 10
5.607800
 20
1.832600
  0
VERTEX
  8
0
  6
CONTINUOUS
 10
5.609560
 20
1.085480
  0
VERTEX
  8
0
  6
CONTINUOUS
 10
5.588440
 20
1.083280
  0
SEQEND
  8
0
  0
SOLID
  8
0
 62
     7
 10
5.609560
 20
1.085480
 11
5.607800
 21
1.832600
 12
5.628480
 22
1.090320
 13
5.627160
 23
1.837000
  0
POLYLINE
  8
0
  6
CONTINUOUS
 66
     1
 40
0.000000
 41
0.000000
  0
VERTEX
  8
0
  6
CONTINUOUS
 10
5.609560
 20
1.085480
  0
VERTEX
  8
0
  6
CONTINUOUS
 10
5.607800
 20
1.832600
  0
VERTEX
  8
0
  6
CONTINUOUS
 10
5.627160
 20
1.837000
  0
VERTEX
  8
0
  6
CONTINUOUS
 10
5.628480
 20
1.090320
  0
VERTEX
  8
0
  6
CONTINUOUS
 10
5.609560
 20
1.085480
  0
SEQEND
  8
0
  0
SOLID
  8
0
 62
     7
 10
5.628480
 20
1.090320
 11
5.627160
 21
1.837000
 12
5.645640
 22
1.096040
 13
5.643880
 23
1.842720
  0
POLYLINE
  8
0
  6
CONTINUOUS
 66
     1
 40
0.000000
 41
0.000000
  0
VERTEX
  8
0
  6
CONTINUOUS
 10
5.628480
 20
1.090320
  0
VERTEX
  8
0
  6
CONTINUOUS
 10
5.627160
 20
1.837000
  0
VERTEX
  8
0
  6
CONTINUOUS
 10
5.643880
 20
1.842720
  0
VERTEX
  8
0
  6
CONTINUOUS
 10
5.645640
 20
1.096040
  0
VERTEX
  8
0
  6
CONTINUOUS
 10
5.628480
 20
1.090320
  0
SEQEND
  8
0
  0
SOLID
  8
0
 62
    15
 10
5.645640
 20
1.096040
 11
5.643880
 21
1.842720
 12
5.660160
 22
1.102640
 13
5.658400
 23
1.849760
  0
POLYLINE
  8
0
  6
CONTINUOUS
 66
     1
 40
0.000000
 41
0.000000
  0
VERTEX
  8
0
  6
CONTINUOUS
 10
5.645640
 20
1.096040
  0
VERTEX
  8
0
  6
CONTINUOUS
 10
5.643880
 20
1.842720
  0
VERTEX
  8
0
  6
CONTINUOUS
 10
5.658400
 20
1.849760
  0
VERTEX
  8
0
  6
CONTINUOUS
 10
5.660160
 20
1.102640
  0
VERTEX
  8
0
  6
CONTINUOUS
 10
5.645640
 20
1.096040
  0
SEQEND
  8
0
  0
SOLID
  8
0
 62
    15
 10
5.660160
 20
1.102640
 11
5.658400
 21
1.849760
 12
5.672040
 22
1.109680
 13
5.670720
 23
1.856360
  0
POLYLINE
  8
0
  6
CONTINUOUS
 66
     1
 40
0.000000
 41
0.000000
  0
VERTEX
  8
0
  6
CONTINUOUS
 10
5.660160
 20
1.102640
  0
VERTEX
  8
0
  6
CONTINUOUS
 10
5.658400
 20
1.849760
  0
VERTEX
  8
0
  6
CONTINUOUS
 10
5.670720
 20
1.856360
  0
VERTEX
  8
0
  6
CONTINUOUS
 10
5.672040
 20
1.109680
  0
VERTEX
  8
0
  6
CONTINUOUS
 10
5.660160
 20
1.102640
  0
SEQEND
  8
0
  0
SOLID
  8
0
 62
    15
 10
5.672040
 20
1.109680
 11
5.670720
 21
1.856360
 12
5.681720
 22
1.116280
 13
5.680400
 23
1.862960
  0
POLYLINE
  8
0
  6
CONTINUOUS
 66
     1
 40
0.000000
 41
0.000000
  0
VERTEX
  8
0
  6
CONTINUOUS
 10
5.672040
 20
1.109680
  0
VERTEX
  8
0
  6
CONTINUOUS
 10
5.670720
 20
1.856360
  0
VERTEX
  8
0
  6
CONTINUOUS
 10
5.680400
 20
1.862960
  0
VERTEX
  8
0
  6
CONTINUOUS
 10
5.681720
 20
1.116280
  0
VERTEX
  8
0
  6
CONTINUOUS
 10
5.672040
 20
1.109680
  0
SEQEND
  8
0
  0
SOLID
  8
0
 62
    15
 10
5.681720
 20
1.116280
 11
5.680400
 21
1.862960
 12
5.688760
 22
1.121560
 13
5.687440
 23
1.868240
  0
POLYLINE
  8
0
  6
CONTINUOUS
 66
     1
 40
0.000000
 41
0.000000
  0
VERTEX
  8
0
  6
CONTINUOUS
 10
5.681720
 20
1.116280
  0
VERTEX
  8
0
  6
CONTINUOUS
 10
5.680400
 20
1.862960
  0
VERTEX
  8
0
  6
CONTINUOUS
 10
5.687440
 20
1.868240
  0
VERTEX
  8
0
  6
CONTINUOUS
 10
5.688760
 20
1.121560
  0
VERTEX
  8
0
  6
CONTINUOUS
 10
5.681720
 20
1.116280
  0
SEQEND
  8
0
  0
SOLID
  8
0
 62
    15
 10
5.688760
 20
1.121560
 11
5.687440
 21
1.868240
 12
5.693160
 22
1.125520
 13
5.691400
 23
1.872200
  0
POLYLINE
  8
0
  6
CONTINUOUS
 66
     1
 40
0.000000
 41
0.000000
  0
VERTEX
  8
0
  6
CONTINUOUS
 10
5.688760
 20
1.121560
  0
VERTEX
  8
0
  6
CONTINUOUS
 10
5.687440
 20
1.868240
  0
VERTEX
  8
0
  6
CONTINUOUS
 10
5.691400
 20
1.872200
  0
VERTEX
  8
0
  6
CONTINUOUS
 10
5.693160
 20
1.125520
  0
VERTEX
  8
0
  6
CONTINUOUS
 10
5.688760
 20
1.121560
  0
SEQEND
  8
0
  0
SOLID
  8
0
 62
    15
 10
5.693160
 20
1.125520
 11
5.691400
 21
1.872200
 12
5.694480
 22
1.126840
 13
5.693160
 23
1.873520
  0
POLYLINE
  8
0
  6
CONTINUOUS
 66
     1
 40
0.000000
 41
0.000000
  0
VERTEX
  8
0
  6
CONTINUOUS
 10
5.693160
 20
1.125520
  0
VERTEX
  8
0
  6
CONTINUOUS
 10
5.691400
 20
1.872200
  0
VERTEX
  8
0
  6
CONTINUOUS
 10
5.693160
 20
1.873520
  0
VERTEX
  8
0
  6
CONTINUOUS
 10
5.694480
 20
1.126840
  0
VERTEX
  8
0
  6
CONTINUOUS
 10
5.693160
 20
1.125520
  0
SEQEND
  8
0
  0
SOLID
  8
0
 62
    15
 10
5.694480
 20
1.126840
 11
5.693160
 21
1.873520
 12
5.797440
 22
1.029160
 13
5.795680
 23
1.775840
  0
POLYLINE
  8
0
  6
CONTINUOUS
 66
     1
 40
0.000000
 41
0.000000
  0
VERTEX
  8
0
  6
CONTINUOUS
 10
5.694480
 20
1.126840
  0
VERTEX
  8
0
  6
CONTINUOUS
 10
5.693160
 20
1.873520
  0
VERTEX
  8
0
  6
CONTINUOUS
 10
5.795680
 20
1.775840
  0
VERTEX
  8
0
  6
CONTINUOUS
 10
5.797440
 20
1.029160
  0
VERTEX
  8
0
  6
CONTINUOUS
 10
5.694480
 20
1.126840
  0
SEQEND
  8
0
  0
SOLID
  8
0
 62
     7
 10
4.905120
 20
1.162920
 11
4.903360
 21
1.909600
 12
4.996200
 22
1.162920
 13
4.994440
 23
1.909600
  0
POLYLINE
  8
0
  6
CONTINUOUS
 66
     1
 40
0.000000
 41
0.000000
  0
VERTEX
  8
0
  6
CONTINUOUS
 10
4.905120
 20
1.162920
  0
VERTEX
  8
0
  6
CONTINUOUS
 10
4.903360
 20
1.909600
  0
VERTEX
  8
0
  6
CONTINUOUS
 10
4.994440
 20
1.909600
  0
VERTEX
  8
0
  6
CONTINUOUS
 10
4.996200
 20
1.162920
  0
VERTEX
  8
0
  6
CONTINUOUS
 10
4.905120
 20
1.162920
  0
SEQEND
  8
0
  0
SOLID
  8
0
 62
    15
 10
4.996200
 20
1.162920
 11
4.994440
 21
1.909600
 12
4.996200
 22
1.163800
 13
4.994440
 23
1.910480
  0
POLYLINE
  8
0
  6
CONTINUOUS
 66
     1
 40
0.000000
 41
0.000000
  0
VERTEX
  8
0
  6
CONTINUOUS
 10
4.996200
 20
1.162920
  0
VERTEX
  8
0
  6
CONTINUOUS
 10
4.994440
 20
1.909600
  0
VERTEX
  8
0
  6
CONTINUOUS
 10
4.994440
 20
1.910480
  0
VERTEX
  8
0
  6
CONTINUOUS
 10
4.996200
 20
1.163800
  0
VERTEX
  8
0
  6
CONTINUOUS
 10
4.996200
 20
1.162920
  0
SEQEND
  8
0
  0
SOLID
  8
0
 62
    15
 10
4.996200
 20
1.163800
 11
4.994440
 21
1.910480
 12
5.004560
 22
1.189320
 13
5.003240
 23
1.936000
  0
POLYLINE
  8
0
  6
CONTINUOUS
 66
     1
 40
0.000000
 41
0.000000
  0
VERTEX
  8
0
  6
CONTINUOUS
 10
4.996200
 20
1.163800
  0
VERTEX
  8
0
  6
CONTINUOUS
 10
4.994440
 20
1.910480
  0
VERTEX
  8
0
  6
CONTINUOUS
 10
5.003240
 20
1.936000
  0
VERTEX
  8
0
  6
CONTINUOUS
 10
5.004560
 20
1.189320
  0
VERTEX
  8
0
  6
CONTINUOUS
 10
4.996200
 20
1.163800
  0
SEQEND
  8
0
  0
POLYLINE
  8
0
  6
CONTINUOUS
 66
     1
 40
0.000000
 41
0.000000
  0
VERTEX
  8
0
  6
CONTINUOUS
 10
4.996200
 20
1.163800
  0
VERTEX
  8
0
  6
CONTINUOUS
 10
5.004560
 20
1.189320
  0
VERTEX
  8
0
  6
CONTINUOUS
 10
5.016440
 20
1.212200
  0
VERTEX
  8
0
  6
CONTINUOUS
 10
5.030960
 20
1.232880
  0
VERTEX
  8
0
  6
CONTINUOUS
 10
5.048560
 20
1.250920
  0
VERTEX
  8
0
  6
CONTINUOUS
 10
5.068360
 20
1.265880
  0
VERTEX
  8
0
  6
CONTINUOUS
 10
5.090360
 20
1.277760
  0
VERTEX
  8
0
  6
CONTINUOUS
 10
5.114560
 20
1.286120
  0
VERTEX
  8
0
  6
CONTINUOUS
 10
5.140520
 20
1.290960
  0
VERTEX
  8
0
  6
CONTINUOUS
 10
5.168240
 20
1.292280
  0
VERTEX
  8
0
  6
CONTINUOUS
 10
5.197280
 20
1.289640
  0
VERTEX
  8
0
  6
CONTINUOUS
 10
5.227200
 20
1.282600
  0
VERTEX
  8
0
  6
CONTINUOUS
 10
5.258880
 20
1.271600
  0
VERTEX
  8
0
  6
CONTINUOUS
 10
5.291000
 20
1.255760
  0
VERTEX
  8
0
  6
CONTINUOUS
 10
5.323560
 20
1.235080
  0
VERTEX
  8
0
  6
CONTINUOUS
 10
5.357000
 20
1.209560
  0
VERTEX
  8
0
  6
CONTINUOUS
 10
5.390440
 20
1.178760
  0
VERTEX
  8
0
  6
CONTINUOUS
 10
5.407160
 20
1.162920
  0
VERTEX
  8
0
  6
CONTINUOUS
 10
5.423440
 20
1.148400
  0
VERTEX
  8
0
  6
CONTINUOUS
 10
5.454680
 20
1.125080
  0
VERTEX
  8
0
  6
CONTINUOUS
 10
5.484600
 20
1.107480
  0
VERTEX
  8
0
  6
CONTINUOUS
 10
5.513200
 20
1.095160
  0
VERTEX
  8
0
  6
CONTINUOUS
 10
5.540040
 20
1.087240
  0
VERTEX
  8
0
  6
CONTINUOUS
 10
5.565120
 20
1.083720
  0
VERTEX
  8
0
  6
CONTINUOUS
 10
5.588440
 20
1.083280
  0
VERTEX
  8
0
  6
CONTINUOUS
 10
5.609560
 20
1.085480
  0
VERTEX
  8
0
  6
CONTINUOUS
 10
5.628480
 20
1.090320
  0
VERTEX
  8
0
  6
CONTINUOUS
 10
5.645640
 20
1.096040
  0
VERTEX
  8
0
  6
CONTINUOUS
 10
5.660160
 20
1.102640
  0
VERTEX
  8
0
  6
CONTINUOUS
 10
5.672040
 20
1.109680
  0
VERTEX
  8
0
  6
CONTINUOUS
 10
5.681720
 20
1.116280
  0
VERTEX
  8
0
  6
CONTINUOUS
 10
5.688760
 20
1.121560
  0
VERTEX
  8
0
  6
CONTINUOUS
 10
5.693160
 20
1.125520
  0
VERTEX
  8
0
  6
CONTINUOUS
 10
5.694480
 20
1.126840
  0
VERTEX
  8
0
  6
CONTINUOUS
 10
5.797440
 20
1.029160
  0
VERTEX
  8
0
  6
CONTINUOUS
 10
5.797440
 20
0.923120
  0
VERTEX
  8
0
  6
CONTINUOUS
 10
4.905120
 20
0.923120
  0
VERTEX
  8
0
  6
CONTINUOUS
 10
4.905120
 20
1.162920
  0
VERTEX
  8
0
  6
CONTINUOUS
 10
4.996200
 20
1.162920
  0
VERTEX
  8
0
  6
CONTINUOUS
 10
4.996200
 20
1.163800
  0
SEQEND
  8
0
  0
TEXT
  8
0
 10
5.055160
 20
0.718520
 40
0.138136
  1
BA  828
 41
1.000000
  7
SN0
 71
     0
 72
     5
 11
5.645079
 21
0.718520
  0
TEXT
  8
0
 10
4.973320
 20
0.526680
 40
0.138136
  1
3/8" x 7/8"
 41
1.000000
  7
SN0
 71
     0
 72
     5
 11
5.726176
 21
0.526680
  0
POLYLINE
  8
0
  6
CONTINUOUS
 66
     1
 40
0.014080
 41
0.014080
  0
VERTEX
  8
0
  6
CONTINUOUS
 10
6.688880
 20
1.246520
  0
VERTEX
  8
0
  6
CONTINUOUS
 10
6.714400
 20
1.255320
  0
VERTEX
  8
0
  6
CONTINUOUS
 10
6.737720
 20
1.267200
  0
VERTEX
  8
0
  6
CONTINUOUS
 10
6.758400
 20
1.281720
  0
VERTEX
  8
0
  6
CONTINUOUS
 10
6.776000
 20
1.298880
  0
VERTEX
  8
0
  6
CONTINUOUS
 10
6.790960
 20
1.318680
  0
VERTEX
  8
0
  6
CONTINUOUS
 10
6.802840
 20
1.340680
  0
VERTEX
  8
0
  6
CONTINUOUS
 10
6.811640
 20
1.364880
  0
VERTEX
  8
0
  6
CONTINUOUS
 10
6.816480
 20
1.390840
  0
VERTEX
  8
0
  6
CONTINUOUS
 10
6.817800
 20
1.418560
  0
VERTEX
  8
0
  6
CONTINUOUS
 10
6.815160
 20
1.447600
  0
VERTEX
  8
0
  6
CONTINUOUS
 10
6.808120
 20
1.477960
  0
VERTEX
  8
0
  6
CONTINUOUS
 10
6.789640
 20
1.525040
  0
VERTEX
  8
0
  6
CONTINUOUS
 10
6.771160
 20
1.557600
  0
VERTEX
  8
0
  6
CONTINUOUS
 10
6.748280
 20
1.590600
  0
VERTEX
  8
0
  6
CONTINUOUS
 10
6.720120
 20
1.624040
  0
VERTEX
  8
0
  6
CONTINUOUS
 10
6.673920
 20
1.673760
  0
VERTEX
  8
0
  6
CONTINUOUS
 10
6.650160
 20
1.705000
  0
VERTEX
  8
0
  6
CONTINUOUS
 10
6.632560
 20
1.735360
  0
VERTEX
  8
0
  6
CONTINUOUS
 10
6.620240
 20
1.763520
  0
VERTEX
  8
0
  6
CONTINUOUS
 10
6.612760
 20
1.790360
  0
VERTEX
  8
0
  6
CONTINUOUS
 10
6.608800
 20
1.815440
  0
VERTEX
  8
0
  6
CONTINUOUS
 10
6.608360
 20
1.838760
  0
VERTEX
  8
0
  6
CONTINUOUS
 10
6.612760
 20
1.869560
  0
VERTEX
  8
0
  6
CONTINUOUS
 10
6.621120
 20
1.895520
  0
VERTEX
  8
0
  6
CONTINUOUS
 10
6.638280
 20
1.927640
  0
VERTEX
  8
0
  6
CONTINUOUS
 10
6.651920
 20
1.944800
  0
VERTEX
  8
0
  6
CONTINUOUS
 10
6.554240
 20
2.047760
  0
VERTEX
  8
0
  6
CONTINUOUS
 10
6.448200
 20
2.047760
  0
VERTEX
  8
0
  6
CONTINUOUS
 10
6.448200
 20
1.155440
  0
VERTEX
  8
0
  6
CONTINUOUS
 10
6.688000
 20
1.155440
  0
VERTEX
  8
0
  6
CONTINUOUS
 10
6.688000
 20
1.246520
  0
VERTEX
  8
0
  6
CONTINUOUS
 10
6.688880
 20
1.246520
  0
SEQEND
  8
0
  0
ENDSEC
  0
EOF
