  0
SECTION
  2
HEADER
  9
$ACADVER
  1
AC1006
  9
$EXTMIN
 10
3.623400
 20
0.632720
  9
$EXTMAX
 10
7.485720
 20
4.325200
  9
$LTSCALE
 40
0.044000
  9
$PDMODE
 70
    35
  9
$PDSIZE
 40
0.035200
  0
ENDSEC
  0
SECTION
  2
TABLES
  0
TABLE
  2
LTYPE
 70
     9
  0
LTYPE
  2
CONTINUOUS
 70
    64
  3
Solid line
 72
    65
 73
     0
 40
0.000000
  0
LTYPE
  2
DASHED
 70
    64
  3
__ __ __ __ __ __ __ __ __ __ __ __ __ __ __
 72
    65
 73
     2
 40
0.000330
 49
0.000220
 49
-0.000110
  0
LTYPE
  2
HIDDEN
 70
    64
  3
 _ _ _ _ _ _ _ _ _ _ _ _ _ _ _ _ _ _ _ _ _ _
 72
    65
 73
     2
 40
0.000165
 49
0.000110
 49
-0.000055
  0
LTYPE
  2
CENTER
 70
    64
  3
____ _ ____ _ ____ _ ____ _ ____ _ ____ _ ____
 72
    65
 73
     4
 40
0.000880
 49
0.000550
 49
-0.000110
 49
0.000110
 49
-0.000110
  0
LTYPE
  2
PHANTOM
 70
    64
  3
_____ _ _ _____ _ _ _____ _ _ _____ _ _ ____
 72
    65
 73
     6
 40
0.001100
 49
0.000550
 49
-0.000110
 49
0.000110
 49
-0.000110
 49
0.000110
 49
-0.000110
  0
LTYPE
  2
DOT
 70
    64
  3
...............................................
 72
    65
 73
     2
 40
0.000110
 49
0.000000
 49
-0.000110
  0
LTYPE
  2
DASHDOT
 70
    64
  3
__ . __ . __ . __ . __ . __ . __ . __ . __ . __
 72
    65
 73
     4
 40
0.000440
 49
0.000220
 49
-0.000110
 49
0.000000
 49
-0.000110
  0
LTYPE
  2
BORDER
 70
    64
  3
__ __ . __ __ . __ __ . __ __ . __ __ . __ __
 72
    65
 73
     6
 40
0.000770
 49
0.000220
 49
-0.000110
 49
0.000220
 49
-0.000110
 49
0.000000
 49
-0.000110
  0
LTYPE
  2
DIVIDE
 70
    64
  3
__ . . __ . . __ . . __ . . __ . . __ . . __
 72
    65
 73
     6
 40
0.000550
 49
0.000220
 49
-0.000110
 49
0.000000
 49
-0.000110
 49
0.000000
 49
-0.000110
  0
LTYPE
  2
DOTDOT
 70
    64
  3
 . .  . .  . .  . .  . .  . . 
 72
    65
 73
     5
 40
0.000242
 49
-0.000110
 49
0.000000
 49
-0.000110
 49
0.000000
 49
-0.000110
  0
ENDTAB
  0
TABLE
  2
STYLE
 70
     2
  0
STYLE
 70
     0
  2
SN0
 40
0.000000
 41
0.000440
 50
0.000000
 71
     0
 42
0.000000
  3
ROMAND
  0
STYLE
 70
    68
  2
SV0
 40
0.000000
 41
0.000440
 50
0.000000
 71
     0
 42
0.000000
  3
ROMAND
  0
ENDTAB
  0
TABLE
  2
LAYER
 70
     3
  0
LAYER
  2
FOREGROUND
 70
    64
 62
     7
  6
CONTINUOUS
  0
LAYER
  2
BACKGROUND
 70
    65
 62
    -7
  6
CONTINUOUS
  0
LAYER
  2
0
 70
    64
 62
     7
  6
CONTINUOUS
  0
ENDTAB
  0
ENDSEC
  0
SECTION
  2
ENTITIES
  0
POLYLINE
  8
FOREGROUND
  6
CONTINUOUS
 66
     1
 40
0.000000
 41
0.000000
  0
VERTEX
  8
FOREGROUND
  6
CONTINUOUS
 10
0.000000
 20
4.957920
  0
VERTEX
  8
FOREGROUND
  6
CONTINUOUS
 10
8.499920
 20
4.957920
  0
VERTEX
  8
FOREGROUND
  6
CONTINUOUS
 10
8.499920
 20
-6.042080
  0
VERTEX
  8
FOREGROUND
  6
CONTINUOUS
 10
0.000000
 20
-6.042080
  0
VERTEX
  8
FOREGROUND
  6
CONTINUOUS
 10
0.000000
 20
4.957920
  0
SEQEND
  8
0
  0
POLYLINE
  8
FOREGROUND
  6
CONTINUOUS
 66
     1
 40
0.000000
 41
0.000000
  0
VERTEX
  8
FOREGROUND
  6
CONTINUOUS
 10
0.000000
 20
4.957920
  0
VERTEX
  8
FOREGROUND
  6
CONTINUOUS
 10
8.499920
 20
4.957920
  0
VERTEX
  8
FOREGROUND
  6
CONTINUOUS
 10
8.499920
 20
-6.042080
  0
VERTEX
  8
FOREGROUND
  6
CONTINUOUS
 10
0.000000
 20
-6.042080
  0
VERTEX
  8
FOREGROUND
  6
CONTINUOUS
 10
0.000000
 20
4.957920
  0
SEQEND
  8
0
  0
SOLID
  8
0
 62
    15
 10
5.682600
 20
1.921040
 11
6.334240
 21
1.548800
 12
5.675120
 22
1.855040
 13
6.326760
 23
1.482800
  0
POLYLINE
  8
0
  6
CONTINUOUS
 66
     1
 40
0.000000
 41
0.000000
  0
VERTEX
  8
0
  6
CONTINUOUS
 10
5.682600
 20
1.921040
  0
VERTEX
  8
0
  6
CONTINUOUS
 10
6.334240
 20
1.548800
  0
VERTEX
  8
0
  6
CONTINUOUS
 10
6.326760
 20
1.482800
  0
VERTEX
  8
0
  6
CONTINUOUS
 10
5.675120
 20
1.855040
  0
VERTEX
  8
0
  6
CONTINUOUS
 10
5.682600
 20
1.921040
  0
SEQEND
  8
0
  0
SOLID
  8
0
 62
    15
 10
6.827920
 20
3.366000
 11
7.480000
 21
2.993760
 12
6.833640
 22
3.182080
 13
7.485280
 23
2.809840
  0
POLYLINE
  8
0
  6
CONTINUOUS
 66
     1
 40
0.000000
 41
0.000000
  0
VERTEX
  8
0
  6
CONTINUOUS
 10
6.827920
 20
3.366000
  0
VERTEX
  8
0
  6
CONTINUOUS
 10
7.480000
 20
2.993760
  0
VERTEX
  8
0
  6
CONTINUOUS
 10
7.485280
 20
2.809840
  0
VERTEX
  8
0
  6
CONTINUOUS
 10
6.833640
 20
3.182080
  0
VERTEX
  8
0
  6
CONTINUOUS
 10
6.827920
 20
3.366000
  0
SEQEND
  8
0
  0
SOLID
  8
0
 62
    15
 10
6.833640
 20
3.182080
 11
7.485280
 21
2.809840
 12
6.824840
 22
3.014000
 13
7.476480
 23
2.641760
  0
POLYLINE
  8
0
  6
CONTINUOUS
 66
     1
 40
0.000000
 41
0.000000
  0
VERTEX
  8
0
  6
CONTINUOUS
 10
6.833640
 20
3.182080
  0
VERTEX
  8
0
  6
CONTINUOUS
 10
7.485280
 20
2.809840
  0
VERTEX
  8
0
  6
CONTINUOUS
 10
7.476480
 20
2.641760
  0
VERTEX
  8
0
  6
CONTINUOUS
 10
6.824840
 20
3.014000
  0
VERTEX
  8
0
  6
CONTINUOUS
 10
6.833640
 20
3.182080
  0
SEQEND
  8
0
  0
SOLID
  8
0
 62
    15
 10
6.824840
 20
3.014000
 11
7.476480
 21
2.641760
 12
6.798440
 22
2.864400
 13
7.450080
 23
2.492160
  0
POLYLINE
  8
0
  6
CONTINUOUS
 66
     1
 40
0.000000
 41
0.000000
  0
VERTEX
  8
0
  6
CONTINUOUS
 10
6.824840
 20
3.014000
  0
VERTEX
  8
0
  6
CONTINUOUS
 10
7.476480
 20
2.641760
  0
VERTEX
  8
0
  6
CONTINUOUS
 10
7.450080
 20
2.492160
  0
VERTEX
  8
0
  6
CONTINUOUS
 10
6.798440
 20
2.864400
  0
VERTEX
  8
0
  6
CONTINUOUS
 10
6.824840
 20
3.014000
  0
SEQEND
  8
0
  0
SOLID
  8
0
 62
    15
 10
6.798440
 20
2.864400
 11
7.450080
 21
2.492160
 12
6.750040
 22
2.735040
 13
7.401680
 23
2.362800
  0
POLYLINE
  8
0
  6
CONTINUOUS
 66
     1
 40
0.000000
 41
0.000000
  0
VERTEX
  8
0
  6
CONTINUOUS
 10
6.798440
 20
2.864400
  0
VERTEX
  8
0
  6
CONTINUOUS
 10
7.450080
 20
2.492160
  0
VERTEX
  8
0
  6
CONTINUOUS
 10
7.401680
 20
2.362800
  0
VERTEX
  8
0
  6
CONTINUOUS
 10
6.750040
 20
2.735040
  0
VERTEX
  8
0
  6
CONTINUOUS
 10
6.798440
 20
2.864400
  0
SEQEND
  8
0
  0
SOLID
  8
0
 62
    15
 10
6.750040
 20
2.735040
 11
7.401680
 21
2.362800
 12
6.676120
 22
2.628120
 13
7.327760
 23
2.255880
  0
POLYLINE
  8
0
  6
CONTINUOUS
 66
     1
 40
0.000000
 41
0.000000
  0
VERTEX
  8
0
  6
CONTINUOUS
 10
6.750040
 20
2.735040
  0
VERTEX
  8
0
  6
CONTINUOUS
 10
7.401680
 20
2.362800
  0
VERTEX
  8
0
  6
CONTINUOUS
 10
7.327760
 20
2.255880
  0
VERTEX
  8
0
  6
CONTINUOUS
 10
6.676120
 20
2.628120
  0
VERTEX
  8
0
  6
CONTINUOUS
 10
6.750040
 20
2.735040
  0
SEQEND
  8
0
  0
SOLID
  8
0
 62
    15
 10
6.676120
 20
2.628120
 11
7.327760
 21
2.255880
 12
6.572720
 22
2.545400
 13
7.224360
 23
2.173600
  0
POLYLINE
  8
0
  6
CONTINUOUS
 66
     1
 40
0.000000
 41
0.000000
  0
VERTEX
  8
0
  6
CONTINUOUS
 10
6.676120
 20
2.628120
  0
VERTEX
  8
0
  6
CONTINUOUS
 10
7.327760
 20
2.255880
  0
VERTEX
  8
0
  6
CONTINUOUS
 10
7.224360
 20
2.173600
  0
VERTEX
  8
0
  6
CONTINUOUS
 10
6.572720
 20
2.545400
  0
VERTEX
  8
0
  6
CONTINUOUS
 10
6.676120
 20
2.628120
  0
SEQEND
  8
0
  0
SOLID
  8
0
 62
    15
 10
6.572720
 20
2.545400
 11
7.224360
 21
2.173600
 12
6.508920
 22
2.514160
 13
7.161000
 23
2.141920
  0
POLYLINE
  8
0
  6
CONTINUOUS
 66
     1
 40
0.000000
 41
0.000000
  0
VERTEX
  8
0
  6
CONTINUOUS
 10
6.572720
 20
2.545400
  0
VERTEX
  8
0
  6
CONTINUOUS
 10
7.224360
 20
2.173600
  0
VERTEX
  8
0
  6
CONTINUOUS
 10
7.161000
 20
2.141920
  0
VERTEX
  8
0
  6
CONTINUOUS
 10
6.508920
 20
2.514160
  0
VERTEX
  8
0
  6
CONTINUOUS
 10
6.572720
 20
2.545400
  0
SEQEND
  8
0
  0
SOLID
  8
0
 62
    15
 10
6.508920
 20
2.514160
 11
7.161000
 21
2.141920
 12
6.436760
 22
2.489520
 13
7.088400
 23
2.117280
  0
POLYLINE
  8
0
  6
CONTINUOUS
 66
     1
 40
0.000000
 41
0.000000
  0
VERTEX
  8
0
  6
CONTINUOUS
 10
6.508920
 20
2.514160
  0
VERTEX
  8
0
  6
CONTINUOUS
 10
7.161000
 20
2.141920
  0
VERTEX
  8
0
  6
CONTINUOUS
 10
7.088400
 20
2.117280
  0
VERTEX
  8
0
  6
CONTINUOUS
 10
6.436760
 20
2.489520
  0
VERTEX
  8
0
  6
CONTINUOUS
 10
6.508920
 20
2.514160
  0
SEQEND
  8
0
  0
SOLID
  8
0
 62
    15
 10
6.436760
 20
2.489520
 11
7.088400
 21
2.117280
 12
6.354920
 22
2.472360
 13
7.007000
 23
2.100120
  0
POLYLINE
  8
0
  6
CONTINUOUS
 66
     1
 40
0.000000
 41
0.000000
  0
VERTEX
  8
0
  6
CONTINUOUS
 10
6.436760
 20
2.489520
  0
VERTEX
  8
0
  6
CONTINUOUS
 10
7.088400
 20
2.117280
  0
VERTEX
  8
0
  6
CONTINUOUS
 10
7.007000
 20
2.100120
  0
VERTEX
  8
0
  6
CONTINUOUS
 10
6.354920
 20
2.472360
  0
VERTEX
  8
0
  6
CONTINUOUS
 10
6.436760
 20
2.489520
  0
SEQEND
  8
0
  0
SOLID
  8
0
 62
    15
 10
6.354920
 20
2.472360
 11
7.007000
 21
2.100120
 12
6.263840
 22
2.462240
 13
6.915480
 23
2.090000
  0
POLYLINE
  8
0
  6
CONTINUOUS
 66
     1
 40
0.000000
 41
0.000000
  0
VERTEX
  8
0
  6
CONTINUOUS
 10
6.354920
 20
2.472360
  0
VERTEX
  8
0
  6
CONTINUOUS
 10
7.007000
 20
2.100120
  0
VERTEX
  8
0
  6
CONTINUOUS
 10
6.915480
 20
2.090000
  0
VERTEX
  8
0
  6
CONTINUOUS
 10
6.263840
 20
2.462240
  0
VERTEX
  8
0
  6
CONTINUOUS
 10
6.354920
 20
2.472360
  0
SEQEND
  8
0
  0
SOLID
  8
0
 62
    15
 10
6.263840
 20
2.462240
 11
6.915480
 21
2.090000
 12
6.172760
 22
2.451680
 13
6.824400
 23
2.079440
  0
POLYLINE
  8
0
  6
CONTINUOUS
 66
     1
 40
0.000000
 41
0.000000
  0
VERTEX
  8
0
  6
CONTINUOUS
 10
6.263840
 20
2.462240
  0
VERTEX
  8
0
  6
CONTINUOUS
 10
6.915480
 20
2.090000
  0
VERTEX
  8
0
  6
CONTINUOUS
 10
6.824400
 20
2.079440
  0
VERTEX
  8
0
  6
CONTINUOUS
 10
6.172760
 20
2.451680
  0
VERTEX
  8
0
  6
CONTINUOUS
 10
6.263840
 20
2.462240
  0
SEQEND
  8
0
  0
SOLID
  8
0
 62
    15
 10
6.172760
 20
2.451680
 11
6.824400
 21
2.079440
 12
6.091800
 22
2.432760
 13
6.743440
 23
2.060520
  0
POLYLINE
  8
0
  6
CONTINUOUS
 66
     1
 40
0.000000
 41
0.000000
  0
VERTEX
  8
0
  6
CONTINUOUS
 10
6.172760
 20
2.451680
  0
VERTEX
  8
0
  6
CONTINUOUS
 10
6.824400
 20
2.079440
  0
VERTEX
  8
0
  6
CONTINUOUS
 10
6.743440
 20
2.060520
  0
VERTEX
  8
0
  6
CONTINUOUS
 10
6.091800
 20
2.432760
  0
VERTEX
  8
0
  6
CONTINUOUS
 10
6.172760
 20
2.451680
  0
SEQEND
  8
0
  0
SOLID
  8
0
 62
    15
 10
6.091800
 20
2.432760
 11
6.743440
 21
2.060520
 12
5.957160
 22
2.373800
 13
6.608800
 23
2.001560
  0
POLYLINE
  8
0
  6
CONTINUOUS
 66
     1
 40
0.000000
 41
0.000000
  0
VERTEX
  8
0
  6
CONTINUOUS
 10
6.091800
 20
2.432760
  0
VERTEX
  8
0
  6
CONTINUOUS
 10
6.743440
 20
2.060520
  0
VERTEX
  8
0
  6
CONTINUOUS
 10
6.608800
 20
2.001560
  0
VERTEX
  8
0
  6
CONTINUOUS
 10
5.957160
 20
2.373800
  0
VERTEX
  8
0
  6
CONTINUOUS
 10
6.091800
 20
2.432760
  0
SEQEND
  8
0
  0
SOLID
  8
0
 62
    15
 10
5.957160
 20
2.373800
 11
6.608800
 21
2.001560
 12
5.855080
 22
2.293720
 13
6.506720
 23
1.921480
  0
POLYLINE
  8
0
  6
CONTINUOUS
 66
     1
 40
0.000000
 41
0.000000
  0
VERTEX
  8
0
  6
CONTINUOUS
 10
5.957160
 20
2.373800
  0
VERTEX
  8
0
  6
CONTINUOUS
 10
6.608800
 20
2.001560
  0
VERTEX
  8
0
  6
CONTINUOUS
 10
6.506720
 20
1.921480
  0
VERTEX
  8
0
  6
CONTINUOUS
 10
5.855080
 20
2.293720
  0
VERTEX
  8
0
  6
CONTINUOUS
 10
5.957160
 20
2.373800
  0
SEQEND
  8
0
  0
SOLID
  8
0
 62
    15
 10
5.855080
 20
2.293720
 11
6.506720
 21
1.921480
 12
5.781160
 22
2.200440
 13
6.433240
 23
1.828200
  0
POLYLINE
  8
0
  6
CONTINUOUS
 66
     1
 40
0.000000
 41
0.000000
  0
VERTEX
  8
0
  6
CONTINUOUS
 10
5.855080
 20
2.293720
  0
VERTEX
  8
0
  6
CONTINUOUS
 10
6.506720
 20
1.921480
  0
VERTEX
  8
0
  6
CONTINUOUS
 10
6.433240
 20
1.828200
  0
VERTEX
  8
0
  6
CONTINUOUS
 10
5.781160
 20
2.200440
  0
VERTEX
  8
0
  6
CONTINUOUS
 10
5.855080
 20
2.293720
  0
SEQEND
  8
0
  0
SOLID
  8
0
 62
    15
 10
5.781160
 20
2.200440
 11
6.433240
 21
1.828200
 12
5.731000
 22
2.101880
 13
6.383080
 23
1.729640
  0
POLYLINE
  8
0
  6
CONTINUOUS
 66
     1
 40
0.000000
 41
0.000000
  0
VERTEX
  8
0
  6
CONTINUOUS
 10
5.781160
 20
2.200440
  0
VERTEX
  8
0
  6
CONTINUOUS
 10
6.433240
 20
1.828200
  0
VERTEX
  8
0
  6
CONTINUOUS
 10
6.383080
 20
1.729640
  0
VERTEX
  8
0
  6
CONTINUOUS
 10
5.731000
 20
2.101880
  0
VERTEX
  8
0
  6
CONTINUOUS
 10
5.781160
 20
2.200440
  0
SEQEND
  8
0
  0
SOLID
  8
0
 62
    15
 10
5.731000
 20
2.101880
 11
6.383080
 21
1.729640
 12
5.699760
 22
2.005960
 13
6.351400
 23
1.633720
  0
POLYLINE
  8
0
  6
CONTINUOUS
 66
     1
 40
0.000000
 41
0.000000
  0
VERTEX
  8
0
  6
CONTINUOUS
 10
5.731000
 20
2.101880
  0
VERTEX
  8
0
  6
CONTINUOUS
 10
6.383080
 20
1.729640
  0
VERTEX
  8
0
  6
CONTINUOUS
 10
6.351400
 20
1.633720
  0
VERTEX
  8
0
  6
CONTINUOUS
 10
5.699760
 20
2.005960
  0
VERTEX
  8
0
  6
CONTINUOUS
 10
5.731000
 20
2.101880
  0
SEQEND
  8
0
  0
SOLID
  8
0
 62
    15
 10
5.699760
 20
2.005960
 11
6.351400
 21
1.633720
 12
5.682600
 22
1.921040
 13
6.334240
 23
1.548800
  0
POLYLINE
  8
0
  6
CONTINUOUS
 66
     1
 40
0.000000
 41
0.000000
  0
VERTEX
  8
0
  6
CONTINUOUS
 10
5.699760
 20
2.005960
  0
VERTEX
  8
0
  6
CONTINUOUS
 10
6.351400
 20
1.633720
  0
VERTEX
  8
0
  6
CONTINUOUS
 10
6.334240
 20
1.548800
  0
VERTEX
  8
0
  6
CONTINUOUS
 10
5.682600
 20
1.921040
  0
VERTEX
  8
0
  6
CONTINUOUS
 10
5.699760
 20
2.005960
  0
SEQEND
  8
0
  0
SOLID
  8
0
 62
    15
 10
4.484480
 20
1.031360
 11
5.136120
 21
0.659120
 12
4.357320
 22
1.032680
 13
5.008960
 23
0.660440
  0
POLYLINE
  8
0
  6
CONTINUOUS
 66
     1
 40
0.000000
 41
0.000000
  0
VERTEX
  8
0
  6
CONTINUOUS
 10
4.484480
 20
1.031360
  0
VERTEX
  8
0
  6
CONTINUOUS
 10
5.136120
 20
0.659120
  0
VERTEX
  8
0
  6
CONTINUOUS
 10
5.008960
 20
0.660440
  0
VERTEX
  8
0
  6
CONTINUOUS
 10
4.357320
 20
1.032680
  0
VERTEX
  8
0
  6
CONTINUOUS
 10
4.484480
 20
1.031360
  0
SEQEND
  8
0
  0
SOLID
  8
0
 62
    15
 10
5.675120
 20
1.855040
 11
6.326760
 21
1.482800
 12
5.443240
 22
1.863840
 13
6.095320
 23
1.491600
  0
POLYLINE
  8
0
  6
CONTINUOUS
 66
     1
 40
0.000000
 41
0.000000
  0
VERTEX
  8
0
  6
CONTINUOUS
 10
5.675120
 20
1.855040
  0
VERTEX
  8
0
  6
CONTINUOUS
 10
6.326760
 20
1.482800
  0
VERTEX
  8
0
  6
CONTINUOUS
 10
6.095320
 20
1.491600
  0
VERTEX
  8
0
  6
CONTINUOUS
 10
5.443240
 20
1.863840
  0
VERTEX
  8
0
  6
CONTINUOUS
 10
5.675120
 20
1.855040
  0
SEQEND
  8
0
  0
SOLID
  8
0
 62
    15
 10
5.443240
 20
1.863840
 11
6.095320
 21
1.491600
 12
5.435760
 22
1.786840
 13
6.087400
 23
1.414600
  0
POLYLINE
  8
0
  6
CONTINUOUS
 66
     1
 40
0.000000
 41
0.000000
  0
VERTEX
  8
0
  6
CONTINUOUS
 10
5.443240
 20
1.863840
  0
VERTEX
  8
0
  6
CONTINUOUS
 10
6.095320
 20
1.491600
  0
VERTEX
  8
0
  6
CONTINUOUS
 10
6.087400
 20
1.414600
  0
VERTEX
  8
0
  6
CONTINUOUS
 10
5.435760
 20
1.786840
  0
VERTEX
  8
0
  6
CONTINUOUS
 10
5.443240
 20
1.863840
  0
SEQEND
  8
0
  0
SOLID
  8
0
 62
    15
 10
5.435760
 20
1.786840
 11
6.087400
 21
1.414600
 12
5.409800
 22
1.716000
 13
6.061880
 23
1.344200
  0
POLYLINE
  8
0
  6
CONTINUOUS
 66
     1
 40
0.000000
 41
0.000000
  0
VERTEX
  8
0
  6
CONTINUOUS
 10
5.435760
 20
1.786840
  0
VERTEX
  8
0
  6
CONTINUOUS
 10
6.087400
 20
1.414600
  0
VERTEX
  8
0
  6
CONTINUOUS
 10
6.061880
 20
1.344200
  0
VERTEX
  8
0
  6
CONTINUOUS
 10
5.409800
 20
1.716000
  0
VERTEX
  8
0
  6
CONTINUOUS
 10
5.435760
 20
1.786840
  0
SEQEND
  8
0
  0
SOLID
  8
0
 62
    15
 10
5.409800
 20
1.716000
 11
6.061880
 21
1.344200
 12
5.369760
 22
1.653080
 13
6.021400
 23
1.280840
  0
POLYLINE
  8
0
  6
CONTINUOUS
 66
     1
 40
0.000000
 41
0.000000
  0
VERTEX
  8
0
  6
CONTINUOUS
 10
5.409800
 20
1.716000
  0
VERTEX
  8
0
  6
CONTINUOUS
 10
6.061880
 20
1.344200
  0
VERTEX
  8
0
  6
CONTINUOUS
 10
6.021400
 20
1.280840
  0
VERTEX
  8
0
  6
CONTINUOUS
 10
5.369760
 20
1.653080
  0
VERTEX
  8
0
  6
CONTINUOUS
 10
5.409800
 20
1.716000
  0
SEQEND
  8
0
  0
SOLID
  8
0
 62
    15
 10
5.369760
 20
1.653080
 11
6.021400
 21
1.280840
 12
5.318720
 22
1.599400
 13
5.970360
 23
1.227600
  0
POLYLINE
  8
0
  6
CONTINUOUS
 66
     1
 40
0.000000
 41
0.000000
  0
VERTEX
  8
0
  6
CONTINUOUS
 10
5.369760
 20
1.653080
  0
VERTEX
  8
0
  6
CONTINUOUS
 10
6.021400
 20
1.280840
  0
VERTEX
  8
0
  6
CONTINUOUS
 10
5.970360
 20
1.227600
  0
VERTEX
  8
0
  6
CONTINUOUS
 10
5.318720
 20
1.599400
  0
VERTEX
  8
0
  6
CONTINUOUS
 10
5.369760
 20
1.653080
  0
SEQEND
  8
0
  0
SOLID
  8
0
 62
    15
 10
5.318720
 20
1.599400
 11
5.970360
 21
1.227600
 12
5.259320
 22
1.557160
 13
5.910960
 23
1.184920
  0
POLYLINE
  8
0
  6
CONTINUOUS
 66
     1
 40
0.000000
 41
0.000000
  0
VERTEX
  8
0
  6
CONTINUOUS
 10
5.318720
 20
1.599400
  0
VERTEX
  8
0
  6
CONTINUOUS
 10
5.970360
 20
1.227600
  0
VERTEX
  8
0
  6
CONTINUOUS
 10
5.910960
 20
1.184920
  0
VERTEX
  8
0
  6
CONTINUOUS
 10
5.259320
 20
1.557160
  0
VERTEX
  8
0
  6
CONTINUOUS
 10
5.318720
 20
1.599400
  0
SEQEND
  8
0
  0
SOLID
  8
0
 62
    15
 10
5.259320
 20
1.557160
 11
5.910960
 21
1.184920
 12
5.195520
 22
1.527240
 13
5.847160
 23
1.155000
  0
POLYLINE
  8
0
  6
CONTINUOUS
 66
     1
 40
0.000000
 41
0.000000
  0
VERTEX
  8
0
  6
CONTINUOUS
 10
5.259320
 20
1.557160
  0
VERTEX
  8
0
  6
CONTINUOUS
 10
5.910960
 20
1.184920
  0
VERTEX
  8
0
  6
CONTINUOUS
 10
5.847160
 20
1.155000
  0
VERTEX
  8
0
  6
CONTINUOUS
 10
5.195520
 20
1.527240
  0
VERTEX
  8
0
  6
CONTINUOUS
 10
5.259320
 20
1.557160
  0
SEQEND
  8
0
  0
SOLID
  8
0
 62
    15
 10
5.195520
 20
1.527240
 11
5.847160
 21
1.155000
 12
5.130840
 22
1.511400
 13
5.782480
 23
1.139160
  0
POLYLINE
  8
0
  6
CONTINUOUS
 66
     1
 40
0.000000
 41
0.000000
  0
VERTEX
  8
0
  6
CONTINUOUS
 10
5.195520
 20
1.527240
  0
VERTEX
  8
0
  6
CONTINUOUS
 10
5.847160
 20
1.155000
  0
VERTEX
  8
0
  6
CONTINUOUS
 10
5.782480
 20
1.139160
  0
VERTEX
  8
0
  6
CONTINUOUS
 10
5.130840
 20
1.511400
  0
VERTEX
  8
0
  6
CONTINUOUS
 10
5.195520
 20
1.527240
  0
SEQEND
  8
0
  0
SOLID
  8
0
 62
    15
 10
5.130840
 20
1.511400
 11
5.782480
 21
1.139160
 12
5.067920
 22
1.511400
 13
5.720000
 23
1.139160
  0
POLYLINE
  8
0
  6
CONTINUOUS
 66
     1
 40
0.000000
 41
0.000000
  0
VERTEX
  8
0
  6
CONTINUOUS
 10
5.130840
 20
1.511400
  0
VERTEX
  8
0
  6
CONTINUOUS
 10
5.782480
 20
1.139160
  0
VERTEX
  8
0
  6
CONTINUOUS
 10
5.720000
 20
1.139160
  0
VERTEX
  8
0
  6
CONTINUOUS
 10
5.067920
 20
1.511400
  0
VERTEX
  8
0
  6
CONTINUOUS
 10
5.130840
 20
1.511400
  0
SEQEND
  8
0
  0
SOLID
  8
0
 62
    15
 10
5.067920
 20
1.511400
 11
5.720000
 21
1.139160
 12
5.059120
 22
1.463000
 13
5.710760
 23
1.090760
  0
POLYLINE
  8
0
  6
CONTINUOUS
 66
     1
 40
0.000000
 41
0.000000
  0
VERTEX
  8
0
  6
CONTINUOUS
 10
5.067920
 20
1.511400
  0
VERTEX
  8
0
  6
CONTINUOUS
 10
5.720000
 20
1.139160
  0
VERTEX
  8
0
  6
CONTINUOUS
 10
5.710760
 20
1.090760
  0
VERTEX
  8
0
  6
CONTINUOUS
 10
5.059120
 20
1.463000
  0
VERTEX
  8
0
  6
CONTINUOUS
 10
5.067920
 20
1.511400
  0
SEQEND
  8
0
  0
SOLID
  8
0
 62
    15
 10
5.059120
 20
1.463000
 11
5.710760
 21
1.090760
 12
4.958800
 22
1.453320
 13
5.610440
 23
1.081080
  0
POLYLINE
  8
0
  6
CONTINUOUS
 66
     1
 40
0.000000
 41
0.000000
  0
VERTEX
  8
0
  6
CONTINUOUS
 10
5.059120
 20
1.463000
  0
VERTEX
  8
0
  6
CONTINUOUS
 10
5.710760
 20
1.090760
  0
VERTEX
  8
0
  6
CONTINUOUS
 10
5.610440
 20
1.081080
  0
VERTEX
  8
0
  6
CONTINUOUS
 10
4.958800
 20
1.453320
  0
VERTEX
  8
0
  6
CONTINUOUS
 10
5.059120
 20
1.463000
  0
SEQEND
  8
0
  0
SOLID
  8
0
 62
    15
 10
4.958800
 20
1.453320
 11
5.610440
 21
1.081080
 12
4.871680
 22
1.423840
 13
5.523320
 23
1.051600
  0
POLYLINE
  8
0
  6
CONTINUOUS
 66
     1
 40
0.000000
 41
0.000000
  0
VERTEX
  8
0
  6
CONTINUOUS
 10
4.958800
 20
1.453320
  0
VERTEX
  8
0
  6
CONTINUOUS
 10
5.610440
 20
1.081080
  0
VERTEX
  8
0
  6
CONTINUOUS
 10
5.523320
 20
1.051600
  0
VERTEX
  8
0
  6
CONTINUOUS
 10
4.871680
 20
1.423840
  0
VERTEX
  8
0
  6
CONTINUOUS
 10
4.958800
 20
1.453320
  0
SEQEND
  8
0
  0
SOLID
  8
0
 62
    15
 10
4.871680
 20
1.423840
 11
5.523320
 21
1.051600
 12
4.797320
 22
1.378520
 13
5.448960
 23
1.006280
  0
POLYLINE
  8
0
  6
CONTINUOUS
 66
     1
 40
0.000000
 41
0.000000
  0
VERTEX
  8
0
  6
CONTINUOUS
 10
4.871680
 20
1.423840
  0
VERTEX
  8
0
  6
CONTINUOUS
 10
5.523320
 20
1.051600
  0
VERTEX
  8
0
  6
CONTINUOUS
 10
5.448960
 20
1.006280
  0
VERTEX
  8
0
  6
CONTINUOUS
 10
4.797320
 20
1.378520
  0
VERTEX
  8
0
  6
CONTINUOUS
 10
4.871680
 20
1.423840
  0
SEQEND
  8
0
  0
SOLID
  8
0
 62
    15
 10
4.797320
 20
1.378520
 11
5.448960
 21
1.006280
 12
4.735720
 22
1.320000
 13
5.387360
 23
0.948200
  0
POLYLINE
  8
0
  6
CONTINUOUS
 66
     1
 40
0.000000
 41
0.000000
  0
VERTEX
  8
0
  6
CONTINUOUS
 10
4.797320
 20
1.378520
  0
VERTEX
  8
0
  6
CONTINUOUS
 10
5.448960
 20
1.006280
  0
VERTEX
  8
0
  6
CONTINUOUS
 10
5.387360
 20
0.948200
  0
VERTEX
  8
0
  6
CONTINUOUS
 10
4.735720
 20
1.320000
  0
VERTEX
  8
0
  6
CONTINUOUS
 10
4.797320
 20
1.378520
  0
SEQEND
  8
0
  0
SOLID
  8
0
 62
    15
 10
4.735720
 20
1.320000
 11
5.387360
 21
0.948200
 12
4.686880
 22
1.252680
 13
5.338520
 23
0.880440
  0
POLYLINE
  8
0
  6
CONTINUOUS
 66
     1
 40
0.000000
 41
0.000000
  0
VERTEX
  8
0
  6
CONTINUOUS
 10
4.735720
 20
1.320000
  0
VERTEX
  8
0
  6
CONTINUOUS
 10
5.387360
 20
0.948200
  0
VERTEX
  8
0
  6
CONTINUOUS
 10
5.338520
 20
0.880440
  0
VERTEX
  8
0
  6
CONTINUOUS
 10
4.686880
 20
1.252680
  0
VERTEX
  8
0
  6
CONTINUOUS
 10
4.735720
 20
1.320000
  0
SEQEND
  8
0
  0
SOLID
  8
0
 62
    15
 10
4.686880
 20
1.252680
 11
5.338520
 21
0.880440
 12
4.649920
 22
1.179640
 13
5.301560
 23
0.807400
  0
POLYLINE
  8
0
  6
CONTINUOUS
 66
     1
 40
0.000000
 41
0.000000
  0
VERTEX
  8
0
  6
CONTINUOUS
 10
4.686880
 20
1.252680
  0
VERTEX
  8
0
  6
CONTINUOUS
 10
5.338520
 20
0.880440
  0
VERTEX
  8
0
  6
CONTINUOUS
 10
5.301560
 20
0.807400
  0
VERTEX
  8
0
  6
CONTINUOUS
 10
4.649920
 20
1.179640
  0
VERTEX
  8
0
  6
CONTINUOUS
 10
4.686880
 20
1.252680
  0
SEQEND
  8
0
  0
SOLID
  8
0
 62
    15
 10
4.649920
 20
1.179640
 11
5.301560
 21
0.807400
 12
4.624840
 22
1.104400
 13
5.276480
 23
0.732160
  0
POLYLINE
  8
0
  6
CONTINUOUS
 66
     1
 40
0.000000
 41
0.000000
  0
VERTEX
  8
0
  6
CONTINUOUS
 10
4.649920
 20
1.179640
  0
VERTEX
  8
0
  6
CONTINUOUS
 10
5.301560
 20
0.807400
  0
VERTEX
  8
0
  6
CONTINUOUS
 10
5.276480
 20
0.732160
  0
VERTEX
  8
0
  6
CONTINUOUS
 10
4.624840
 20
1.104400
  0
VERTEX
  8
0
  6
CONTINUOUS
 10
4.649920
 20
1.179640
  0
SEQEND
  8
0
  0
SOLID
  8
0
 62
    15
 10
4.624840
 20
1.104400
 11
5.276480
 21
0.732160
 12
4.611640
 22
1.030040
 13
5.263720
 23
0.657800
  0
POLYLINE
  8
0
  6
CONTINUOUS
 66
     1
 40
0.000000
 41
0.000000
  0
VERTEX
  8
0
  6
CONTINUOUS
 10
4.624840
 20
1.104400
  0
VERTEX
  8
0
  6
CONTINUOUS
 10
5.276480
 20
0.732160
  0
VERTEX
  8
0
  6
CONTINUOUS
 10
5.263720
 20
0.657800
  0
VERTEX
  8
0
  6
CONTINUOUS
 10
4.611640
 20
1.030040
  0
VERTEX
  8
0
  6
CONTINUOUS
 10
4.624840
 20
1.104400
  0
SEQEND
  8
0
  0
SOLID
  8
0
 62
    15
 10
4.611640
 20
1.030040
 11
5.263720
 21
0.657800
 12
4.484480
 22
1.031360
 13
5.136120
 23
0.659120
  0
POLYLINE
  8
0
  6
CONTINUOUS
 66
     1
 40
0.000000
 41
0.000000
  0
VERTEX
  8
0
  6
CONTINUOUS
 10
4.611640
 20
1.030040
  0
VERTEX
  8
0
  6
CONTINUOUS
 10
5.263720
 20
0.657800
  0
VERTEX
  8
0
  6
CONTINUOUS
 10
5.136120
 20
0.659120
  0
VERTEX
  8
0
  6
CONTINUOUS
 10
4.484480
 20
1.031360
  0
VERTEX
  8
0
  6
CONTINUOUS
 10
4.611640
 20
1.030040
  0
SEQEND
  8
0
  0
POLYLINE
  8
0
  6
CONTINUOUS
 66
     1
 40
0.000000
 41
0.000000
  0
VERTEX
  8
0
  6
CONTINUOUS
 10
4.484480
 20
1.031360
  0
VERTEX
  8
0
  6
CONTINUOUS
 10
4.357320
 20
1.032680
  0
VERTEX
  8
0
  6
CONTINUOUS
 10
4.357760
 20
1.791240
  0
VERTEX
  8
0
  6
CONTINUOUS
 10
6.381760
 20
3.366880
  0
VERTEX
  8
0
  6
CONTINUOUS
 10
6.827920
 20
3.366000
  0
VERTEX
  8
0
  6
CONTINUOUS
 10
6.833640
 20
3.182080
  0
VERTEX
  8
0
  6
CONTINUOUS
 10
6.824840
 20
3.014000
  0
VERTEX
  8
0
  6
CONTINUOUS
 10
6.798440
 20
2.864400
  0
VERTEX
  8
0
  6
CONTINUOUS
 10
6.750040
 20
2.735040
  0
VERTEX
  8
0
  6
CONTINUOUS
 10
6.676120
 20
2.628120
  0
VERTEX
  8
0
  6
CONTINUOUS
 10
6.572720
 20
2.545400
  0
VERTEX
  8
0
  6
CONTINUOUS
 10
6.508920
 20
2.514160
  0
VERTEX
  8
0
  6
CONTINUOUS
 10
6.436760
 20
2.489520
  0
VERTEX
  8
0
  6
CONTINUOUS
 10
6.354920
 20
2.472360
  0
VERTEX
  8
0
  6
CONTINUOUS
 10
6.263840
 20
2.462240
  0
VERTEX
  8
0
  6
CONTINUOUS
 10
6.172760
 20
2.451680
  0
VERTEX
  8
0
  6
CONTINUOUS
 10
6.091800
 20
2.432760
  0
VERTEX
  8
0
  6
CONTINUOUS
 10
5.957160
 20
2.373800
  0
VERTEX
  8
0
  6
CONTINUOUS
 10
5.855080
 20
2.293720
  0
VERTEX
  8
0
  6
CONTINUOUS
 10
5.781160
 20
2.200440
  0
VERTEX
  8
0
  6
CONTINUOUS
 10
5.731000
 20
2.101880
  0
VERTEX
  8
0
  6
CONTINUOUS
 10
5.699760
 20
2.005960
  0
VERTEX
  8
0
  6
CONTINUOUS
 10
5.682600
 20
1.921040
  0
VERTEX
  8
0
  6
CONTINUOUS
 10
5.675120
 20
1.855040
  0
VERTEX
  8
0
  6
CONTINUOUS
 10
5.443240
 20
1.863840
  0
VERTEX
  8
0
  6
CONTINUOUS
 10
5.435760
 20
1.786840
  0
VERTEX
  8
0
  6
CONTINUOUS
 10
5.409800
 20
1.716000
  0
VERTEX
  8
0
  6
CONTINUOUS
 10
5.369760
 20
1.653080
  0
VERTEX
  8
0
  6
CONTINUOUS
 10
5.318720
 20
1.599400
  0
VERTEX
  8
0
  6
CONTINUOUS
 10
5.259320
 20
1.557160
  0
VERTEX
  8
0
  6
CONTINUOUS
 10
5.195520
 20
1.527240
  0
VERTEX
  8
0
  6
CONTINUOUS
 10
5.130840
 20
1.511400
  0
VERTEX
  8
0
  6
CONTINUOUS
 10
5.067920
 20
1.511400
  0
VERTEX
  8
0
  6
CONTINUOUS
 10
5.059120
 20
1.463000
  0
VERTEX
  8
0
  6
CONTINUOUS
 10
4.958800
 20
1.453320
  0
VERTEX
  8
0
  6
CONTINUOUS
 10
4.871680
 20
1.423840
  0
VERTEX
  8
0
  6
CONTINUOUS
 10
4.797320
 20
1.378520
  0
VERTEX
  8
0
  6
CONTINUOUS
 10
4.735720
 20
1.320000
  0
VERTEX
  8
0
  6
CONTINUOUS
 10
4.686880
 20
1.252680
  0
VERTEX
  8
0
  6
CONTINUOUS
 10
4.649920
 20
1.179640
  0
VERTEX
  8
0
  6
CONTINUOUS
 10
4.624840
 20
1.104400
  0
VERTEX
  8
0
  6
CONTINUOUS
 10
4.611640
 20
1.030040
  0
VERTEX
  8
0
  6
CONTINUOUS
 10
4.484480
 20
1.031360
  0
SEQEND
  8
0
  0
TEXT
  8
0
 10
5.935160
 20
0.867680
 40
0.138083
  1
BA  825
 41
1.000000
  7
SN0
 71
     0
 72
     5
 11
6.524743
 21
0.867680
  0
TEXT
  8
0
 10
5.779400
 20
0.676280
 40
0.138083
  1
3/4" x 3-3/8"
 41
1.000000
  7
SN0
 71
     0
 72
     5
 11
6.678741
 21
0.676280
  0
POLYLINE
  8
0
  6
CONTINUOUS
 66
     1
 40
0.014080
 41
0.014080
  0
VERTEX
  8
0
  6
CONTINUOUS
 10
3.832840
 20
4.304960
  0
VERTEX
  8
0
  6
CONTINUOUS
 10
3.873760
 20
4.266680
  0
VERTEX
  8
0
  6
CONTINUOUS
 10
3.920840
 20
4.231480
  0
VERTEX
  8
0
  6
CONTINUOUS
 10
3.954720
 20
4.210360
  0
VERTEX
  8
0
  6
CONTINUOUS
 10
3.990800
 20
4.191440
  0
VERTEX
  8
0
  6
CONTINUOUS
 10
4.029080
 20
4.175160
  0
VERTEX
  8
0
  6
CONTINUOUS
 10
4.088480
 20
4.156680
  0
VERTEX
  8
0
  6
CONTINUOUS
 10
4.129840
 20
4.148760
  0
VERTEX
  8
0
  6
CONTINUOUS
 10
4.172080
 20
4.144800
  0
VERTEX
  8
0
  6
CONTINUOUS
 10
4.214760
 20
4.144800
  0
VERTEX
  8
0
  6
CONTINUOUS
 10
4.258320
 20
4.149640
  0
VERTEX
  8
0
  6
CONTINUOUS
 10
4.301880
 20
4.159320
  0
VERTEX
  8
0
  6
CONTINUOUS
 10
4.345000
 20
4.174720
  0
VERTEX
  8
0
  6
CONTINUOUS
 10
4.388120
 20
4.195400
  0
VERTEX
  8
0
  6
CONTINUOUS
 10
4.430800
 20
4.222240
  0
VERTEX
  8
0
  6
CONTINUOUS
 10
4.451920
 20
4.238080
  0
VERTEX
  8
0
  6
CONTINUOUS
 10
4.488880
 20
4.205520
  0
VERTEX
  8
0
  6
CONTINUOUS
 10
4.511760
 20
4.226200
  0
VERTEX
  8
0
  6
CONTINUOUS
 10
4.538160
 20
4.244240
  0
VERTEX
  8
0
  6
CONTINUOUS
 10
4.583040
 20
4.265800
  0
VERTEX
  8
0
  6
CONTINUOUS
 10
4.632760
 20
4.280760
  0
VERTEX
  8
0
  6
CONTINUOUS
 10
4.667960
 20
4.286920
  0
VERTEX
  8
0
  6
CONTINUOUS
 10
4.704040
 20
4.290000
  0
VERTEX
  8
0
  6
CONTINUOUS
 10
4.740560
 20
4.289560
  0
VERTEX
  8
0
  6
CONTINUOUS
 10
4.777520
 20
4.286040
  0
VERTEX
  8
0
  6
CONTINUOUS
 10
4.814040
 20
4.279000
  0
VERTEX
  8
0
  6
CONTINUOUS
 10
4.849680
 20
4.268440
  0
VERTEX
  8
0
  6
CONTINUOUS
 10
4.884440
 20
4.253920
  0
VERTEX
  8
0
  6
CONTINUOUS
 10
4.917440
 20
4.235880
  0
VERTEX
  8
0
  6
CONTINUOUS
 10
4.948240
 20
4.213880
  0
VERTEX
  8
0
  6
CONTINUOUS
 10
4.976400
 20
4.187920
  0
VERTEX
  8
0
  6
CONTINUOUS
 10
5.001480
 20
4.158000
  0
VERTEX
  8
0
  6
CONTINUOUS
 10
5.178800
 20
4.307160
  0
VERTEX
  8
0
  6
CONTINUOUS
 10
5.239960
 20
4.246000
  0
VERTEX
  8
0
  6
CONTINUOUS
 10
5.291000
 20
4.203320
  0
VERTEX
  8
0
  6
CONTINUOUS
 10
5.352160
 20
4.160200
  0
VERTEX
  8
0
  6
CONTINUOUS
 10
5.398360
 20
4.133800
  0
VERTEX
  8
0
  6
CONTINUOUS
 10
5.448520
 20
4.110480
  0
VERTEX
  8
0
  6
CONTINUOUS
 10
5.502200
 20
4.090680
  0
VERTEX
  8
0
  6
CONTINUOUS
 10
5.530800
 20
4.082760
  0
VERTEX
  8
0
  6
CONTINUOUS
 10
5.590640
 20
4.071760
  0
VERTEX
  8
0
  6
CONTINUOUS
 10
5.621440
 20
4.068240
  0
VERTEX
  8
0
  6
CONTINUOUS
 10
5.686560
 20
4.067800
  0
VERTEX
  8
0
  6
CONTINUOUS
 10
5.737160
 20
4.073080
  0
VERTEX
  8
0
  6
CONTINUOUS
 10
5.789960
 20
4.084080
  0
VERTEX
  8
0
  6
CONTINUOUS
 10
5.844080
 20
4.100360
  0
VERTEX
  8
0
  6
CONTINUOUS
 10
5.899960
 20
4.123240
  0
VERTEX
  8
0
  6
CONTINUOUS
 10
5.957600
 20
4.152720
  0
VERTEX
  8
0
  6
CONTINUOUS
 10
6.094440
 20
4.238080
  0
VERTEX
  8
0
  6
CONTINUOUS
 10
6.151200
 20
4.266240
  0
VERTEX
  8
0
  6
CONTINUOUS
 10
6.206200
 20
4.288240
  0
VERTEX
  8
0
  6
CONTINUOUS
 10
6.259440
 20
4.304080
  0
VERTEX
  8
0
  6
CONTINUOUS
 10
6.311360
 20
4.313760
  0
VERTEX
  8
0
  6
CONTINUOUS
 10
6.345240
 20
4.317280
  0
VERTEX
  8
0
  6
CONTINUOUS
 10
6.394960
 20
4.317280
  0
VERTEX
  8
0
  6
CONTINUOUS
 10
6.443360
 20
4.312000
  0
VERTEX
  8
0
  6
CONTINUOUS
 10
6.475040
 20
4.305840
  0
VERTEX
  8
0
  6
CONTINUOUS
 10
6.506280
 20
4.297040
  0
VERTEX
  8
0
  6
CONTINUOUS
 10
6.537080
 20
4.286040
  0
VERTEX
  8
0
  6
CONTINUOUS
 10
6.567440
 20
4.272840
  0
VERTEX
  8
0
  6
CONTINUOUS
 10
6.597360
 20
4.257880
  0
VERTEX
  8
0
  6
CONTINUOUS
 10
6.656320
 20
4.221800
  0
VERTEX
  8
0
  6
CONTINUOUS
 10
6.713520
 20
4.177800
  0
VERTEX
  8
0
  6
CONTINUOUS
 10
6.770280
 20
4.126760
  0
VERTEX
  8
0
  6
CONTINUOUS
 10
6.825720
 20
4.069560
  0
VERTEX
  8
0
  6
CONTINUOUS
 10
6.880720
 20
4.005760
  0
VERTEX
  8
0
  6
CONTINUOUS
 10
6.935280
 20
3.936680
  0
VERTEX
  8
0
  6
CONTINUOUS
 10
7.016680
 20
3.823160
  0
VERTEX
  8
0
  6
CONTINUOUS
 10
6.665120
 20
3.548600
  0
VERTEX
  8
0
  6
CONTINUOUS
 10
4.099920
 20
3.548600
  0
VERTEX
  8
0
  6
CONTINUOUS
 10
3.633960
 20
4.146560
  0
VERTEX
  8
0
  6
CONTINUOUS
 10
3.832840
 20
4.304960
  0
SEQEND
  8
0
  0
ENDSEC
  0
EOF
