  0
SECTION
  2
HEADER
  9
$ACADVER
  1
AC1006
  9
$EXTMIN
 10
3.240600
 20
0.554840
  9
$EXTMAX
 10
7.127120
 20
3.977160
  9
$LTSCALE
 40
0.044000
  9
$PDMODE
 70
    35
  9
$PDSIZE
 40
0.035200
  0
ENDSEC
  0
SECTION
  2
TABLES
  0
TABLE
  2
LTYPE
 70
     9
  0
LTYPE
  2
CONTINUOUS
 70
    64
  3
Solid line
 72
    65
 73
     0
 40
0.000000
  0
LTYPE
  2
DASHED
 70
    64
  3
__ __ __ __ __ __ __ __ __ __ __ __ __ __ __
 72
    65
 73
     2
 40
0.000330
 49
0.000220
 49
-0.000110
  0
LTYPE
  2
HIDDEN
 70
    64
  3
 _ _ _ _ _ _ _ _ _ _ _ _ _ _ _ _ _ _ _ _ _ _
 72
    65
 73
     2
 40
0.000165
 49
0.000110
 49
-0.000055
  0
LTYPE
  2
CENTER
 70
    64
  3
____ _ ____ _ ____ _ ____ _ ____ _ ____ _ ____
 72
    65
 73
     4
 40
0.000880
 49
0.000550
 49
-0.000110
 49
0.000110
 49
-0.000110
  0
LTYPE
  2
PHANTOM
 70
    64
  3
_____ _ _ _____ _ _ _____ _ _ _____ _ _ ____
 72
    65
 73
     6
 40
0.001100
 49
0.000550
 49
-0.000110
 49
0.000110
 49
-0.000110
 49
0.000110
 49
-0.000110
  0
LTYPE
  2
DOT
 70
    64
  3
...............................................
 72
    65
 73
     2
 40
0.000110
 49
0.000000
 49
-0.000110
  0
LTYPE
  2
DASHDOT
 70
    64
  3
__ . __ . __ . __ . __ . __ . __ . __ . __ . __
 72
    65
 73
     4
 40
0.000440
 49
0.000220
 49
-0.000110
 49
0.000000
 49
-0.000110
  0
LTYPE
  2
BORDER
 70
    64
  3
__ __ . __ __ . __ __ . __ __ . __ __ . __ __
 72
    65
 73
     6
 40
0.000770
 49
0.000220
 49
-0.000110
 49
0.000220
 49
-0.000110
 49
0.000000
 49
-0.000110
  0
LTYPE
  2
DIVIDE
 70
    64
  3
__ . . __ . . __ . . __ . . __ . . __ . . __
 72
    65
 73
     6
 40
0.000550
 49
0.000220
 49
-0.000110
 49
0.000000
 49
-0.000110
 49
0.000000
 49
-0.000110
  0
LTYPE
  2
DOTDOT
 70
    64
  3
 . .  . .  . .  . .  . .  . . 
 72
    65
 73
     5
 40
0.000242
 49
-0.000110
 49
0.000000
 49
-0.000110
 49
0.000000
 49
-0.000110
  0
ENDTAB
  0
TABLE
  2
STYLE
 70
     2
  0
STYLE
 70
     0
  2
SN0
 40
0.000000
 41
0.000440
 50
0.000000
 71
     0
 42
0.000000
  3
ROMAND
  0
STYLE
 70
    68
  2
SV0
 40
0.000000
 41
0.000440
 50
0.000000
 71
     0
 42
0.000000
  3
ROMAND
  0
ENDTAB
  0
TABLE
  2
LAYER
 70
     3
  0
LAYER
  2
FOREGROUND
 70
    64
 62
     7
  6
CONTINUOUS
  0
LAYER
  2
BACKGROUND
 70
    65
 62
    -7
  6
CONTINUOUS
  0
LAYER
  2
0
 70
    64
 62
     7
  6
CONTINUOUS
  0
ENDTAB
  0
ENDSEC
  0
SECTION
  2
ENTITIES
  0
POLYLINE
  8
FOREGROUND
  6
CONTINUOUS
 66
     1
 40
0.000000
 41
0.000000
  0
VERTEX
  8
FOREGROUND
  6
CONTINUOUS
 10
0.000000
 20
4.532000
  0
VERTEX
  8
FOREGROUND
  6
CONTINUOUS
 10
8.499920
 20
4.532000
  0
VERTEX
  8
FOREGROUND
  6
CONTINUOUS
 10
8.499920
 20
-6.468000
  0
VERTEX
  8
FOREGROUND
  6
CONTINUOUS
 10
0.000000
 20
-6.468000
  0
VERTEX
  8
FOREGROUND
  6
CONTINUOUS
 10
0.000000
 20
4.532000
  0
SEQEND
  8
0
  0
POLYLINE
  8
FOREGROUND
  6
CONTINUOUS
 66
     1
 40
0.000000
 41
0.000000
  0
VERTEX
  8
FOREGROUND
  6
CONTINUOUS
 10
0.000000
 20
4.532000
  0
VERTEX
  8
FOREGROUND
  6
CONTINUOUS
 10
8.499920
 20
4.532000
  0
VERTEX
  8
FOREGROUND
  6
CONTINUOUS
 10
8.499920
 20
-6.468000
  0
VERTEX
  8
FOREGROUND
  6
CONTINUOUS
 10
0.000000
 20
-6.468000
  0
VERTEX
  8
FOREGROUND
  6
CONTINUOUS
 10
0.000000
 20
4.532000
  0
SEQEND
  8
0
  0
SOLID
  8
0
 62
    15
 10
5.273400
 20
1.557600
 11
5.276480
 21
2.302080
 12
5.301560
 22
1.553200
 13
5.305080
 23
2.297680
  0
POLYLINE
  8
0
  6
CONTINUOUS
 66
     1
 40
0.000000
 41
0.000000
  0
VERTEX
  8
0
  6
CONTINUOUS
 10
5.273400
 20
1.557600
  0
VERTEX
  8
0
  6
CONTINUOUS
 10
5.276480
 20
2.302080
  0
VERTEX
  8
0
  6
CONTINUOUS
 10
5.305080
 20
2.297680
  0
VERTEX
  8
0
  6
CONTINUOUS
 10
5.301560
 20
1.553200
  0
VERTEX
  8
0
  6
CONTINUOUS
 10
5.273400
 20
1.557600
  0
SEQEND
  8
0
  0
SOLID
  8
0
 62
    15
 10
3.855720
 20
1.719080
 11
3.859240
 21
2.463560
 12
3.883000
 22
1.749440
 13
3.886080
 23
2.493920
  0
POLYLINE
  8
0
  6
CONTINUOUS
 66
     1
 40
0.000000
 41
0.000000
  0
VERTEX
  8
0
  6
CONTINUOUS
 10
3.855720
 20
1.719080
  0
VERTEX
  8
0
  6
CONTINUOUS
 10
3.859240
 20
2.463560
  0
VERTEX
  8
0
  6
CONTINUOUS
 10
3.886080
 20
2.493920
  0
VERTEX
  8
0
  6
CONTINUOUS
 10
3.883000
 20
1.749440
  0
VERTEX
  8
0
  6
CONTINUOUS
 10
3.855720
 20
1.719080
  0
SEQEND
  8
0
  0
SOLID
  8
0
 62
    15
 10
3.883000
 20
1.749440
 11
3.886080
 21
2.493920
 12
3.915120
 22
1.772760
 13
3.918640
 23
2.517240
  0
POLYLINE
  8
0
  6
CONTINUOUS
 66
     1
 40
0.000000
 41
0.000000
  0
VERTEX
  8
0
  6
CONTINUOUS
 10
3.883000
 20
1.749440
  0
VERTEX
  8
0
  6
CONTINUOUS
 10
3.886080
 20
2.493920
  0
VERTEX
  8
0
  6
CONTINUOUS
 10
3.918640
 20
2.517240
  0
VERTEX
  8
0
  6
CONTINUOUS
 10
3.915120
 20
1.772760
  0
VERTEX
  8
0
  6
CONTINUOUS
 10
3.883000
 20
1.749440
  0
SEQEND
  8
0
  0
SOLID
  8
0
 62
    15
 10
3.915120
 20
1.772760
 11
3.918640
 21
2.517240
 12
3.952520
 22
1.789040
 13
3.956040
 23
2.533520
  0
POLYLINE
  8
0
  6
CONTINUOUS
 66
     1
 40
0.000000
 41
0.000000
  0
VERTEX
  8
0
  6
CONTINUOUS
 10
3.915120
 20
1.772760
  0
VERTEX
  8
0
  6
CONTINUOUS
 10
3.918640
 20
2.517240
  0
VERTEX
  8
0
  6
CONTINUOUS
 10
3.956040
 20
2.533520
  0
VERTEX
  8
0
  6
CONTINUOUS
 10
3.952520
 20
1.789040
  0
VERTEX
  8
0
  6
CONTINUOUS
 10
3.915120
 20
1.772760
  0
SEQEND
  8
0
  0
SOLID
  8
0
 62
    15
 10
3.952520
 20
1.789040
 11
3.956040
 21
2.533520
 12
3.993880
 22
1.799600
 13
3.997400
 23
2.544080
  0
POLYLINE
  8
0
  6
CONTINUOUS
 66
     1
 40
0.000000
 41
0.000000
  0
VERTEX
  8
0
  6
CONTINUOUS
 10
3.952520
 20
1.789040
  0
VERTEX
  8
0
  6
CONTINUOUS
 10
3.956040
 20
2.533520
  0
VERTEX
  8
0
  6
CONTINUOUS
 10
3.997400
 20
2.544080
  0
VERTEX
  8
0
  6
CONTINUOUS
 10
3.993880
 20
1.799600
  0
VERTEX
  8
0
  6
CONTINUOUS
 10
3.952520
 20
1.789040
  0
SEQEND
  8
0
  0
SOLID
  8
0
 62
    15
 10
3.993880
 20
1.799600
 11
3.997400
 21
2.544080
 12
4.039200
 22
1.804440
 13
4.042720
 23
2.548920
  0
POLYLINE
  8
0
  6
CONTINUOUS
 66
     1
 40
0.000000
 41
0.000000
  0
VERTEX
  8
0
  6
CONTINUOUS
 10
3.993880
 20
1.799600
  0
VERTEX
  8
0
  6
CONTINUOUS
 10
3.997400
 20
2.544080
  0
VERTEX
  8
0
  6
CONTINUOUS
 10
4.042720
 20
2.548920
  0
VERTEX
  8
0
  6
CONTINUOUS
 10
4.039200
 20
1.804440
  0
VERTEX
  8
0
  6
CONTINUOUS
 10
3.993880
 20
1.799600
  0
SEQEND
  8
0
  0
SOLID
  8
0
 62
    15
 10
4.039200
 20
1.804440
 11
4.042720
 21
2.548920
 12
4.088040
 22
1.804000
 13
4.091560
 23
2.548040
  0
POLYLINE
  8
0
  6
CONTINUOUS
 66
     1
 40
0.000000
 41
0.000000
  0
VERTEX
  8
0
  6
CONTINUOUS
 10
4.039200
 20
1.804440
  0
VERTEX
  8
0
  6
CONTINUOUS
 10
4.042720
 20
2.548920
  0
VERTEX
  8
0
  6
CONTINUOUS
 10
4.091560
 20
2.548040
  0
VERTEX
  8
0
  6
CONTINUOUS
 10
4.088040
 20
1.804000
  0
VERTEX
  8
0
  6
CONTINUOUS
 10
4.039200
 20
1.804440
  0
SEQEND
  8
0
  0
SOLID
  8
0
 62
    15
 10
4.088040
 20
1.804000
 11
4.091560
 21
2.548040
 12
4.139520
 22
1.798280
 13
4.143040
 23
2.542760
  0
POLYLINE
  8
0
  6
CONTINUOUS
 66
     1
 40
0.000000
 41
0.000000
  0
VERTEX
  8
0
  6
CONTINUOUS
 10
4.088040
 20
1.804000
  0
VERTEX
  8
0
  6
CONTINUOUS
 10
4.091560
 20
2.548040
  0
VERTEX
  8
0
  6
CONTINUOUS
 10
4.143040
 20
2.542760
  0
VERTEX
  8
0
  6
CONTINUOUS
 10
4.139520
 20
1.798280
  0
VERTEX
  8
0
  6
CONTINUOUS
 10
4.088040
 20
1.804000
  0
SEQEND
  8
0
  0
SOLID
  8
0
 62
    15
 10
4.139520
 20
1.798280
 11
4.143040
 21
2.542760
 12
4.193200
 22
1.788600
 13
4.196280
 23
2.533080
  0
POLYLINE
  8
0
  6
CONTINUOUS
 66
     1
 40
0.000000
 41
0.000000
  0
VERTEX
  8
0
  6
CONTINUOUS
 10
4.139520
 20
1.798280
  0
VERTEX
  8
0
  6
CONTINUOUS
 10
4.143040
 20
2.542760
  0
VERTEX
  8
0
  6
CONTINUOUS
 10
4.196280
 20
2.533080
  0
VERTEX
  8
0
  6
CONTINUOUS
 10
4.193200
 20
1.788600
  0
VERTEX
  8
0
  6
CONTINUOUS
 10
4.139520
 20
1.798280
  0
SEQEND
  8
0
  0
SOLID
  8
0
 62
    15
 10
4.193200
 20
1.788600
 11
4.196280
 21
2.533080
 12
4.248640
 22
1.774960
 13
4.251720
 23
2.519440
  0
POLYLINE
  8
0
  6
CONTINUOUS
 66
     1
 40
0.000000
 41
0.000000
  0
VERTEX
  8
0
  6
CONTINUOUS
 10
4.193200
 20
1.788600
  0
VERTEX
  8
0
  6
CONTINUOUS
 10
4.196280
 20
2.533080
  0
VERTEX
  8
0
  6
CONTINUOUS
 10
4.251720
 20
2.519440
  0
VERTEX
  8
0
  6
CONTINUOUS
 10
4.248640
 20
1.774960
  0
VERTEX
  8
0
  6
CONTINUOUS
 10
4.193200
 20
1.788600
  0
SEQEND
  8
0
  0
SOLID
  8
0
 62
    15
 10
4.248640
 20
1.774960
 11
4.251720
 21
2.519440
 12
4.362600
 22
1.737120
 13
4.366120
 23
2.481600
  0
POLYLINE
  8
0
  6
CONTINUOUS
 66
     1
 40
0.000000
 41
0.000000
  0
VERTEX
  8
0
  6
CONTINUOUS
 10
4.248640
 20
1.774960
  0
VERTEX
  8
0
  6
CONTINUOUS
 10
4.251720
 20
2.519440
  0
VERTEX
  8
0
  6
CONTINUOUS
 10
4.366120
 20
2.481600
  0
VERTEX
  8
0
  6
CONTINUOUS
 10
4.362600
 20
1.737120
  0
VERTEX
  8
0
  6
CONTINUOUS
 10
4.248640
 20
1.774960
  0
SEQEND
  8
0
  0
SOLID
  8
0
 62
    15
 10
4.362600
 20
1.737120
 11
4.366120
 21
2.481600
 12
4.477000
 22
1.688720
 13
4.480520
 23
2.433200
  0
POLYLINE
  8
0
  6
CONTINUOUS
 66
     1
 40
0.000000
 41
0.000000
  0
VERTEX
  8
0
  6
CONTINUOUS
 10
4.362600
 20
1.737120
  0
VERTEX
  8
0
  6
CONTINUOUS
 10
4.366120
 20
2.481600
  0
VERTEX
  8
0
  6
CONTINUOUS
 10
4.480520
 20
2.433200
  0
VERTEX
  8
0
  6
CONTINUOUS
 10
4.477000
 20
1.688720
  0
VERTEX
  8
0
  6
CONTINUOUS
 10
4.362600
 20
1.737120
  0
SEQEND
  8
0
  0
SOLID
  8
0
 62
    15
 10
4.477000
 20
1.688720
 11
4.480520
 21
2.433200
 12
4.588760
 22
1.633280
 13
4.591840
 23
2.377760
  0
POLYLINE
  8
0
  6
CONTINUOUS
 66
     1
 40
0.000000
 41
0.000000
  0
VERTEX
  8
0
  6
CONTINUOUS
 10
4.477000
 20
1.688720
  0
VERTEX
  8
0
  6
CONTINUOUS
 10
4.480520
 20
2.433200
  0
VERTEX
  8
0
  6
CONTINUOUS
 10
4.591840
 20
2.377760
  0
VERTEX
  8
0
  6
CONTINUOUS
 10
4.588760
 20
1.633280
  0
VERTEX
  8
0
  6
CONTINUOUS
 10
4.477000
 20
1.688720
  0
SEQEND
  8
0
  0
SOLID
  8
0
 62
    15
 10
4.588760
 20
1.633280
 11
4.591840
 21
2.377760
 12
4.641120
 22
1.606000
 13
4.644640
 23
2.350480
  0
POLYLINE
  8
0
  6
CONTINUOUS
 66
     1
 40
0.000000
 41
0.000000
  0
VERTEX
  8
0
  6
CONTINUOUS
 10
4.588760
 20
1.633280
  0
VERTEX
  8
0
  6
CONTINUOUS
 10
4.591840
 20
2.377760
  0
VERTEX
  8
0
  6
CONTINUOUS
 10
4.644640
 20
2.350480
  0
VERTEX
  8
0
  6
CONTINUOUS
 10
4.641120
 20
1.606000
  0
VERTEX
  8
0
  6
CONTINUOUS
 10
4.588760
 20
1.633280
  0
SEQEND
  8
0
  0
SOLID
  8
0
 62
    15
 10
4.641120
 20
1.606000
 11
4.644640
 21
2.350480
 12
4.691280
 22
1.581360
 13
4.694360
 23
2.325840
  0
POLYLINE
  8
0
  6
CONTINUOUS
 66
     1
 40
0.000000
 41
0.000000
  0
VERTEX
  8
0
  6
CONTINUOUS
 10
4.641120
 20
1.606000
  0
VERTEX
  8
0
  6
CONTINUOUS
 10
4.644640
 20
2.350480
  0
VERTEX
  8
0
  6
CONTINUOUS
 10
4.694360
 20
2.325840
  0
VERTEX
  8
0
  6
CONTINUOUS
 10
4.691280
 20
1.581360
  0
VERTEX
  8
0
  6
CONTINUOUS
 10
4.641120
 20
1.606000
  0
SEQEND
  8
0
  0
SOLID
  8
0
 62
    15
 10
4.691280
 20
1.581360
 11
4.694360
 21
2.325840
 12
4.782800
 22
1.539560
 13
4.786320
 23
2.284040
  0
POLYLINE
  8
0
  6
CONTINUOUS
 66
     1
 40
0.000000
 41
0.000000
  0
VERTEX
  8
0
  6
CONTINUOUS
 10
4.691280
 20
1.581360
  0
VERTEX
  8
0
  6
CONTINUOUS
 10
4.694360
 20
2.325840
  0
VERTEX
  8
0
  6
CONTINUOUS
 10
4.786320
 20
2.284040
  0
VERTEX
  8
0
  6
CONTINUOUS
 10
4.782800
 20
1.539560
  0
VERTEX
  8
0
  6
CONTINUOUS
 10
4.691280
 20
1.581360
  0
SEQEND
  8
0
  0
SOLID
  8
0
 62
    15
 10
4.782800
 20
1.539560
 11
4.786320
 21
2.284040
 12
4.865080
 22
1.506560
 13
4.868160
 23
2.251040
  0
POLYLINE
  8
0
  6
CONTINUOUS
 66
     1
 40
0.000000
 41
0.000000
  0
VERTEX
  8
0
  6
CONTINUOUS
 10
4.782800
 20
1.539560
  0
VERTEX
  8
0
  6
CONTINUOUS
 10
4.786320
 20
2.284040
  0
VERTEX
  8
0
  6
CONTINUOUS
 10
4.868160
 20
2.251040
  0
VERTEX
  8
0
  6
CONTINUOUS
 10
4.865080
 20
1.506560
  0
VERTEX
  8
0
  6
CONTINUOUS
 10
4.782800
 20
1.539560
  0
SEQEND
  8
0
  0
SOLID
  8
0
 62
    15
 10
4.865080
 20
1.506560
 11
4.868160
 21
2.251040
 12
4.938560
 22
1.482360
 13
4.942080
 23
2.226840
  0
POLYLINE
  8
0
  6
CONTINUOUS
 66
     1
 40
0.000000
 41
0.000000
  0
VERTEX
  8
0
  6
CONTINUOUS
 10
4.865080
 20
1.506560
  0
VERTEX
  8
0
  6
CONTINUOUS
 10
4.868160
 20
2.251040
  0
VERTEX
  8
0
  6
CONTINUOUS
 10
4.942080
 20
2.226840
  0
VERTEX
  8
0
  6
CONTINUOUS
 10
4.938560
 20
1.482360
  0
VERTEX
  8
0
  6
CONTINUOUS
 10
4.865080
 20
1.506560
  0
SEQEND
  8
0
  0
SOLID
  8
0
 62
    15
 10
4.938560
 20
1.482360
 11
4.942080
 21
2.226840
 12
5.005440
 22
1.464760
 13
5.008960
 23
2.209240
  0
POLYLINE
  8
0
  6
CONTINUOUS
 66
     1
 40
0.000000
 41
0.000000
  0
VERTEX
  8
0
  6
CONTINUOUS
 10
4.938560
 20
1.482360
  0
VERTEX
  8
0
  6
CONTINUOUS
 10
4.942080
 20
2.226840
  0
VERTEX
  8
0
  6
CONTINUOUS
 10
5.008960
 20
2.209240
  0
VERTEX
  8
0
  6
CONTINUOUS
 10
5.005440
 20
1.464760
  0
VERTEX
  8
0
  6
CONTINUOUS
 10
4.938560
 20
1.482360
  0
SEQEND
  8
0
  0
SOLID
  8
0
 62
    15
 10
5.005440
 20
1.464760
 11
5.008960
 21
2.209240
 12
5.066600
 22
1.453320
 13
5.069680
 23
2.197800
  0
POLYLINE
  8
0
  6
CONTINUOUS
 66
     1
 40
0.000000
 41
0.000000
  0
VERTEX
  8
0
  6
CONTINUOUS
 10
5.005440
 20
1.464760
  0
VERTEX
  8
0
  6
CONTINUOUS
 10
5.008960
 20
2.209240
  0
VERTEX
  8
0
  6
CONTINUOUS
 10
5.069680
 20
2.197800
  0
VERTEX
  8
0
  6
CONTINUOUS
 10
5.066600
 20
1.453320
  0
VERTEX
  8
0
  6
CONTINUOUS
 10
5.005440
 20
1.464760
  0
SEQEND
  8
0
  0
SOLID
  8
0
 62
    15
 10
5.066600
 20
1.453320
 11
5.069680
 21
2.197800
 12
5.122920
 22
1.447160
 13
5.126000
 23
2.191200
  0
POLYLINE
  8
0
  6
CONTINUOUS
 66
     1
 40
0.000000
 41
0.000000
  0
VERTEX
  8
0
  6
CONTINUOUS
 10
5.066600
 20
1.453320
  0
VERTEX
  8
0
  6
CONTINUOUS
 10
5.069680
 20
2.197800
  0
VERTEX
  8
0
  6
CONTINUOUS
 10
5.126000
 20
2.191200
  0
VERTEX
  8
0
  6
CONTINUOUS
 10
5.122920
 20
1.447160
  0
VERTEX
  8
0
  6
CONTINUOUS
 10
5.066600
 20
1.453320
  0
SEQEND
  8
0
  0
SOLID
  8
0
 62
    15
 10
5.122920
 20
1.447160
 11
5.126000
 21
2.191200
 12
5.175720
 22
1.444080
 13
5.179240
 23
2.188560
  0
POLYLINE
  8
0
  6
CONTINUOUS
 66
     1
 40
0.000000
 41
0.000000
  0
VERTEX
  8
0
  6
CONTINUOUS
 10
5.122920
 20
1.447160
  0
VERTEX
  8
0
  6
CONTINUOUS
 10
5.126000
 20
2.191200
  0
VERTEX
  8
0
  6
CONTINUOUS
 10
5.179240
 20
2.188560
  0
VERTEX
  8
0
  6
CONTINUOUS
 10
5.175720
 20
1.444080
  0
VERTEX
  8
0
  6
CONTINUOUS
 10
5.122920
 20
1.447160
  0
SEQEND
  8
0
  0
SOLID
  8
0
 62
    15
 10
5.175720
 20
1.444080
 11
5.179240
 21
2.188560
 12
5.183640
 22
1.470920
 13
5.187160
 23
2.215400
  0
POLYLINE
  8
0
  6
CONTINUOUS
 66
     1
 40
0.000000
 41
0.000000
  0
VERTEX
  8
0
  6
CONTINUOUS
 10
5.175720
 20
1.444080
  0
VERTEX
  8
0
  6
CONTINUOUS
 10
5.179240
 20
2.188560
  0
VERTEX
  8
0
  6
CONTINUOUS
 10
5.187160
 20
2.215400
  0
VERTEX
  8
0
  6
CONTINUOUS
 10
5.183640
 20
1.470920
  0
VERTEX
  8
0
  6
CONTINUOUS
 10
5.175720
 20
1.444080
  0
SEQEND
  8
0
  0
SOLID
  8
0
 62
    15
 10
5.183640
 20
1.470920
 11
5.187160
 21
2.215400
 12
5.193320
 22
1.494240
 13
5.196840
 23
2.238720
  0
POLYLINE
  8
0
  6
CONTINUOUS
 66
     1
 40
0.000000
 41
0.000000
  0
VERTEX
  8
0
  6
CONTINUOUS
 10
5.183640
 20
1.470920
  0
VERTEX
  8
0
  6
CONTINUOUS
 10
5.187160
 20
2.215400
  0
VERTEX
  8
0
  6
CONTINUOUS
 10
5.196840
 20
2.238720
  0
VERTEX
  8
0
  6
CONTINUOUS
 10
5.193320
 20
1.494240
  0
VERTEX
  8
0
  6
CONTINUOUS
 10
5.183640
 20
1.470920
  0
SEQEND
  8
0
  0
SOLID
  8
0
 62
    15
 10
5.193320
 20
1.494240
 11
5.196840
 21
2.238720
 12
5.204320
 22
1.513600
 13
5.207840
 23
2.258080
  0
POLYLINE
  8
0
  6
CONTINUOUS
 66
     1
 40
0.000000
 41
0.000000
  0
VERTEX
  8
0
  6
CONTINUOUS
 10
5.193320
 20
1.494240
  0
VERTEX
  8
0
  6
CONTINUOUS
 10
5.196840
 20
2.238720
  0
VERTEX
  8
0
  6
CONTINUOUS
 10
5.207840
 20
2.258080
  0
VERTEX
  8
0
  6
CONTINUOUS
 10
5.204320
 20
1.513600
  0
VERTEX
  8
0
  6
CONTINUOUS
 10
5.193320
 20
1.494240
  0
SEQEND
  8
0
  0
SOLID
  8
0
 62
    15
 10
5.204320
 20
1.513600
 11
5.207840
 21
2.258080
 12
5.217080
 22
1.529000
 13
5.220160
 23
2.273480
  0
POLYLINE
  8
0
  6
CONTINUOUS
 66
     1
 40
0.000000
 41
0.000000
  0
VERTEX
  8
0
  6
CONTINUOUS
 10
5.204320
 20
1.513600
  0
VERTEX
  8
0
  6
CONTINUOUS
 10
5.207840
 20
2.258080
  0
VERTEX
  8
0
  6
CONTINUOUS
 10
5.220160
 20
2.273480
  0
VERTEX
  8
0
  6
CONTINUOUS
 10
5.217080
 20
1.529000
  0
VERTEX
  8
0
  6
CONTINUOUS
 10
5.204320
 20
1.513600
  0
SEQEND
  8
0
  0
SOLID
  8
0
 62
    15
 10
5.217080
 20
1.529000
 11
5.220160
 21
2.273480
 12
5.244360
 22
1.550120
 13
5.247880
 23
2.294600
  0
POLYLINE
  8
0
  6
CONTINUOUS
 66
     1
 40
0.000000
 41
0.000000
  0
VERTEX
  8
0
  6
CONTINUOUS
 10
5.217080
 20
1.529000
  0
VERTEX
  8
0
  6
CONTINUOUS
 10
5.220160
 20
2.273480
  0
VERTEX
  8
0
  6
CONTINUOUS
 10
5.247880
 20
2.294600
  0
VERTEX
  8
0
  6
CONTINUOUS
 10
5.244360
 20
1.550120
  0
VERTEX
  8
0
  6
CONTINUOUS
 10
5.217080
 20
1.529000
  0
SEQEND
  8
0
  0
SOLID
  8
0
 62
    15
 10
5.244360
 20
1.550120
 11
5.247880
 21
2.294600
 12
5.273400
 22
1.557600
 13
5.276480
 23
2.302080
  0
POLYLINE
  8
0
  6
CONTINUOUS
 66
     1
 40
0.000000
 41
0.000000
  0
VERTEX
  8
0
  6
CONTINUOUS
 10
5.244360
 20
1.550120
  0
VERTEX
  8
0
  6
CONTINUOUS
 10
5.247880
 20
2.294600
  0
VERTEX
  8
0
  6
CONTINUOUS
 10
5.276480
 20
2.302080
  0
VERTEX
  8
0
  6
CONTINUOUS
 10
5.273400
 20
1.557600
  0
VERTEX
  8
0
  6
CONTINUOUS
 10
5.244360
 20
1.550120
  0
SEQEND
  8
0
  0
SOLID
  8
0
 62
    15
 10
3.834600
 20
1.681680
 11
3.838120
 21
2.426160
 12
3.855720
 22
1.719080
 13
3.859240
 23
2.463560
  0
POLYLINE
  8
0
  6
CONTINUOUS
 66
     1
 40
0.000000
 41
0.000000
  0
VERTEX
  8
0
  6
CONTINUOUS
 10
3.834600
 20
1.681680
  0
VERTEX
  8
0
  6
CONTINUOUS
 10
3.838120
 20
2.426160
  0
VERTEX
  8
0
  6
CONTINUOUS
 10
3.859240
 20
2.463560
  0
VERTEX
  8
0
  6
CONTINUOUS
 10
3.855720
 20
1.719080
  0
VERTEX
  8
0
  6
CONTINUOUS
 10
3.834600
 20
1.681680
  0
SEQEND
  8
0
  0
SOLID
  8
0
 62
    15
 10
5.301560
 20
1.553200
 11
5.305080
 21
2.297680
 12
5.327080
 22
1.537800
 13
5.330600
 23
2.281840
  0
POLYLINE
  8
0
  6
CONTINUOUS
 66
     1
 40
0.000000
 41
0.000000
  0
VERTEX
  8
0
  6
CONTINUOUS
 10
5.301560
 20
1.553200
  0
VERTEX
  8
0
  6
CONTINUOUS
 10
5.305080
 20
2.297680
  0
VERTEX
  8
0
  6
CONTINUOUS
 10
5.330600
 20
2.281840
  0
VERTEX
  8
0
  6
CONTINUOUS
 10
5.327080
 20
1.537800
  0
VERTEX
  8
0
  6
CONTINUOUS
 10
5.301560
 20
1.553200
  0
SEQEND
  8
0
  0
SOLID
  8
0
 62
    15
 10
5.327080
 20
1.537800
 11
5.330600
 21
2.281840
 12
5.347320
 22
1.511400
 13
5.350840
 23
2.255880
  0
POLYLINE
  8
0
  6
CONTINUOUS
 66
     1
 40
0.000000
 41
0.000000
  0
VERTEX
  8
0
  6
CONTINUOUS
 10
5.327080
 20
1.537800
  0
VERTEX
  8
0
  6
CONTINUOUS
 10
5.330600
 20
2.281840
  0
VERTEX
  8
0
  6
CONTINUOUS
 10
5.350840
 20
2.255880
  0
VERTEX
  8
0
  6
CONTINUOUS
 10
5.347320
 20
1.511400
  0
VERTEX
  8
0
  6
CONTINUOUS
 10
5.327080
 20
1.537800
  0
SEQEND
  8
0
  0
SOLID
  8
0
 62
    15
 10
5.347320
 20
1.511400
 11
5.350840
 21
2.255880
 12
5.360080
 22
1.476200
 13
5.363600
 23
2.220680
  0
POLYLINE
  8
0
  6
CONTINUOUS
 66
     1
 40
0.000000
 41
0.000000
  0
VERTEX
  8
0
  6
CONTINUOUS
 10
5.347320
 20
1.511400
  0
VERTEX
  8
0
  6
CONTINUOUS
 10
5.350840
 20
2.255880
  0
VERTEX
  8
0
  6
CONTINUOUS
 10
5.363600
 20
2.220680
  0
VERTEX
  8
0
  6
CONTINUOUS
 10
5.360080
 20
1.476200
  0
VERTEX
  8
0
  6
CONTINUOUS
 10
5.347320
 20
1.511400
  0
SEQEND
  8
0
  0
SOLID
  8
0
 62
    15
 10
5.360080
 20
1.476200
 11
5.363600
 21
2.220680
 12
5.424320
 22
1.476200
 13
5.427840
 23
2.220680
  0
POLYLINE
  8
0
  6
CONTINUOUS
 66
     1
 40
0.000000
 41
0.000000
  0
VERTEX
  8
0
  6
CONTINUOUS
 10
5.360080
 20
1.476200
  0
VERTEX
  8
0
  6
CONTINUOUS
 10
5.363600
 20
2.220680
  0
VERTEX
  8
0
  6
CONTINUOUS
 10
5.427840
 20
2.220680
  0
VERTEX
  8
0
  6
CONTINUOUS
 10
5.424320
 20
1.476200
  0
VERTEX
  8
0
  6
CONTINUOUS
 10
5.360080
 20
1.476200
  0
SEQEND
  8
0
  0
SOLID
  8
0
 62
    15
 10
5.424320
 20
1.476200
 11
5.427840
 21
2.220680
 12
5.449840
 22
1.376760
 13
5.453360
 23
2.121240
  0
POLYLINE
  8
0
  6
CONTINUOUS
 66
     1
 40
0.000000
 41
0.000000
  0
VERTEX
  8
0
  6
CONTINUOUS
 10
5.424320
 20
1.476200
  0
VERTEX
  8
0
  6
CONTINUOUS
 10
5.427840
 20
2.220680
  0
VERTEX
  8
0
  6
CONTINUOUS
 10
5.453360
 20
2.121240
  0
VERTEX
  8
0
  6
CONTINUOUS
 10
5.449840
 20
1.376760
  0
VERTEX
  8
0
  6
CONTINUOUS
 10
5.424320
 20
1.476200
  0
SEQEND
  8
0
  0
SOLID
  8
0
 62
    15
 10
6.754880
 20
1.279520
 11
6.757960
 21
2.024000
 12
6.825280
 22
1.279520
 13
6.828800
 23
2.024000
  0
POLYLINE
  8
0
  6
CONTINUOUS
 66
     1
 40
0.000000
 41
0.000000
  0
VERTEX
  8
0
  6
CONTINUOUS
 10
6.754880
 20
1.279520
  0
VERTEX
  8
0
  6
CONTINUOUS
 10
6.757960
 20
2.024000
  0
VERTEX
  8
0
  6
CONTINUOUS
 10
6.828800
 20
2.024000
  0
VERTEX
  8
0
  6
CONTINUOUS
 10
6.825280
 20
1.279520
  0
VERTEX
  8
0
  6
CONTINUOUS
 10
6.754880
 20
1.279520
  0
SEQEND
  8
0
  0
SOLID
  8
0
 62
    15
 10
6.734640
 20
1.376760
 11
6.738160
 21
2.121240
 12
6.754880
 22
1.279520
 13
6.757960
 23
2.024000
  0
POLYLINE
  8
0
  6
CONTINUOUS
 66
     1
 40
0.000000
 41
0.000000
  0
VERTEX
  8
0
  6
CONTINUOUS
 10
6.734640
 20
1.376760
  0
VERTEX
  8
0
  6
CONTINUOUS
 10
6.738160
 20
2.121240
  0
VERTEX
  8
0
  6
CONTINUOUS
 10
6.757960
 20
2.024000
  0
VERTEX
  8
0
  6
CONTINUOUS
 10
6.754880
 20
1.279520
  0
VERTEX
  8
0
  6
CONTINUOUS
 10
6.734640
 20
1.376760
  0
SEQEND
  8
0
  0
SOLID
  8
0
 62
    15
 10
5.449840
 20
1.376760
 11
5.453360
 21
2.121240
 12
6.734640
 22
1.376760
 13
6.738160
 23
2.121240
  0
POLYLINE
  8
0
  6
CONTINUOUS
 66
     1
 40
0.000000
 41
0.000000
  0
VERTEX
  8
0
  6
CONTINUOUS
 10
5.449840
 20
1.376760
  0
VERTEX
  8
0
  6
CONTINUOUS
 10
5.453360
 20
2.121240
  0
VERTEX
  8
0
  6
CONTINUOUS
 10
6.738160
 20
2.121240
  0
VERTEX
  8
0
  6
CONTINUOUS
 10
6.734640
 20
1.376760
  0
VERTEX
  8
0
  6
CONTINUOUS
 10
5.449840
 20
1.376760
  0
SEQEND
  8
0
  0
SOLID
  8
0
 62
    15
 10
6.825280
 20
1.279520
 11
6.828800
 21
2.024000
 12
6.834520
 22
1.310760
 13
6.838040
 23
2.055240
  0
POLYLINE
  8
0
  6
CONTINUOUS
 66
     1
 40
0.000000
 41
0.000000
  0
VERTEX
  8
0
  6
CONTINUOUS
 10
6.825280
 20
1.279520
  0
VERTEX
  8
0
  6
CONTINUOUS
 10
6.828800
 20
2.024000
  0
VERTEX
  8
0
  6
CONTINUOUS
 10
6.838040
 20
2.055240
  0
VERTEX
  8
0
  6
CONTINUOUS
 10
6.834520
 20
1.310760
  0
VERTEX
  8
0
  6
CONTINUOUS
 10
6.825280
 20
1.279520
  0
SEQEND
  8
0
  0
SOLID
  8
0
 62
    15
 10
6.834520
 20
1.310760
 11
6.838040
 21
2.055240
 12
6.848160
 22
1.337600
 13
6.851680
 23
2.081640
  0
POLYLINE
  8
0
  6
CONTINUOUS
 66
     1
 40
0.000000
 41
0.000000
  0
VERTEX
  8
0
  6
CONTINUOUS
 10
6.834520
 20
1.310760
  0
VERTEX
  8
0
  6
CONTINUOUS
 10
6.838040
 20
2.055240
  0
VERTEX
  8
0
  6
CONTINUOUS
 10
6.851680
 20
2.081640
  0
VERTEX
  8
0
  6
CONTINUOUS
 10
6.848160
 20
1.337600
  0
VERTEX
  8
0
  6
CONTINUOUS
 10
6.834520
 20
1.310760
  0
SEQEND
  8
0
  0
SOLID
  8
0
 62
    15
 10
6.848160
 20
1.337600
 11
6.851680
 21
2.081640
 12
6.865760
 22
1.360040
 13
6.869280
 23
2.104520
  0
POLYLINE
  8
0
  6
CONTINUOUS
 66
     1
 40
0.000000
 41
0.000000
  0
VERTEX
  8
0
  6
CONTINUOUS
 10
6.848160
 20
1.337600
  0
VERTEX
  8
0
  6
CONTINUOUS
 10
6.851680
 20
2.081640
  0
VERTEX
  8
0
  6
CONTINUOUS
 10
6.869280
 20
2.104520
  0
VERTEX
  8
0
  6
CONTINUOUS
 10
6.865760
 20
1.360040
  0
VERTEX
  8
0
  6
CONTINUOUS
 10
6.848160
 20
1.337600
  0
SEQEND
  8
0
  0
SOLID
  8
0
 62
    15
 10
6.865760
 20
1.360040
 11
6.869280
 21
2.104520
 12
6.886880
 22
1.378520
 13
6.890400
 23
2.123000
  0
POLYLINE
  8
0
  6
CONTINUOUS
 66
     1
 40
0.000000
 41
0.000000
  0
VERTEX
  8
0
  6
CONTINUOUS
 10
6.865760
 20
1.360040
  0
VERTEX
  8
0
  6
CONTINUOUS
 10
6.869280
 20
2.104520
  0
VERTEX
  8
0
  6
CONTINUOUS
 10
6.890400
 20
2.123000
  0
VERTEX
  8
0
  6
CONTINUOUS
 10
6.886880
 20
1.378520
  0
VERTEX
  8
0
  6
CONTINUOUS
 10
6.865760
 20
1.360040
  0
SEQEND
  8
0
  0
SOLID
  8
0
 62
    15
 10
6.886880
 20
1.378520
 11
6.890400
 21
2.123000
 12
6.910200
 22
1.392600
 13
6.913720
 23
2.137080
  0
POLYLINE
  8
0
  6
CONTINUOUS
 66
     1
 40
0.000000
 41
0.000000
  0
VERTEX
  8
0
  6
CONTINUOUS
 10
6.886880
 20
1.378520
  0
VERTEX
  8
0
  6
CONTINUOUS
 10
6.890400
 20
2.123000
  0
VERTEX
  8
0
  6
CONTINUOUS
 10
6.913720
 20
2.137080
  0
VERTEX
  8
0
  6
CONTINUOUS
 10
6.910200
 20
1.392600
  0
VERTEX
  8
0
  6
CONTINUOUS
 10
6.886880
 20
1.378520
  0
SEQEND
  8
0
  0
SOLID
  8
0
 62
    15
 10
6.910200
 20
1.392600
 11
6.913720
 21
2.137080
 12
6.935280
 22
1.402720
 13
6.938800
 23
2.147200
  0
POLYLINE
  8
0
  6
CONTINUOUS
 66
     1
 40
0.000000
 41
0.000000
  0
VERTEX
  8
0
  6
CONTINUOUS
 10
6.910200
 20
1.392600
  0
VERTEX
  8
0
  6
CONTINUOUS
 10
6.913720
 20
2.137080
  0
VERTEX
  8
0
  6
CONTINUOUS
 10
6.938800
 20
2.147200
  0
VERTEX
  8
0
  6
CONTINUOUS
 10
6.935280
 20
1.402720
  0
VERTEX
  8
0
  6
CONTINUOUS
 10
6.910200
 20
1.392600
  0
SEQEND
  8
0
  0
SOLID
  8
0
 62
    15
 10
6.935280
 20
1.402720
 11
6.938800
 21
2.147200
 12
6.961240
 22
1.408440
 13
6.964760
 23
2.152920
  0
POLYLINE
  8
0
  6
CONTINUOUS
 66
     1
 40
0.000000
 41
0.000000
  0
VERTEX
  8
0
  6
CONTINUOUS
 10
6.935280
 20
1.402720
  0
VERTEX
  8
0
  6
CONTINUOUS
 10
6.938800
 20
2.147200
  0
VERTEX
  8
0
  6
CONTINUOUS
 10
6.964760
 20
2.152920
  0
VERTEX
  8
0
  6
CONTINUOUS
 10
6.961240
 20
1.408440
  0
VERTEX
  8
0
  6
CONTINUOUS
 10
6.935280
 20
1.402720
  0
SEQEND
  8
0
  0
SOLID
  8
0
 62
    15
 10
6.961240
 20
1.408440
 11
6.964760
 21
2.152920
 12
6.987640
 22
1.410200
 13
6.991160
 23
2.154680
  0
POLYLINE
  8
0
  6
CONTINUOUS
 66
     1
 40
0.000000
 41
0.000000
  0
VERTEX
  8
0
  6
CONTINUOUS
 10
6.961240
 20
1.408440
  0
VERTEX
  8
0
  6
CONTINUOUS
 10
6.964760
 20
2.152920
  0
VERTEX
  8
0
  6
CONTINUOUS
 10
6.991160
 20
2.154680
  0
VERTEX
  8
0
  6
CONTINUOUS
 10
6.987640
 20
1.410200
  0
VERTEX
  8
0
  6
CONTINUOUS
 10
6.961240
 20
1.408440
  0
SEQEND
  8
0
  0
SOLID
  8
0
 62
    15
 10
6.987640
 20
1.410200
 11
6.991160
 21
2.154680
 12
7.013600
 22
1.408000
 13
7.017120
 23
2.152480
  0
POLYLINE
  8
0
  6
CONTINUOUS
 66
     1
 40
0.000000
 41
0.000000
  0
VERTEX
  8
0
  6
CONTINUOUS
 10
6.987640
 20
1.410200
  0
VERTEX
  8
0
  6
CONTINUOUS
 10
6.991160
 20
2.154680
  0
VERTEX
  8
0
  6
CONTINUOUS
 10
7.017120
 20
2.152480
  0
VERTEX
  8
0
  6
CONTINUOUS
 10
7.013600
 20
1.408000
  0
VERTEX
  8
0
  6
CONTINUOUS
 10
6.987640
 20
1.410200
  0
SEQEND
  8
0
  0
SOLID
  8
0
 62
    15
 10
7.013600
 20
1.408000
 11
7.017120
 21
2.152480
 12
7.038680
 22
1.401400
 13
7.041760
 23
2.145880
  0
POLYLINE
  8
0
  6
CONTINUOUS
 66
     1
 40
0.000000
 41
0.000000
  0
VERTEX
  8
0
  6
CONTINUOUS
 10
7.013600
 20
1.408000
  0
VERTEX
  8
0
  6
CONTINUOUS
 10
7.017120
 20
2.152480
  0
VERTEX
  8
0
  6
CONTINUOUS
 10
7.041760
 20
2.145880
  0
VERTEX
  8
0
  6
CONTINUOUS
 10
7.038680
 20
1.401400
  0
VERTEX
  8
0
  6
CONTINUOUS
 10
7.013600
 20
1.408000
  0
SEQEND
  8
0
  0
SOLID
  8
0
 62
    15
 10
7.038680
 20
1.401400
 11
7.041760
 21
2.145880
 12
7.061560
 22
1.390840
 13
7.065080
 23
2.135320
  0
POLYLINE
  8
0
  6
CONTINUOUS
 66
     1
 40
0.000000
 41
0.000000
  0
VERTEX
  8
0
  6
CONTINUOUS
 10
7.038680
 20
1.401400
  0
VERTEX
  8
0
  6
CONTINUOUS
 10
7.041760
 20
2.145880
  0
VERTEX
  8
0
  6
CONTINUOUS
 10
7.065080
 20
2.135320
  0
VERTEX
  8
0
  6
CONTINUOUS
 10
7.061560
 20
1.390840
  0
VERTEX
  8
0
  6
CONTINUOUS
 10
7.038680
 20
1.401400
  0
SEQEND
  8
0
  0
SOLID
  8
0
 62
    15
 10
7.061560
 20
1.390840
 11
7.065080
 21
2.135320
 12
7.081800
 22
1.376320
 13
7.085320
 23
2.120800
  0
POLYLINE
  8
0
  6
CONTINUOUS
 66
     1
 40
0.000000
 41
0.000000
  0
VERTEX
  8
0
  6
CONTINUOUS
 10
7.061560
 20
1.390840
  0
VERTEX
  8
0
  6
CONTINUOUS
 10
7.065080
 20
2.135320
  0
VERTEX
  8
0
  6
CONTINUOUS
 10
7.085320
 20
2.120800
  0
VERTEX
  8
0
  6
CONTINUOUS
 10
7.081800
 20
1.376320
  0
VERTEX
  8
0
  6
CONTINUOUS
 10
7.061560
 20
1.390840
  0
SEQEND
  8
0
  0
SOLID
  8
0
 62
    15
 10
7.081800
 20
1.376320
 11
7.085320
 21
2.120800
 12
7.098960
 22
1.357400
 13
7.102480
 23
2.101880
  0
POLYLINE
  8
0
  6
CONTINUOUS
 66
     1
 40
0.000000
 41
0.000000
  0
VERTEX
  8
0
  6
CONTINUOUS
 10
7.081800
 20
1.376320
  0
VERTEX
  8
0
  6
CONTINUOUS
 10
7.085320
 20
2.120800
  0
VERTEX
  8
0
  6
CONTINUOUS
 10
7.102480
 20
2.101880
  0
VERTEX
  8
0
  6
CONTINUOUS
 10
7.098960
 20
1.357400
  0
VERTEX
  8
0
  6
CONTINUOUS
 10
7.081800
 20
1.376320
  0
SEQEND
  8
0
  0
SOLID
  8
0
 62
    15
 10
7.098960
 20
1.357400
 11
7.102480
 21
2.101880
 12
7.112160
 22
1.334520
 13
7.115680
 23
2.079000
  0
POLYLINE
  8
0
  6
CONTINUOUS
 66
     1
 40
0.000000
 41
0.000000
  0
VERTEX
  8
0
  6
CONTINUOUS
 10
7.098960
 20
1.357400
  0
VERTEX
  8
0
  6
CONTINUOUS
 10
7.102480
 20
2.101880
  0
VERTEX
  8
0
  6
CONTINUOUS
 10
7.115680
 20
2.079000
  0
VERTEX
  8
0
  6
CONTINUOUS
 10
7.112160
 20
1.334520
  0
VERTEX
  8
0
  6
CONTINUOUS
 10
7.098960
 20
1.357400
  0
SEQEND
  8
0
  0
SOLID
  8
0
 62
    15
 10
7.120520
 20
1.307680
 11
7.124040
 21
2.051720
 12
7.123600
 22
1.276440
 13
7.127120
 23
2.020920
  0
POLYLINE
  8
0
  6
CONTINUOUS
 66
     1
 40
0.000000
 41
0.000000
  0
VERTEX
  8
0
  6
CONTINUOUS
 10
7.120520
 20
1.307680
  0
VERTEX
  8
0
  6
CONTINUOUS
 10
7.124040
 20
2.051720
  0
VERTEX
  8
0
  6
CONTINUOUS
 10
7.127120
 20
2.020920
  0
VERTEX
  8
0
  6
CONTINUOUS
 10
7.123600
 20
1.276440
  0
VERTEX
  8
0
  6
CONTINUOUS
 10
7.120520
 20
1.307680
  0
SEQEND
  8
0
  0
SOLID
  8
0
 62
    15
 10
7.112160
 20
1.334520
 11
7.115680
 21
2.079000
 12
7.120520
 22
1.307680
 13
7.124040
 23
2.051720
  0
POLYLINE
  8
0
  6
CONTINUOUS
 66
     1
 40
0.000000
 41
0.000000
  0
VERTEX
  8
0
  6
CONTINUOUS
 10
7.112160
 20
1.334520
  0
VERTEX
  8
0
  6
CONTINUOUS
 10
7.115680
 20
2.079000
  0
VERTEX
  8
0
  6
CONTINUOUS
 10
7.124040
 20
2.051720
  0
VERTEX
  8
0
  6
CONTINUOUS
 10
7.120520
 20
1.307680
  0
VERTEX
  8
0
  6
CONTINUOUS
 10
7.112160
 20
1.334520
  0
SEQEND
  8
0
  0
SOLID
  8
0
 62
    15
 10
7.123600
 20
1.276440
 11
7.127120
 21
2.020920
 12
7.123600
 22
1.006720
 13
7.127120
 23
1.751200
  0
POLYLINE
  8
0
  6
CONTINUOUS
 66
     1
 40
0.000000
 41
0.000000
  0
VERTEX
  8
0
  6
CONTINUOUS
 10
7.123600
 20
1.276440
  0
VERTEX
  8
0
  6
CONTINUOUS
 10
7.127120
 20
2.020920
  0
VERTEX
  8
0
  6
CONTINUOUS
 10
7.127120
 20
1.751200
  0
VERTEX
  8
0
  6
CONTINUOUS
 10
7.123600
 20
1.006720
  0
VERTEX
  8
0
  6
CONTINUOUS
 10
7.123600
 20
1.276440
  0
SEQEND
  8
0
  0
SOLID
  8
0
 62
    15
 10
3.318040
 20
1.815440
 11
3.321560
 21
2.559920
 12
3.754960
 22
1.815440
 13
3.758480
 23
2.559920
  0
POLYLINE
  8
0
  6
CONTINUOUS
 66
     1
 40
0.000000
 41
0.000000
  0
VERTEX
  8
0
  6
CONTINUOUS
 10
3.318040
 20
1.815440
  0
VERTEX
  8
0
  6
CONTINUOUS
 10
3.321560
 20
2.559920
  0
VERTEX
  8
0
  6
CONTINUOUS
 10
3.758480
 20
2.559920
  0
VERTEX
  8
0
  6
CONTINUOUS
 10
3.754960
 20
1.815440
  0
VERTEX
  8
0
  6
CONTINUOUS
 10
3.318040
 20
1.815440
  0
SEQEND
  8
0
  0
SOLID
  8
0
 62
    15
 10
3.754960
 20
1.815440
 11
3.758480
 21
2.559920
 12
3.777400
 22
1.681240
 13
3.780480
 23
2.425720
  0
POLYLINE
  8
0
  6
CONTINUOUS
 66
     1
 40
0.000000
 41
0.000000
  0
VERTEX
  8
0
  6
CONTINUOUS
 10
3.754960
 20
1.815440
  0
VERTEX
  8
0
  6
CONTINUOUS
 10
3.758480
 20
2.559920
  0
VERTEX
  8
0
  6
CONTINUOUS
 10
3.780480
 20
2.425720
  0
VERTEX
  8
0
  6
CONTINUOUS
 10
3.777400
 20
1.681240
  0
VERTEX
  8
0
  6
CONTINUOUS
 10
3.754960
 20
1.815440
  0
SEQEND
  8
0
  0
SOLID
  8
0
 62
    15
 10
3.777400
 20
1.681240
 11
3.780480
 21
2.425720
 12
3.834600
 22
1.681680
 13
3.838120
 23
2.426160
  0
POLYLINE
  8
0
  6
CONTINUOUS
 66
     1
 40
0.000000
 41
0.000000
  0
VERTEX
  8
0
  6
CONTINUOUS
 10
3.777400
 20
1.681240
  0
VERTEX
  8
0
  6
CONTINUOUS
 10
3.780480
 20
2.425720
  0
VERTEX
  8
0
  6
CONTINUOUS
 10
3.838120
 20
2.426160
  0
VERTEX
  8
0
  6
CONTINUOUS
 10
3.834600
 20
1.681680
  0
VERTEX
  8
0
  6
CONTINUOUS
 10
3.777400
 20
1.681240
  0
SEQEND
  8
0
  0
POLYLINE
  8
0
  6
CONTINUOUS
 66
     1
 40
0.000000
 41
0.000000
  0
VERTEX
  8
0
  6
CONTINUOUS
 10
3.834600
 20
1.681680
  0
VERTEX
  8
0
  6
CONTINUOUS
 10
3.855720
 20
1.719080
  0
VERTEX
  8
0
  6
CONTINUOUS
 10
3.883000
 20
1.749440
  0
VERTEX
  8
0
  6
CONTINUOUS
 10
3.915120
 20
1.772760
  0
VERTEX
  8
0
  6
CONTINUOUS
 10
3.952520
 20
1.789040
  0
VERTEX
  8
0
  6
CONTINUOUS
 10
3.993880
 20
1.799600
  0
VERTEX
  8
0
  6
CONTINUOUS
 10
4.039200
 20
1.804440
  0
VERTEX
  8
0
  6
CONTINUOUS
 10
4.088040
 20
1.804000
  0
VERTEX
  8
0
  6
CONTINUOUS
 10
4.139520
 20
1.798280
  0
VERTEX
  8
0
  6
CONTINUOUS
 10
4.193200
 20
1.788600
  0
VERTEX
  8
0
  6
CONTINUOUS
 10
4.248640
 20
1.774960
  0
VERTEX
  8
0
  6
CONTINUOUS
 10
4.362600
 20
1.737120
  0
VERTEX
  8
0
  6
CONTINUOUS
 10
4.477000
 20
1.688720
  0
VERTEX
  8
0
  6
CONTINUOUS
 10
4.691280
 20
1.581360
  0
VERTEX
  8
0
  6
CONTINUOUS
 10
4.782800
 20
1.539560
  0
VERTEX
  8
0
  6
CONTINUOUS
 10
4.865080
 20
1.506560
  0
VERTEX
  8
0
  6
CONTINUOUS
 10
4.938560
 20
1.482360
  0
VERTEX
  8
0
  6
CONTINUOUS
 10
5.005440
 20
1.464760
  0
VERTEX
  8
0
  6
CONTINUOUS
 10
5.066600
 20
1.453320
  0
VERTEX
  8
0
  6
CONTINUOUS
 10
5.122920
 20
1.447160
  0
VERTEX
  8
0
  6
CONTINUOUS
 10
5.175720
 20
1.444080
  0
VERTEX
  8
0
  6
CONTINUOUS
 10
5.183640
 20
1.470920
  0
VERTEX
  8
0
  6
CONTINUOUS
 10
5.193320
 20
1.494240
  0
VERTEX
  8
0
  6
CONTINUOUS
 10
5.204320
 20
1.513600
  0
VERTEX
  8
0
  6
CONTINUOUS
 10
5.217080
 20
1.529000
  0
VERTEX
  8
0
  6
CONTINUOUS
 10
5.244360
 20
1.550120
  0
VERTEX
  8
0
  6
CONTINUOUS
 10
5.273400
 20
1.557600
  0
VERTEX
  8
0
  6
CONTINUOUS
 10
5.301560
 20
1.553200
  0
VERTEX
  8
0
  6
CONTINUOUS
 10
5.327080
 20
1.537800
  0
VERTEX
  8
0
  6
CONTINUOUS
 10
5.347320
 20
1.511400
  0
VERTEX
  8
0
  6
CONTINUOUS
 10
5.360080
 20
1.476200
  0
VERTEX
  8
0
  6
CONTINUOUS
 10
5.424320
 20
1.476200
  0
VERTEX
  8
0
  6
CONTINUOUS
 10
5.449840
 20
1.376760
  0
VERTEX
  8
0
  6
CONTINUOUS
 10
6.734640
 20
1.376760
  0
VERTEX
  8
0
  6
CONTINUOUS
 10
6.754880
 20
1.279520
  0
VERTEX
  8
0
  6
CONTINUOUS
 10
6.825280
 20
1.279520
  0
VERTEX
  8
0
  6
CONTINUOUS
 10
6.834520
 20
1.310760
  0
VERTEX
  8
0
  6
CONTINUOUS
 10
6.848160
 20
1.337600
  0
VERTEX
  8
0
  6
CONTINUOUS
 10
6.865760
 20
1.360040
  0
VERTEX
  8
0
  6
CONTINUOUS
 10
6.886880
 20
1.378520
  0
VERTEX
  8
0
  6
CONTINUOUS
 10
6.910200
 20
1.392600
  0
VERTEX
  8
0
  6
CONTINUOUS
 10
6.935280
 20
1.402720
  0
VERTEX
  8
0
  6
CONTINUOUS
 10
6.961240
 20
1.408440
  0
VERTEX
  8
0
  6
CONTINUOUS
 10
6.987640
 20
1.410200
  0
VERTEX
  8
0
  6
CONTINUOUS
 10
7.013600
 20
1.408000
  0
VERTEX
  8
0
  6
CONTINUOUS
 10
7.038680
 20
1.401400
  0
VERTEX
  8
0
  6
CONTINUOUS
 10
7.061560
 20
1.390840
  0
VERTEX
  8
0
  6
CONTINUOUS
 10
7.081800
 20
1.376320
  0
VERTEX
  8
0
  6
CONTINUOUS
 10
7.098960
 20
1.357400
  0
VERTEX
  8
0
  6
CONTINUOUS
 10
7.112160
 20
1.334520
  0
VERTEX
  8
0
  6
CONTINUOUS
 10
7.120520
 20
1.307680
  0
VERTEX
  8
0
  6
CONTINUOUS
 10
7.123600
 20
1.276440
  0
VERTEX
  8
0
  6
CONTINUOUS
 10
7.123600
 20
1.006720
  0
VERTEX
  8
0
  6
CONTINUOUS
 10
3.318040
 20
1.006720
  0
VERTEX
  8
0
  6
CONTINUOUS
 10
3.318040
 20
1.815440
  0
VERTEX
  8
0
  6
CONTINUOUS
 10
3.754960
 20
1.815440
  0
VERTEX
  8
0
  6
CONTINUOUS
 10
3.777400
 20
1.681240
  0
VERTEX
  8
0
  6
CONTINUOUS
 10
3.834600
 20
1.681680
  0
SEQEND
  8
0
  0
TEXT
  8
0
 10
4.928000
 20
0.790680
 40
0.138057
  1
BA  824
 41
1.000000
  7
SN0
 71
     0
 72
     5
 11
5.517585
 21
0.790680
  0
TEXT
  8
0
 10
4.587440
 20
0.599280
 40
0.138057
  1
13/16" x 3-13/16"
 41
1.000000
  7
SN0
 71
     0
 72
     5
 11
5.855417
 21
0.599280
  0
POLYLINE
  8
0
  6
CONTINUOUS
 66
     1
 40
0.014080
 41
0.014080
  0
VERTEX
  8
0
  6
CONTINUOUS
 10
3.764640
 20
3.835920
  0
VERTEX
  8
0
  6
CONTINUOUS
 10
3.774320
 20
3.855720
  0
VERTEX
  8
0
  6
CONTINUOUS
 10
3.785760
 20
3.873760
  0
VERTEX
  8
0
  6
CONTINUOUS
 10
3.798520
 20
3.889600
  0
VERTEX
  8
0
  6
CONTINUOUS
 10
3.813040
 20
3.903680
  0
VERTEX
  8
0
  6
CONTINUOUS
 10
3.828440
 20
3.916000
  0
VERTEX
  8
0
  6
CONTINUOUS
 10
3.845160
 20
3.927000
  0
VERTEX
  8
0
  6
CONTINUOUS
 10
3.863200
 20
3.935800
  0
VERTEX
  8
0
  6
CONTINUOUS
 10
3.902800
 20
3.949440
  0
VERTEX
  8
0
  6
CONTINUOUS
 10
3.923920
 20
3.953840
  0
VERTEX
  8
0
  6
CONTINUOUS
 10
3.969680
 20
3.958680
  0
VERTEX
  8
0
  6
CONTINUOUS
 10
4.018080
 20
3.957800
  0
VERTEX
  8
0
  6
CONTINUOUS
 10
4.069560
 20
3.952520
  0
VERTEX
  8
0
  6
CONTINUOUS
 10
4.123240
 20
3.942840
  0
VERTEX
  8
0
  6
CONTINUOUS
 10
4.206840
 20
3.920840
  0
VERTEX
  8
0
  6
CONTINUOUS
 10
4.292640
 20
3.891360
  0
VERTEX
  8
0
  6
CONTINUOUS
 10
4.350280
 20
3.868040
  0
VERTEX
  8
0
  6
CONTINUOUS
 10
4.407480
 20
3.842960
  0
VERTEX
  8
0
  6
CONTINUOUS
 10
4.645080
 20
3.723720
  0
VERTEX
  8
0
  6
CONTINUOUS
 10
4.734400
 20
3.684560
  0
VERTEX
  8
0
  6
CONTINUOUS
 10
4.814040
 20
3.653760
  0
VERTEX
  8
0
  6
CONTINUOUS
 10
4.869040
 20
3.636160
  0
VERTEX
  8
0
  6
CONTINUOUS
 10
4.935480
 20
3.619000
  0
VERTEX
  8
0
  6
CONTINUOUS
 10
4.996640
 20
3.607560
  0
VERTEX
  8
0
  6
CONTINUOUS
 10
5.052960
 20
3.600960
  0
VERTEX
  8
0
  6
CONTINUOUS
 10
5.105760
 20
3.598320
  0
VERTEX
  8
0
  6
CONTINUOUS
 10
5.113680
 20
3.625160
  0
VERTEX
  8
0
  6
CONTINUOUS
 10
5.128640
 20
3.658160
  0
VERTEX
  8
0
  6
CONTINUOUS
 10
5.147120
 20
3.683240
  0
VERTEX
  8
0
  6
CONTINUOUS
 10
5.160320
 20
3.695560
  0
VERTEX
  8
0
  6
CONTINUOUS
 10
5.181440
 20
3.707440
  0
VERTEX
  8
0
  6
CONTINUOUS
 10
5.203440
 20
3.711840
  0
VERTEX
  8
0
  6
CONTINUOUS
 10
5.217960
 20
3.710960
  0
VERTEX
  8
0
  6
CONTINUOUS
 10
5.238200
 20
3.704800
  0
VERTEX
  8
0
  6
CONTINUOUS
 10
5.257120
 20
3.691600
  0
VERTEX
  8
0
  6
CONTINUOUS
 10
5.272960
 20
3.673120
  0
VERTEX
  8
0
  6
CONTINUOUS
 10
5.284840
 20
3.649360
  0
VERTEX
  8
0
  6
CONTINUOUS
 10
5.290120
 20
3.630440
  0
VERTEX
  8
0
  6
CONTINUOUS
 10
5.354360
 20
3.630440
  0
VERTEX
  8
0
  6
CONTINUOUS
 10
5.379880
 20
3.531000
  0
VERTEX
  8
0
  6
CONTINUOUS
 10
6.665120
 20
3.531000
  0
VERTEX
  8
0
  6
CONTINUOUS
 10
6.684920
 20
3.433760
  0
VERTEX
  8
0
  6
CONTINUOUS
 10
6.755320
 20
3.433760
  0
VERTEX
  8
0
  6
CONTINUOUS
 10
6.764560
 20
3.464560
  0
VERTEX
  8
0
  6
CONTINUOUS
 10
6.770720
 20
3.478640
  0
VERTEX
  8
0
  6
CONTINUOUS
 10
6.786560
 20
3.503280
  0
VERTEX
  8
0
  6
CONTINUOUS
 10
6.805920
 20
3.523960
  0
VERTEX
  8
0
  6
CONTINUOUS
 10
6.828360
 20
3.540240
  0
VERTEX
  8
0
  6
CONTINUOUS
 10
6.852560
 20
3.552120
  0
VERTEX
  8
0
  6
CONTINUOUS
 10
6.878080
 20
3.560480
  0
VERTEX
  8
0
  6
CONTINUOUS
 10
6.904480
 20
3.564000
  0
VERTEX
  8
0
  6
CONTINUOUS
 10
6.930880
 20
3.564000
  0
VERTEX
  8
0
  6
CONTINUOUS
 10
6.956400
 20
3.559600
  0
VERTEX
  8
0
  6
CONTINUOUS
 10
6.980160
 20
3.550800
  0
VERTEX
  8
0
  6
CONTINUOUS
 10
7.002160
 20
3.538480
  0
VERTEX
  8
0
  6
CONTINUOUS
 10
7.021080
 20
3.521320
  0
VERTEX
  8
0
  6
CONTINUOUS
 10
7.036040
 20
3.500640
  0
VERTEX
  8
0
  6
CONTINUOUS
 10
7.042200
 20
3.488760
  0
VERTEX
  8
0
  6
CONTINUOUS
 10
7.050560
 20
3.461920
  0
VERTEX
  8
0
  6
CONTINUOUS
 10
7.053640
 20
3.430680
  0
VERTEX
  8
0
  6
CONTINUOUS
 10
7.053640
 20
3.160960
  0
VERTEX
  8
0
  6
CONTINUOUS
 10
3.248080
 20
3.160960
  0
VERTEX
  8
0
  6
CONTINUOUS
 10
3.248080
 20
3.969680
  0
VERTEX
  8
0
  6
CONTINUOUS
 10
3.685000
 20
3.969680
  0
VERTEX
  8
0
  6
CONTINUOUS
 10
3.707440
 20
3.835480
  0
VERTEX
  8
0
  6
CONTINUOUS
 10
3.764640
 20
3.835920
  0
SEQEND
  8
0
  0
ENDSEC
  0
EOF
