  0
SECTION
  2
HEADER
  9
$ACADVER
  1
AC1006
  9
$EXTMIN
 10
3.305280
 20
0.649880
  9
$EXTMAX
 10
6.770280
 20
2.790920
  9
$LTSCALE
 40
0.044000
  9
$PDMODE
 70
    35
  9
$PDSIZE
 40
0.035200
  0
ENDSEC
  0
SECTION
  2
TABLES
  0
TABLE
  2
LTYPE
 70
     9
  0
LTYPE
  2
CONTINUOUS
 70
    64
  3
Solid line
 72
    65
 73
     0
 40
0.000000
  0
LTYPE
  2
DASHED
 70
    64
  3
__ __ __ __ __ __ __ __ __ __ __ __ __ __ __
 72
    65
 73
     2
 40
0.000330
 49
0.000220
 49
-0.000110
  0
LTYPE
  2
HIDDEN
 70
    64
  3
 _ _ _ _ _ _ _ _ _ _ _ _ _ _ _ _ _ _ _ _ _ _
 72
    65
 73
     2
 40
0.000165
 49
0.000110
 49
-0.000055
  0
LTYPE
  2
CENTER
 70
    64
  3
____ _ ____ _ ____ _ ____ _ ____ _ ____ _ ____
 72
    65
 73
     4
 40
0.000880
 49
0.000550
 49
-0.000110
 49
0.000110
 49
-0.000110
  0
LTYPE
  2
PHANTOM
 70
    64
  3
_____ _ _ _____ _ _ _____ _ _ _____ _ _ ____
 72
    65
 73
     6
 40
0.001100
 49
0.000550
 49
-0.000110
 49
0.000110
 49
-0.000110
 49
0.000110
 49
-0.000110
  0
LTYPE
  2
DOT
 70
    64
  3
...............................................
 72
    65
 73
     2
 40
0.000110
 49
0.000000
 49
-0.000110
  0
LTYPE
  2
DASHDOT
 70
    64
  3
__ . __ . __ . __ . __ . __ . __ . __ . __ . __
 72
    65
 73
     4
 40
0.000440
 49
0.000220
 49
-0.000110
 49
0.000000
 49
-0.000110
  0
LTYPE
  2
BORDER
 70
    64
  3
__ __ . __ __ . __ __ . __ __ . __ __ . __ __
 72
    65
 73
     6
 40
0.000770
 49
0.000220
 49
-0.000110
 49
0.000220
 49
-0.000110
 49
0.000000
 49
-0.000110
  0
LTYPE
  2
DIVIDE
 70
    64
  3
__ . . __ . . __ . . __ . . __ . . __ . . __
 72
    65
 73
     6
 40
0.000550
 49
0.000220
 49
-0.000110
 49
0.000000
 49
-0.000110
 49
0.000000
 49
-0.000110
  0
LTYPE
  2
DOTDOT
 70
    64
  3
 . .  . .  . .  . .  . .  . . 
 72
    65
 73
     5
 40
0.000242
 49
-0.000110
 49
0.000000
 49
-0.000110
 49
0.000000
 49
-0.000110
  0
ENDTAB
  0
TABLE
  2
STYLE
 70
     2
  0
STYLE
 70
     0
  2
SN0
 40
0.000000
 41
0.000440
 50
0.000000
 71
     0
 42
0.000000
  3
ROMAND
  0
STYLE
 70
    68
  2
SV0
 40
0.000000
 41
0.000440
 50
0.000000
 71
     0
 42
0.000000
  3
ROMAND
  0
ENDTAB
  0
TABLE
  2
LAYER
 70
     3
  0
LAYER
  2
FOREGROUND
 70
    64
 62
     7
  6
CONTINUOUS
  0
LAYER
  2
BACKGROUND
 70
    65
 62
    -7
  6
CONTINUOUS
  0
LAYER
  2
0
 70
    64
 62
     7
  6
CONTINUOUS
  0
ENDTAB
  0
ENDSEC
  0
SECTION
  2
ENTITIES
  0
POLYLINE
  8
FOREGROUND
  6
CONTINUOUS
 66
     1
 40
0.000000
 41
0.000000
  0
VERTEX
  8
FOREGROUND
  6
CONTINUOUS
 10
0.000000
 20
3.440800
  0
VERTEX
  8
FOREGROUND
  6
CONTINUOUS
 10
8.499920
 20
3.440800
  0
VERTEX
  8
FOREGROUND
  6
CONTINUOUS
 10
8.499920
 20
-7.559200
  0
VERTEX
  8
FOREGROUND
  6
CONTINUOUS
 10
0.000000
 20
-7.559200
  0
VERTEX
  8
FOREGROUND
  6
CONTINUOUS
 10
0.000000
 20
3.440800
  0
SEQEND
  8
0
  0
POLYLINE
  8
FOREGROUND
  6
CONTINUOUS
 66
     1
 40
0.000000
 41
0.000000
  0
VERTEX
  8
FOREGROUND
  6
CONTINUOUS
 10
0.000000
 20
3.440800
  0
VERTEX
  8
FOREGROUND
  6
CONTINUOUS
 10
8.499920
 20
3.440800
  0
VERTEX
  8
FOREGROUND
  6
CONTINUOUS
 10
8.499920
 20
-7.559200
  0
VERTEX
  8
FOREGROUND
  6
CONTINUOUS
 10
0.000000
 20
-7.559200
  0
VERTEX
  8
FOREGROUND
  6
CONTINUOUS
 10
0.000000
 20
3.440800
  0
SEQEND
  8
0
  0
SOLID
  8
0
 62
     7
 10
4.427720
 20
1.781560
 11
5.067040
 21
2.149840
 12
4.488440
 22
1.733600
 13
5.127760
 23
2.101880
  0
POLYLINE
  8
0
  6
CONTINUOUS
 66
     1
 40
0.000000
 41
0.000000
  0
VERTEX
  8
0
  6
CONTINUOUS
 10
4.427720
 20
1.781560
  0
VERTEX
  8
0
  6
CONTINUOUS
 10
5.067040
 20
2.149840
  0
VERTEX
  8
0
  6
CONTINUOUS
 10
5.127760
 20
2.101880
  0
VERTEX
  8
0
  6
CONTINUOUS
 10
4.488440
 20
1.733600
  0
VERTEX
  8
0
  6
CONTINUOUS
 10
4.427720
 20
1.781560
  0
SEQEND
  8
0
  0
SOLID
  8
0
 62
     7
 10
3.813040
 20
2.422200
 11
4.452360
 21
2.790040
 12
3.816560
 22
2.368960
 13
4.455880
 23
2.737240
  0
POLYLINE
  8
0
  6
CONTINUOUS
 66
     1
 40
0.000000
 41
0.000000
  0
VERTEX
  8
0
  6
CONTINUOUS
 10
3.813040
 20
2.422200
  0
VERTEX
  8
0
  6
CONTINUOUS
 10
4.452360
 20
2.790040
  0
VERTEX
  8
0
  6
CONTINUOUS
 10
4.455880
 20
2.737240
  0
VERTEX
  8
0
  6
CONTINUOUS
 10
3.816560
 20
2.368960
  0
VERTEX
  8
0
  6
CONTINUOUS
 10
3.813040
 20
2.422200
  0
SEQEND
  8
0
  0
SOLID
  8
0
 62
     7
 10
3.816560
 20
2.368960
 11
4.455880
 21
2.737240
 12
3.828880
 22
2.309120
 13
4.468200
 23
2.676960
  0
POLYLINE
  8
0
  6
CONTINUOUS
 66
     1
 40
0.000000
 41
0.000000
  0
VERTEX
  8
0
  6
CONTINUOUS
 10
3.816560
 20
2.368960
  0
VERTEX
  8
0
  6
CONTINUOUS
 10
4.455880
 20
2.737240
  0
VERTEX
  8
0
  6
CONTINUOUS
 10
4.468200
 20
2.676960
  0
VERTEX
  8
0
  6
CONTINUOUS
 10
3.828880
 20
2.309120
  0
VERTEX
  8
0
  6
CONTINUOUS
 10
3.816560
 20
2.368960
  0
SEQEND
  8
0
  0
SOLID
  8
0
 62
     7
 10
3.828880
 20
2.309120
 11
4.468200
 21
2.676960
 12
3.851320
 22
2.246200
 13
4.490640
 23
2.614480
  0
POLYLINE
  8
0
  6
CONTINUOUS
 66
     1
 40
0.000000
 41
0.000000
  0
VERTEX
  8
0
  6
CONTINUOUS
 10
3.828880
 20
2.309120
  0
VERTEX
  8
0
  6
CONTINUOUS
 10
4.468200
 20
2.676960
  0
VERTEX
  8
0
  6
CONTINUOUS
 10
4.490640
 20
2.614480
  0
VERTEX
  8
0
  6
CONTINUOUS
 10
3.851320
 20
2.246200
  0
VERTEX
  8
0
  6
CONTINUOUS
 10
3.828880
 20
2.309120
  0
SEQEND
  8
0
  0
SOLID
  8
0
 62
     7
 10
3.851320
 20
2.246200
 11
4.490640
 21
2.614480
 12
3.884760
 22
2.184160
 13
4.524080
 23
2.552440
  0
POLYLINE
  8
0
  6
CONTINUOUS
 66
     1
 40
0.000000
 41
0.000000
  0
VERTEX
  8
0
  6
CONTINUOUS
 10
3.851320
 20
2.246200
  0
VERTEX
  8
0
  6
CONTINUOUS
 10
4.490640
 20
2.614480
  0
VERTEX
  8
0
  6
CONTINUOUS
 10
4.524080
 20
2.552440
  0
VERTEX
  8
0
  6
CONTINUOUS
 10
3.884760
 20
2.184160
  0
VERTEX
  8
0
  6
CONTINUOUS
 10
3.851320
 20
2.246200
  0
SEQEND
  8
0
  0
SOLID
  8
0
 62
     7
 10
3.884760
 20
2.184160
 11
4.524080
 21
2.552440
 12
3.930520
 22
2.127400
 13
4.569840
 23
2.495240
  0
POLYLINE
  8
0
  6
CONTINUOUS
 66
     1
 40
0.000000
 41
0.000000
  0
VERTEX
  8
0
  6
CONTINUOUS
 10
3.884760
 20
2.184160
  0
VERTEX
  8
0
  6
CONTINUOUS
 10
4.524080
 20
2.552440
  0
VERTEX
  8
0
  6
CONTINUOUS
 10
4.569840
 20
2.495240
  0
VERTEX
  8
0
  6
CONTINUOUS
 10
3.930520
 20
2.127400
  0
VERTEX
  8
0
  6
CONTINUOUS
 10
3.884760
 20
2.184160
  0
SEQEND
  8
0
  0
SOLID
  8
0
 62
     7
 10
3.930520
 20
2.127400
 11
4.569840
 21
2.495240
 12
3.989480
 22
2.078560
 13
4.628800
 23
2.446840
  0
POLYLINE
  8
0
  6
CONTINUOUS
 66
     1
 40
0.000000
 41
0.000000
  0
VERTEX
  8
0
  6
CONTINUOUS
 10
3.930520
 20
2.127400
  0
VERTEX
  8
0
  6
CONTINUOUS
 10
4.569840
 20
2.495240
  0
VERTEX
  8
0
  6
CONTINUOUS
 10
4.628800
 20
2.446840
  0
VERTEX
  8
0
  6
CONTINUOUS
 10
3.989480
 20
2.078560
  0
VERTEX
  8
0
  6
CONTINUOUS
 10
3.930520
 20
2.127400
  0
SEQEND
  8
0
  0
SOLID
  8
0
 62
    15
 10
3.989480
 20
2.078560
 11
4.628800
 21
2.446840
 12
4.062960
 22
2.042480
 13
4.702280
 23
2.410760
  0
POLYLINE
  8
0
  6
CONTINUOUS
 66
     1
 40
0.000000
 41
0.000000
  0
VERTEX
  8
0
  6
CONTINUOUS
 10
3.989480
 20
2.078560
  0
VERTEX
  8
0
  6
CONTINUOUS
 10
4.628800
 20
2.446840
  0
VERTEX
  8
0
  6
CONTINUOUS
 10
4.702280
 20
2.410760
  0
VERTEX
  8
0
  6
CONTINUOUS
 10
4.062960
 20
2.042480
  0
VERTEX
  8
0
  6
CONTINUOUS
 10
3.989480
 20
2.078560
  0
SEQEND
  8
0
  0
SOLID
  8
0
 62
    15
 10
4.062960
 20
2.042480
 11
4.702280
 21
2.410760
 12
4.151840
 22
2.022240
 13
4.791160
 23
2.390520
  0
POLYLINE
  8
0
  6
CONTINUOUS
 66
     1
 40
0.000000
 41
0.000000
  0
VERTEX
  8
0
  6
CONTINUOUS
 10
4.062960
 20
2.042480
  0
VERTEX
  8
0
  6
CONTINUOUS
 10
4.702280
 20
2.410760
  0
VERTEX
  8
0
  6
CONTINUOUS
 10
4.791160
 20
2.390520
  0
VERTEX
  8
0
  6
CONTINUOUS
 10
4.151840
 20
2.022240
  0
VERTEX
  8
0
  6
CONTINUOUS
 10
4.062960
 20
2.042480
  0
SEQEND
  8
0
  0
SOLID
  8
0
 62
    15
 10
4.151840
 20
2.022240
 11
4.791160
 21
2.390520
 12
4.151840
 22
1.873960
 13
4.791160
 23
2.242240
  0
POLYLINE
  8
0
  6
CONTINUOUS
 66
     1
 40
0.000000
 41
0.000000
  0
VERTEX
  8
0
  6
CONTINUOUS
 10
4.151840
 20
2.022240
  0
VERTEX
  8
0
  6
CONTINUOUS
 10
4.791160
 20
2.390520
  0
VERTEX
  8
0
  6
CONTINUOUS
 10
4.791160
 20
2.242240
  0
VERTEX
  8
0
  6
CONTINUOUS
 10
4.151840
 20
1.873960
  0
VERTEX
  8
0
  6
CONTINUOUS
 10
4.151840
 20
2.022240
  0
SEQEND
  8
0
  0
SOLID
  8
0
 62
    15
 10
4.151840
 20
1.873960
 11
4.791160
 21
2.242240
 12
4.260520
 22
1.853280
 13
4.899840
 23
2.221560
  0
POLYLINE
  8
0
  6
CONTINUOUS
 66
     1
 40
0.000000
 41
0.000000
  0
VERTEX
  8
0
  6
CONTINUOUS
 10
4.151840
 20
1.873960
  0
VERTEX
  8
0
  6
CONTINUOUS
 10
4.791160
 20
2.242240
  0
VERTEX
  8
0
  6
CONTINUOUS
 10
4.899840
 20
2.221560
  0
VERTEX
  8
0
  6
CONTINUOUS
 10
4.260520
 20
1.853280
  0
VERTEX
  8
0
  6
CONTINUOUS
 10
4.151840
 20
1.873960
  0
SEQEND
  8
0
  0
SOLID
  8
0
 62
    15
 10
4.260520
 20
1.853280
 11
4.899840
 21
2.221560
 12
4.352040
 22
1.822040
 13
4.991360
 23
2.190320
  0
POLYLINE
  8
0
  6
CONTINUOUS
 66
     1
 40
0.000000
 41
0.000000
  0
VERTEX
  8
0
  6
CONTINUOUS
 10
4.260520
 20
1.853280
  0
VERTEX
  8
0
  6
CONTINUOUS
 10
4.899840
 20
2.221560
  0
VERTEX
  8
0
  6
CONTINUOUS
 10
4.991360
 20
2.190320
  0
VERTEX
  8
0
  6
CONTINUOUS
 10
4.352040
 20
1.822040
  0
VERTEX
  8
0
  6
CONTINUOUS
 10
4.260520
 20
1.853280
  0
SEQEND
  8
0
  0
SOLID
  8
0
 62
    15
 10
4.352040
 20
1.822040
 11
4.991360
 21
2.190320
 12
4.427720
 22
1.781560
 13
5.067040
 23
2.149840
  0
POLYLINE
  8
0
  6
CONTINUOUS
 66
     1
 40
0.000000
 41
0.000000
  0
VERTEX
  8
0
  6
CONTINUOUS
 10
4.352040
 20
1.822040
  0
VERTEX
  8
0
  6
CONTINUOUS
 10
4.991360
 20
2.190320
  0
VERTEX
  8
0
  6
CONTINUOUS
 10
5.067040
 20
2.149840
  0
VERTEX
  8
0
  6
CONTINUOUS
 10
4.427720
 20
1.781560
  0
VERTEX
  8
0
  6
CONTINUOUS
 10
4.352040
 20
1.822040
  0
SEQEND
  8
0
  0
SOLID
  8
0
 62
    15
 10
3.306160
 20
2.422200
 11
3.945040
 21
2.790040
 12
3.813040
 22
2.422200
 13
4.452360
 23
2.790040
  0
POLYLINE
  8
0
  6
CONTINUOUS
 66
     1
 40
0.000000
 41
0.000000
  0
VERTEX
  8
0
  6
CONTINUOUS
 10
3.306160
 20
2.422200
  0
VERTEX
  8
0
  6
CONTINUOUS
 10
3.945040
 20
2.790040
  0
VERTEX
  8
0
  6
CONTINUOUS
 10
4.452360
 20
2.790040
  0
VERTEX
  8
0
  6
CONTINUOUS
 10
3.813040
 20
2.422200
  0
VERTEX
  8
0
  6
CONTINUOUS
 10
3.306160
 20
2.422200
  0
SEQEND
  8
0
  0
SOLID
  8
0
 62
     7
 10
4.488440
 20
1.733600
 11
5.127760
 21
2.101880
 12
4.535960
 22
1.679040
 13
5.174840
 23
2.047320
  0
POLYLINE
  8
0
  6
CONTINUOUS
 66
     1
 40
0.000000
 41
0.000000
  0
VERTEX
  8
0
  6
CONTINUOUS
 10
4.488440
 20
1.733600
  0
VERTEX
  8
0
  6
CONTINUOUS
 10
5.127760
 20
2.101880
  0
VERTEX
  8
0
  6
CONTINUOUS
 10
5.174840
 20
2.047320
  0
VERTEX
  8
0
  6
CONTINUOUS
 10
4.535960
 20
1.679040
  0
VERTEX
  8
0
  6
CONTINUOUS
 10
4.488440
 20
1.733600
  0
SEQEND
  8
0
  0
SOLID
  8
0
 62
     7
 10
4.535960
 20
1.679040
 11
5.174840
 21
2.047320
 12
4.570720
 22
1.620080
 13
5.210040
 23
1.988360
  0
POLYLINE
  8
0
  6
CONTINUOUS
 66
     1
 40
0.000000
 41
0.000000
  0
VERTEX
  8
0
  6
CONTINUOUS
 10
4.535960
 20
1.679040
  0
VERTEX
  8
0
  6
CONTINUOUS
 10
5.174840
 20
2.047320
  0
VERTEX
  8
0
  6
CONTINUOUS
 10
5.210040
 20
1.988360
  0
VERTEX
  8
0
  6
CONTINUOUS
 10
4.570720
 20
1.620080
  0
VERTEX
  8
0
  6
CONTINUOUS
 10
4.535960
 20
1.679040
  0
SEQEND
  8
0
  0
SOLID
  8
0
 62
     7
 10
4.570720
 20
1.620080
 11
5.210040
 21
1.988360
 12
4.594040
 22
1.558040
 13
5.233360
 23
1.926320
  0
POLYLINE
  8
0
  6
CONTINUOUS
 66
     1
 40
0.000000
 41
0.000000
  0
VERTEX
  8
0
  6
CONTINUOUS
 10
4.570720
 20
1.620080
  0
VERTEX
  8
0
  6
CONTINUOUS
 10
5.210040
 20
1.988360
  0
VERTEX
  8
0
  6
CONTINUOUS
 10
5.233360
 20
1.926320
  0
VERTEX
  8
0
  6
CONTINUOUS
 10
4.594040
 20
1.558040
  0
VERTEX
  8
0
  6
CONTINUOUS
 10
4.570720
 20
1.620080
  0
SEQEND
  8
0
  0
SOLID
  8
0
 62
     7
 10
4.594040
 20
1.558040
 11
5.233360
 21
1.926320
 12
4.607680
 22
1.494240
 13
5.247000
 23
1.862520
  0
POLYLINE
  8
0
  6
CONTINUOUS
 66
     1
 40
0.000000
 41
0.000000
  0
VERTEX
  8
0
  6
CONTINUOUS
 10
4.594040
 20
1.558040
  0
VERTEX
  8
0
  6
CONTINUOUS
 10
5.233360
 20
1.926320
  0
VERTEX
  8
0
  6
CONTINUOUS
 10
5.247000
 20
1.862520
  0
VERTEX
  8
0
  6
CONTINUOUS
 10
4.607680
 20
1.494240
  0
VERTEX
  8
0
  6
CONTINUOUS
 10
4.594040
 20
1.558040
  0
SEQEND
  8
0
  0
SOLID
  8
0
 62
    15
 10
4.607680
 20
1.494240
 11
5.247000
 21
1.862520
 12
4.612080
 22
1.430440
 13
5.251400
 23
1.798280
  0
POLYLINE
  8
0
  6
CONTINUOUS
 66
     1
 40
0.000000
 41
0.000000
  0
VERTEX
  8
0
  6
CONTINUOUS
 10
4.607680
 20
1.494240
  0
VERTEX
  8
0
  6
CONTINUOUS
 10
5.247000
 20
1.862520
  0
VERTEX
  8
0
  6
CONTINUOUS
 10
5.251400
 20
1.798280
  0
VERTEX
  8
0
  6
CONTINUOUS
 10
4.612080
 20
1.430440
  0
VERTEX
  8
0
  6
CONTINUOUS
 10
4.607680
 20
1.494240
  0
SEQEND
  8
0
  0
SOLID
  8
0
 62
    15
 10
4.612080
 20
1.430440
 11
5.251400
 21
1.798280
 12
4.609000
 22
1.367960
 13
5.247880
 23
1.735800
  0
POLYLINE
  8
0
  6
CONTINUOUS
 66
     1
 40
0.000000
 41
0.000000
  0
VERTEX
  8
0
  6
CONTINUOUS
 10
4.612080
 20
1.430440
  0
VERTEX
  8
0
  6
CONTINUOUS
 10
5.251400
 20
1.798280
  0
VERTEX
  8
0
  6
CONTINUOUS
 10
5.247880
 20
1.735800
  0
VERTEX
  8
0
  6
CONTINUOUS
 10
4.609000
 20
1.367960
  0
VERTEX
  8
0
  6
CONTINUOUS
 10
4.612080
 20
1.430440
  0
SEQEND
  8
0
  0
SOLID
  8
0
 62
    15
 10
4.609000
 20
1.367960
 11
5.247880
 21
1.735800
 12
4.598880
 22
1.308120
 13
5.238200
 23
1.676400
  0
POLYLINE
  8
0
  6
CONTINUOUS
 66
     1
 40
0.000000
 41
0.000000
  0
VERTEX
  8
0
  6
CONTINUOUS
 10
4.609000
 20
1.367960
  0
VERTEX
  8
0
  6
CONTINUOUS
 10
5.247880
 20
1.735800
  0
VERTEX
  8
0
  6
CONTINUOUS
 10
5.238200
 20
1.676400
  0
VERTEX
  8
0
  6
CONTINUOUS
 10
4.598880
 20
1.308120
  0
VERTEX
  8
0
  6
CONTINUOUS
 10
4.609000
 20
1.367960
  0
SEQEND
  8
0
  0
SOLID
  8
0
 62
    15
 10
4.598880
 20
1.308120
 11
5.238200
 21
1.676400
 12
4.583920
 22
1.253120
 13
5.222800
 23
1.621400
  0
POLYLINE
  8
0
  6
CONTINUOUS
 66
     1
 40
0.000000
 41
0.000000
  0
VERTEX
  8
0
  6
CONTINUOUS
 10
4.598880
 20
1.308120
  0
VERTEX
  8
0
  6
CONTINUOUS
 10
5.238200
 20
1.676400
  0
VERTEX
  8
0
  6
CONTINUOUS
 10
5.222800
 20
1.621400
  0
VERTEX
  8
0
  6
CONTINUOUS
 10
4.583920
 20
1.253120
  0
VERTEX
  8
0
  6
CONTINUOUS
 10
4.598880
 20
1.308120
  0
SEQEND
  8
0
  0
SOLID
  8
0
 62
    15
 10
4.583920
 20
1.253120
 11
5.222800
 21
1.621400
 12
4.564120
 22
1.204280
 13
5.203440
 23
1.572120
  0
POLYLINE
  8
0
  6
CONTINUOUS
 66
     1
 40
0.000000
 41
0.000000
  0
VERTEX
  8
0
  6
CONTINUOUS
 10
4.583920
 20
1.253120
  0
VERTEX
  8
0
  6
CONTINUOUS
 10
5.222800
 20
1.621400
  0
VERTEX
  8
0
  6
CONTINUOUS
 10
5.203440
 20
1.572120
  0
VERTEX
  8
0
  6
CONTINUOUS
 10
4.564120
 20
1.204280
  0
VERTEX
  8
0
  6
CONTINUOUS
 10
4.583920
 20
1.253120
  0
SEQEND
  8
0
  0
SOLID
  8
0
 62
    15
 10
4.564120
 20
1.204280
 11
5.203440
 21
1.572120
 12
4.541240
 22
1.162480
 13
5.180560
 23
1.530760
  0
POLYLINE
  8
0
  6
CONTINUOUS
 66
     1
 40
0.000000
 41
0.000000
  0
VERTEX
  8
0
  6
CONTINUOUS
 10
4.564120
 20
1.204280
  0
VERTEX
  8
0
  6
CONTINUOUS
 10
5.203440
 20
1.572120
  0
VERTEX
  8
0
  6
CONTINUOUS
 10
5.180560
 20
1.530760
  0
VERTEX
  8
0
  6
CONTINUOUS
 10
4.541240
 20
1.162480
  0
VERTEX
  8
0
  6
CONTINUOUS
 10
4.564120
 20
1.204280
  0
SEQEND
  8
0
  0
SOLID
  8
0
 62
    15
 10
4.541240
 20
1.162480
 11
5.180560
 21
1.530760
 12
4.516600
 22
1.129920
 13
5.155920
 23
1.498200
  0
POLYLINE
  8
0
  6
CONTINUOUS
 66
     1
 40
0.000000
 41
0.000000
  0
VERTEX
  8
0
  6
CONTINUOUS
 10
4.541240
 20
1.162480
  0
VERTEX
  8
0
  6
CONTINUOUS
 10
5.180560
 20
1.530760
  0
VERTEX
  8
0
  6
CONTINUOUS
 10
5.155920
 20
1.498200
  0
VERTEX
  8
0
  6
CONTINUOUS
 10
4.516600
 20
1.129920
  0
VERTEX
  8
0
  6
CONTINUOUS
 10
4.541240
 20
1.162480
  0
SEQEND
  8
0
  0
SOLID
  8
0
 62
    15
 10
4.516600
 20
1.129920
 11
5.155920
 21
1.498200
 12
4.491080
 22
1.107920
 13
5.130400
 23
1.476200
  0
POLYLINE
  8
0
  6
CONTINUOUS
 66
     1
 40
0.000000
 41
0.000000
  0
VERTEX
  8
0
  6
CONTINUOUS
 10
4.516600
 20
1.129920
  0
VERTEX
  8
0
  6
CONTINUOUS
 10
5.155920
 20
1.498200
  0
VERTEX
  8
0
  6
CONTINUOUS
 10
5.130400
 20
1.476200
  0
VERTEX
  8
0
  6
CONTINUOUS
 10
4.491080
 20
1.107920
  0
VERTEX
  8
0
  6
CONTINUOUS
 10
4.516600
 20
1.129920
  0
SEQEND
  8
0
  0
SOLID
  8
0
 62
     7
 10
4.491080
 20
1.107920
 11
5.130400
 21
1.476200
 12
4.491520
 22
1.107040
 13
5.130840
 23
1.475320
  0
POLYLINE
  8
0
  6
CONTINUOUS
 66
     1
 40
0.000000
 41
0.000000
  0
VERTEX
  8
0
  6
CONTINUOUS
 10
4.491080
 20
1.107920
  0
VERTEX
  8
0
  6
CONTINUOUS
 10
5.130400
 20
1.476200
  0
VERTEX
  8
0
  6
CONTINUOUS
 10
5.130840
 20
1.475320
  0
VERTEX
  8
0
  6
CONTINUOUS
 10
4.491520
 20
1.107040
  0
VERTEX
  8
0
  6
CONTINUOUS
 10
4.491080
 20
1.107920
  0
SEQEND
  8
0
  0
POLYLINE
  8
0
  6
CONTINUOUS
 66
     1
 40
0.000000
 41
0.000000
  0
VERTEX
  8
0
  6
CONTINUOUS
 10
4.491520
 20
1.107040
  0
VERTEX
  8
0
  6
CONTINUOUS
 10
3.306160
 20
1.107040
  0
VERTEX
  8
0
  6
CONTINUOUS
 10
3.306160
 20
2.422200
  0
VERTEX
  8
0
  6
CONTINUOUS
 10
3.813040
 20
2.422200
  0
VERTEX
  8
0
  6
CONTINUOUS
 10
3.816560
 20
2.368960
  0
VERTEX
  8
0
  6
CONTINUOUS
 10
3.828880
 20
2.309120
  0
VERTEX
  8
0
  6
CONTINUOUS
 10
3.851320
 20
2.246200
  0
VERTEX
  8
0
  6
CONTINUOUS
 10
3.884760
 20
2.184160
  0
VERTEX
  8
0
  6
CONTINUOUS
 10
3.930520
 20
2.127400
  0
VERTEX
  8
0
  6
CONTINUOUS
 10
3.989480
 20
2.078560
  0
VERTEX
  8
0
  6
CONTINUOUS
 10
4.062960
 20
2.042480
  0
VERTEX
  8
0
  6
CONTINUOUS
 10
4.151840
 20
2.022240
  0
VERTEX
  8
0
  6
CONTINUOUS
 10
4.151840
 20
1.873960
  0
VERTEX
  8
0
  6
CONTINUOUS
 10
4.260520
 20
1.853280
  0
VERTEX
  8
0
  6
CONTINUOUS
 10
4.352040
 20
1.822040
  0
VERTEX
  8
0
  6
CONTINUOUS
 10
4.427720
 20
1.781560
  0
VERTEX
  8
0
  6
CONTINUOUS
 10
4.488440
 20
1.733600
  0
VERTEX
  8
0
  6
CONTINUOUS
 10
4.535960
 20
1.679040
  0
VERTEX
  8
0
  6
CONTINUOUS
 10
4.570720
 20
1.620080
  0
VERTEX
  8
0
  6
CONTINUOUS
 10
4.594040
 20
1.558040
  0
VERTEX
  8
0
  6
CONTINUOUS
 10
4.607680
 20
1.494240
  0
VERTEX
  8
0
  6
CONTINUOUS
 10
4.612080
 20
1.430440
  0
VERTEX
  8
0
  6
CONTINUOUS
 10
4.609000
 20
1.367960
  0
VERTEX
  8
0
  6
CONTINUOUS
 10
4.598880
 20
1.308120
  0
VERTEX
  8
0
  6
CONTINUOUS
 10
4.583920
 20
1.253120
  0
VERTEX
  8
0
  6
CONTINUOUS
 10
4.564120
 20
1.204280
  0
VERTEX
  8
0
  6
CONTINUOUS
 10
4.541240
 20
1.162480
  0
VERTEX
  8
0
  6
CONTINUOUS
 10
4.516600
 20
1.129920
  0
VERTEX
  8
0
  6
CONTINUOUS
 10
4.491080
 20
1.107920
  0
VERTEX
  8
0
  6
CONTINUOUS
 10
4.491520
 20
1.107040
  0
SEQEND
  8
0
  0
TEXT
  8
0
 10
3.983760
 20
0.884840
 40
0.138172
  1
BA  822
 41
1.000000
  7
SN0
 71
     0
 72
     5
 11
4.573849
 21
0.884840
  0
TEXT
  8
0
 10
3.662120
 20
0.693440
 40
0.138172
  1
1-5/16" x 1-5/16"
 41
1.000000
  7
SN0
 71
     0
 72
     5
 11
4.894101
 21
0.693440
  0
POLYLINE
  8
0
  6
CONTINUOUS
 66
     1
 40
0.014080
 41
0.014080
  0
VERTEX
  8
0
  6
CONTINUOUS
 10
6.641800
 20
1.439680
  0
VERTEX
  8
0
  6
CONTINUOUS
 10
6.661160
 20
1.455080
  0
VERTEX
  8
0
  6
CONTINUOUS
 10
6.680080
 20
1.476640
  0
VERTEX
  8
0
  6
CONTINUOUS
 10
6.703840
 20
1.514040
  0
VERTEX
  8
0
  6
CONTINUOUS
 10
6.725400
 20
1.559800
  0
VERTEX
  8
0
  6
CONTINUOUS
 10
6.743000
 20
1.611720
  0
VERTEX
  8
0
  6
CONTINUOUS
 10
6.755760
 20
1.669360
  0
VERTEX
  8
0
  6
CONTINUOUS
 10
6.762360
 20
1.730520
  0
VERTEX
  8
0
  6
CONTINUOUS
 10
6.763240
 20
1.762200
  0
VERTEX
  8
0
  6
CONTINUOUS
 10
6.761920
 20
1.793880
  0
VERTEX
  8
0
  6
CONTINUOUS
 10
6.758840
 20
1.826000
  0
VERTEX
  8
0
  6
CONTINUOUS
 10
6.753120
 20
1.858120
  0
VERTEX
  8
0
  6
CONTINUOUS
 10
6.740360
 20
1.905640
  0
VERTEX
  8
0
  6
CONTINUOUS
 10
6.721440
 20
1.951840
  0
VERTEX
  8
0
  6
CONTINUOUS
 10
6.705600
 20
1.981760
  0
VERTEX
  8
0
  6
CONTINUOUS
 10
6.676120
 20
2.024880
  0
VERTEX
  8
0
  6
CONTINUOUS
 10
6.652360
 20
2.052160
  0
VERTEX
  8
0
  6
CONTINUOUS
 10
6.625520
 20
2.078120
  0
VERTEX
  8
0
  6
CONTINUOUS
 10
6.595160
 20
2.102320
  0
VERTEX
  8
0
  6
CONTINUOUS
 10
6.542800
 20
2.134880
  0
VERTEX
  8
0
  6
CONTINUOUS
 10
6.481640
 20
2.162600
  0
VERTEX
  8
0
  6
CONTINUOUS
 10
6.435880
 20
2.178440
  0
VERTEX
  8
0
  6
CONTINUOUS
 10
6.385720
 20
2.191640
  0
VERTEX
  8
0
  6
CONTINUOUS
 10
6.331600
 20
2.201760
  0
VERTEX
  8
0
  6
CONTINUOUS
 10
6.302560
 20
2.205720
  0
VERTEX
  8
0
  6
CONTINUOUS
 10
6.302560
 20
2.354440
  0
VERTEX
  8
0
  6
CONTINUOUS
 10
6.278800
 20
2.357520
  0
VERTEX
  8
0
  6
CONTINUOUS
 10
6.234360
 20
2.367640
  0
VERTEX
  8
0
  6
CONTINUOUS
 10
6.193880
 20
2.382160
  0
VERTEX
  8
0
  6
CONTINUOUS
 10
6.174960
 20
2.390520
  0
VERTEX
  8
0
  6
CONTINUOUS
 10
6.140200
 20
2.410760
  0
VERTEX
  8
0
  6
CONTINUOUS
 10
6.108960
 20
2.433640
  0
VERTEX
  8
0
  6
CONTINUOUS
 10
6.081240
 20
2.459160
  0
VERTEX
  8
0
  6
CONTINUOUS
 10
6.056600
 20
2.486880
  0
VERTEX
  8
0
  6
CONTINUOUS
 10
6.026240
 20
2.531320
  0
VERTEX
  8
0
  6
CONTINUOUS
 10
6.002040
 20
2.577960
  0
VERTEX
  8
0
  6
CONTINUOUS
 10
5.984440
 20
2.625480
  0
VERTEX
  8
0
  6
CONTINUOUS
 10
5.975640
 20
2.656280
  0
VERTEX
  8
0
  6
CONTINUOUS
 10
5.967280
 20
2.700720
  0
VERTEX
  8
0
  6
CONTINUOUS
 10
5.964200
 20
2.741640
  0
VERTEX
  8
0
  6
CONTINUOUS
 10
5.964200
 20
2.753960
  0
VERTEX
  8
0
  6
CONTINUOUS
 10
5.456880
 20
2.753960
  0
VERTEX
  8
0
  6
CONTINUOUS
 10
5.456880
 20
1.438800
  0
VERTEX
  8
0
  6
CONTINUOUS
 10
6.642240
 20
1.438800
  0
VERTEX
  8
0
  6
CONTINUOUS
 10
6.641800
 20
1.439680
  0
SEQEND
  8
0
  0
ENDSEC
  0
EOF
