  0
SECTION
  2
HEADER
  9
$ACADVER
  1
AC1006
  9
$EXTMIN
 10
3.069440
 20
0.458480
  9
$EXTMAX
 10
7.116120
 20
4.235440
  9
$LTSCALE
 40
0.044000
  9
$PDMODE
 70
    35
  9
$PDSIZE
 40
0.035200
  0
ENDSEC
  0
SECTION
  2
TABLES
  0
TABLE
  2
LTYPE
 70
     9
  0
LTYPE
  2
CONTINUOUS
 70
    64
  3
Solid line
 72
    65
 73
     0
 40
0.000000
  0
LTYPE
  2
DASHED
 70
    64
  3
__ __ __ __ __ __ __ __ __ __ __ __ __ __ __
 72
    65
 73
     2
 40
0.000330
 49
0.000220
 49
-0.000110
  0
LTYPE
  2
HIDDEN
 70
    64
  3
 _ _ _ _ _ _ _ _ _ _ _ _ _ _ _ _ _ _ _ _ _ _
 72
    65
 73
     2
 40
0.000165
 49
0.000110
 49
-0.000055
  0
LTYPE
  2
CENTER
 70
    64
  3
____ _ ____ _ ____ _ ____ _ ____ _ ____ _ ____
 72
    65
 73
     4
 40
0.000880
 49
0.000550
 49
-0.000110
 49
0.000110
 49
-0.000110
  0
LTYPE
  2
PHANTOM
 70
    64
  3
_____ _ _ _____ _ _ _____ _ _ _____ _ _ ____
 72
    65
 73
     6
 40
0.001100
 49
0.000550
 49
-0.000110
 49
0.000110
 49
-0.000110
 49
0.000110
 49
-0.000110
  0
LTYPE
  2
DOT
 70
    64
  3
...............................................
 72
    65
 73
     2
 40
0.000110
 49
0.000000
 49
-0.000110
  0
LTYPE
  2
DASHDOT
 70
    64
  3
__ . __ . __ . __ . __ . __ . __ . __ . __ . __
 72
    65
 73
     4
 40
0.000440
 49
0.000220
 49
-0.000110
 49
0.000000
 49
-0.000110
  0
LTYPE
  2
BORDER
 70
    64
  3
__ __ . __ __ . __ __ . __ __ . __ __ . __ __
 72
    65
 73
     6
 40
0.000770
 49
0.000220
 49
-0.000110
 49
0.000220
 49
-0.000110
 49
0.000000
 49
-0.000110
  0
LTYPE
  2
DIVIDE
 70
    64
  3
__ . . __ . . __ . . __ . . __ . . __ . . __
 72
    65
 73
     6
 40
0.000550
 49
0.000220
 49
-0.000110
 49
0.000000
 49
-0.000110
 49
0.000000
 49
-0.000110
  0
LTYPE
  2
DOTDOT
 70
    64
  3
 . .  . .  . .  . .  . .  . . 
 72
    65
 73
     5
 40
0.000242
 49
-0.000110
 49
0.000000
 49
-0.000110
 49
0.000000
 49
-0.000110
  0
ENDTAB
  0
TABLE
  2
STYLE
 70
     2
  0
STYLE
 70
     0
  2
SN0
 40
0.000000
 41
0.000440
 50
0.000000
 71
     0
 42
0.000000
  3
ROMAND
  0
STYLE
 70
    68
  2
SV0
 40
0.000000
 41
0.000440
 50
0.000000
 71
     0
 42
0.000000
  3
ROMAND
  0
ENDTAB
  0
TABLE
  2
LAYER
 70
     3
  0
LAYER
  2
FOREGROUND
 70
    64
 62
     7
  6
CONTINUOUS
  0
LAYER
  2
BACKGROUND
 70
    65
 62
    -7
  6
CONTINUOUS
  0
LAYER
  2
0
 70
    64
 62
     7
  6
CONTINUOUS
  0
ENDTAB
  0
ENDSEC
  0
SECTION
  2
ENTITIES
  0
POLYLINE
  8
FOREGROUND
  6
CONTINUOUS
 66
     1
 40
0.000000
 41
0.000000
  0
VERTEX
  8
FOREGROUND
  6
CONTINUOUS
 10
0.000000
 20
4.693920
  0
VERTEX
  8
FOREGROUND
  6
CONTINUOUS
 10
8.499920
 20
4.693920
  0
VERTEX
  8
FOREGROUND
  6
CONTINUOUS
 10
8.499920
 20
-6.306080
  0
VERTEX
  8
FOREGROUND
  6
CONTINUOUS
 10
0.000000
 20
-6.306080
  0
VERTEX
  8
FOREGROUND
  6
CONTINUOUS
 10
0.000000
 20
4.693920
  0
SEQEND
  8
0
  0
POLYLINE
  8
FOREGROUND
  6
CONTINUOUS
 66
     1
 40
0.000000
 41
0.000000
  0
VERTEX
  8
FOREGROUND
  6
CONTINUOUS
 10
0.000000
 20
4.693920
  0
VERTEX
  8
FOREGROUND
  6
CONTINUOUS
 10
8.499920
 20
4.693920
  0
VERTEX
  8
FOREGROUND
  6
CONTINUOUS
 10
8.499920
 20
-6.306080
  0
VERTEX
  8
FOREGROUND
  6
CONTINUOUS
 10
0.000000
 20
-6.306080
  0
VERTEX
  8
FOREGROUND
  6
CONTINUOUS
 10
0.000000
 20
4.693920
  0
SEQEND
  8
0
  0
SOLID
  8
0
 62
    15
 10
7.115680
 20
1.910040
 11
7.115680
 21
2.651440
 12
7.115680
 22
0.909920
 13
7.115680
 23
1.650880
  0
POLYLINE
  8
0
  6
CONTINUOUS
 66
     1
 40
0.000000
 41
0.000000
  0
VERTEX
  8
0
  6
CONTINUOUS
 10
7.115680
 20
1.910040
  0
VERTEX
  8
0
  6
CONTINUOUS
 10
7.115680
 20
2.651440
  0
VERTEX
  8
0
  6
CONTINUOUS
 10
7.115680
 20
1.650880
  0
VERTEX
  8
0
  6
CONTINUOUS
 10
7.115680
 20
0.909920
  0
VERTEX
  8
0
  6
CONTINUOUS
 10
7.115680
 20
1.910040
  0
SEQEND
  8
0
  0
SOLID
  8
0
 62
    15
 10
5.236880
 20
1.903000
 11
5.236880
 21
2.643960
 12
5.351280
 22
1.892440
 13
5.351280
 23
2.633400
  0
POLYLINE
  8
0
  6
CONTINUOUS
 66
     1
 40
0.000000
 41
0.000000
  0
VERTEX
  8
0
  6
CONTINUOUS
 10
5.236880
 20
1.903000
  0
VERTEX
  8
0
  6
CONTINUOUS
 10
5.236880
 20
2.643960
  0
VERTEX
  8
0
  6
CONTINUOUS
 10
5.351280
 20
2.633400
  0
VERTEX
  8
0
  6
CONTINUOUS
 10
5.351280
 20
1.892440
  0
VERTEX
  8
0
  6
CONTINUOUS
 10
5.236880
 20
1.903000
  0
SEQEND
  8
0
  0
SOLID
  8
0
 62
    15
 10
5.351280
 20
1.892440
 11
5.351280
 21
2.633400
 12
5.456440
 22
1.875720
 13
5.456440
 23
2.616680
  0
POLYLINE
  8
0
  6
CONTINUOUS
 66
     1
 40
0.000000
 41
0.000000
  0
VERTEX
  8
0
  6
CONTINUOUS
 10
5.351280
 20
1.892440
  0
VERTEX
  8
0
  6
CONTINUOUS
 10
5.351280
 20
2.633400
  0
VERTEX
  8
0
  6
CONTINUOUS
 10
5.456440
 20
2.616680
  0
VERTEX
  8
0
  6
CONTINUOUS
 10
5.456440
 20
1.875720
  0
VERTEX
  8
0
  6
CONTINUOUS
 10
5.351280
 20
1.892440
  0
SEQEND
  8
0
  0
SOLID
  8
0
 62
    15
 10
5.456440
 20
1.875720
 11
5.456440
 21
2.616680
 12
5.552800
 22
1.854160
 13
5.552800
 23
2.595120
  0
POLYLINE
  8
0
  6
CONTINUOUS
 66
     1
 40
0.000000
 41
0.000000
  0
VERTEX
  8
0
  6
CONTINUOUS
 10
5.456440
 20
1.875720
  0
VERTEX
  8
0
  6
CONTINUOUS
 10
5.456440
 20
2.616680
  0
VERTEX
  8
0
  6
CONTINUOUS
 10
5.552800
 20
2.595120
  0
VERTEX
  8
0
  6
CONTINUOUS
 10
5.552800
 20
1.854160
  0
VERTEX
  8
0
  6
CONTINUOUS
 10
5.456440
 20
1.875720
  0
SEQEND
  8
0
  0
SOLID
  8
0
 62
    15
 10
5.552800
 20
1.854160
 11
5.552800
 21
2.595120
 12
5.641680
 22
1.828640
 13
5.641680
 23
2.569600
  0
POLYLINE
  8
0
  6
CONTINUOUS
 66
     1
 40
0.000000
 41
0.000000
  0
VERTEX
  8
0
  6
CONTINUOUS
 10
5.552800
 20
1.854160
  0
VERTEX
  8
0
  6
CONTINUOUS
 10
5.552800
 20
2.595120
  0
VERTEX
  8
0
  6
CONTINUOUS
 10
5.641680
 20
2.569600
  0
VERTEX
  8
0
  6
CONTINUOUS
 10
5.641680
 20
1.828640
  0
VERTEX
  8
0
  6
CONTINUOUS
 10
5.552800
 20
1.854160
  0
SEQEND
  8
0
  0
SOLID
  8
0
 62
    15
 10
5.641680
 20
1.828640
 11
5.641680
 21
2.569600
 12
5.723960
 22
1.800480
 13
5.723960
 23
2.541440
  0
POLYLINE
  8
0
  6
CONTINUOUS
 66
     1
 40
0.000000
 41
0.000000
  0
VERTEX
  8
0
  6
CONTINUOUS
 10
5.641680
 20
1.828640
  0
VERTEX
  8
0
  6
CONTINUOUS
 10
5.641680
 20
2.569600
  0
VERTEX
  8
0
  6
CONTINUOUS
 10
5.723960
 20
2.541440
  0
VERTEX
  8
0
  6
CONTINUOUS
 10
5.723960
 20
1.800480
  0
VERTEX
  8
0
  6
CONTINUOUS
 10
5.641680
 20
1.828640
  0
SEQEND
  8
0
  0
SOLID
  8
0
 62
    15
 10
5.723960
 20
1.800480
 11
5.723960
 21
2.541440
 12
5.800520
 22
1.770120
 13
5.800520
 23
2.511080
  0
POLYLINE
  8
0
  6
CONTINUOUS
 66
     1
 40
0.000000
 41
0.000000
  0
VERTEX
  8
0
  6
CONTINUOUS
 10
5.723960
 20
1.800480
  0
VERTEX
  8
0
  6
CONTINUOUS
 10
5.723960
 20
2.541440
  0
VERTEX
  8
0
  6
CONTINUOUS
 10
5.800520
 20
2.511080
  0
VERTEX
  8
0
  6
CONTINUOUS
 10
5.800520
 20
1.770120
  0
VERTEX
  8
0
  6
CONTINUOUS
 10
5.723960
 20
1.800480
  0
SEQEND
  8
0
  0
SOLID
  8
0
 62
    15
 10
5.800520
 20
1.770120
 11
5.800520
 21
2.511080
 12
5.872240
 22
1.738440
 13
5.872240
 23
2.479400
  0
POLYLINE
  8
0
  6
CONTINUOUS
 66
     1
 40
0.000000
 41
0.000000
  0
VERTEX
  8
0
  6
CONTINUOUS
 10
5.800520
 20
1.770120
  0
VERTEX
  8
0
  6
CONTINUOUS
 10
5.800520
 20
2.511080
  0
VERTEX
  8
0
  6
CONTINUOUS
 10
5.872240
 20
2.479400
  0
VERTEX
  8
0
  6
CONTINUOUS
 10
5.872240
 20
1.738440
  0
VERTEX
  8
0
  6
CONTINUOUS
 10
5.800520
 20
1.770120
  0
SEQEND
  8
0
  0
SOLID
  8
0
 62
    15
 10
5.872240
 20
1.738440
 11
5.872240
 21
2.479400
 12
5.940000
 22
1.707200
 13
5.940000
 23
2.448160
  0
POLYLINE
  8
0
  6
CONTINUOUS
 66
     1
 40
0.000000
 41
0.000000
  0
VERTEX
  8
0
  6
CONTINUOUS
 10
5.872240
 20
1.738440
  0
VERTEX
  8
0
  6
CONTINUOUS
 10
5.872240
 20
2.479400
  0
VERTEX
  8
0
  6
CONTINUOUS
 10
5.940000
 20
2.448160
  0
VERTEX
  8
0
  6
CONTINUOUS
 10
5.940000
 20
1.707200
  0
VERTEX
  8
0
  6
CONTINUOUS
 10
5.872240
 20
1.738440
  0
SEQEND
  8
0
  0
SOLID
  8
0
 62
    15
 10
5.940000
 20
1.707200
 11
5.940000
 21
2.448160
 12
5.973000
 22
1.691800
 13
5.973000
 23
2.432760
  0
POLYLINE
  8
0
  6
CONTINUOUS
 66
     1
 40
0.000000
 41
0.000000
  0
VERTEX
  8
0
  6
CONTINUOUS
 10
5.940000
 20
1.707200
  0
VERTEX
  8
0
  6
CONTINUOUS
 10
5.940000
 20
2.448160
  0
VERTEX
  8
0
  6
CONTINUOUS
 10
5.973000
 20
2.432760
  0
VERTEX
  8
0
  6
CONTINUOUS
 10
5.973000
 20
1.691800
  0
VERTEX
  8
0
  6
CONTINUOUS
 10
5.940000
 20
1.707200
  0
SEQEND
  8
0
  0
SOLID
  8
0
 62
    15
 10
5.973000
 20
1.691800
 11
5.973000
 21
2.432760
 12
6.005120
 22
1.676840
 13
6.005120
 23
2.417800
  0
POLYLINE
  8
0
  6
CONTINUOUS
 66
     1
 40
0.000000
 41
0.000000
  0
VERTEX
  8
0
  6
CONTINUOUS
 10
5.973000
 20
1.691800
  0
VERTEX
  8
0
  6
CONTINUOUS
 10
5.973000
 20
2.432760
  0
VERTEX
  8
0
  6
CONTINUOUS
 10
6.005120
 20
2.417800
  0
VERTEX
  8
0
  6
CONTINUOUS
 10
6.005120
 20
1.676840
  0
VERTEX
  8
0
  6
CONTINUOUS
 10
5.973000
 20
1.691800
  0
SEQEND
  8
0
  0
SOLID
  8
0
 62
    15
 10
6.005120
 20
1.676840
 11
6.005120
 21
2.417800
 12
6.130080
 22
1.623160
 13
6.130080
 23
2.364120
  0
POLYLINE
  8
0
  6
CONTINUOUS
 66
     1
 40
0.000000
 41
0.000000
  0
VERTEX
  8
0
  6
CONTINUOUS
 10
6.005120
 20
1.676840
  0
VERTEX
  8
0
  6
CONTINUOUS
 10
6.005120
 20
2.417800
  0
VERTEX
  8
0
  6
CONTINUOUS
 10
6.130080
 20
2.364120
  0
VERTEX
  8
0
  6
CONTINUOUS
 10
6.130080
 20
1.623160
  0
VERTEX
  8
0
  6
CONTINUOUS
 10
6.005120
 20
1.676840
  0
SEQEND
  8
0
  0
SOLID
  8
0
 62
    15
 10
6.130080
 20
1.623160
 11
6.130080
 21
2.364120
 12
6.192120
 22
1.601600
 13
6.192120
 23
2.342560
  0
POLYLINE
  8
0
  6
CONTINUOUS
 66
     1
 40
0.000000
 41
0.000000
  0
VERTEX
  8
0
  6
CONTINUOUS
 10
6.130080
 20
1.623160
  0
VERTEX
  8
0
  6
CONTINUOUS
 10
6.130080
 20
2.364120
  0
VERTEX
  8
0
  6
CONTINUOUS
 10
6.192120
 20
2.342560
  0
VERTEX
  8
0
  6
CONTINUOUS
 10
6.192120
 20
1.601600
  0
VERTEX
  8
0
  6
CONTINUOUS
 10
6.130080
 20
1.623160
  0
SEQEND
  8
0
  0
SOLID
  8
0
 62
    15
 10
6.192120
 20
1.601600
 11
6.192120
 21
2.342560
 12
6.254600
 22
1.584880
 13
6.254600
 23
2.325840
  0
POLYLINE
  8
0
  6
CONTINUOUS
 66
     1
 40
0.000000
 41
0.000000
  0
VERTEX
  8
0
  6
CONTINUOUS
 10
6.192120
 20
1.601600
  0
VERTEX
  8
0
  6
CONTINUOUS
 10
6.192120
 20
2.342560
  0
VERTEX
  8
0
  6
CONTINUOUS
 10
6.254600
 20
2.325840
  0
VERTEX
  8
0
  6
CONTINUOUS
 10
6.254600
 20
1.584880
  0
VERTEX
  8
0
  6
CONTINUOUS
 10
6.192120
 20
1.601600
  0
SEQEND
  8
0
  0
SOLID
  8
0
 62
    15
 10
6.254600
 20
1.584880
 11
6.254600
 21
2.325840
 12
6.319280
 22
1.574320
 13
6.319280
 23
2.315280
  0
POLYLINE
  8
0
  6
CONTINUOUS
 66
     1
 40
0.000000
 41
0.000000
  0
VERTEX
  8
0
  6
CONTINUOUS
 10
6.254600
 20
1.584880
  0
VERTEX
  8
0
  6
CONTINUOUS
 10
6.254600
 20
2.325840
  0
VERTEX
  8
0
  6
CONTINUOUS
 10
6.319280
 20
2.315280
  0
VERTEX
  8
0
  6
CONTINUOUS
 10
6.319280
 20
1.574320
  0
VERTEX
  8
0
  6
CONTINUOUS
 10
6.254600
 20
1.584880
  0
SEQEND
  8
0
  0
SOLID
  8
0
 62
    15
 10
6.319280
 20
1.574320
 11
6.319280
 21
2.315280
 12
6.386600
 22
1.570360
 13
6.386600
 23
2.311320
  0
POLYLINE
  8
0
  6
CONTINUOUS
 66
     1
 40
0.000000
 41
0.000000
  0
VERTEX
  8
0
  6
CONTINUOUS
 10
6.319280
 20
1.574320
  0
VERTEX
  8
0
  6
CONTINUOUS
 10
6.319280
 20
2.315280
  0
VERTEX
  8
0
  6
CONTINUOUS
 10
6.386600
 20
2.311320
  0
VERTEX
  8
0
  6
CONTINUOUS
 10
6.386600
 20
1.570360
  0
VERTEX
  8
0
  6
CONTINUOUS
 10
6.319280
 20
1.574320
  0
SEQEND
  8
0
  0
SOLID
  8
0
 62
    15
 10
6.386600
 20
1.570360
 11
6.386600
 21
2.311320
 12
6.405960
 22
1.793440
 13
6.405960
 23
2.534400
  0
POLYLINE
  8
0
  6
CONTINUOUS
 66
     1
 40
0.000000
 41
0.000000
  0
VERTEX
  8
0
  6
CONTINUOUS
 10
6.386600
 20
1.570360
  0
VERTEX
  8
0
  6
CONTINUOUS
 10
6.386600
 20
2.311320
  0
VERTEX
  8
0
  6
CONTINUOUS
 10
6.405960
 20
2.534400
  0
VERTEX
  8
0
  6
CONTINUOUS
 10
6.405960
 20
1.793440
  0
VERTEX
  8
0
  6
CONTINUOUS
 10
6.386600
 20
1.570360
  0
SEQEND
  8
0
  0
SOLID
  8
0
 62
    15
 10
6.405960
 20
1.793440
 11
6.405960
 21
2.534400
 12
6.431040
 22
1.796960
 13
6.431040
 23
2.537920
  0
POLYLINE
  8
0
  6
CONTINUOUS
 66
     1
 40
0.000000
 41
0.000000
  0
VERTEX
  8
0
  6
CONTINUOUS
 10
6.405960
 20
1.793440
  0
VERTEX
  8
0
  6
CONTINUOUS
 10
6.405960
 20
2.534400
  0
VERTEX
  8
0
  6
CONTINUOUS
 10
6.431040
 20
2.537920
  0
VERTEX
  8
0
  6
CONTINUOUS
 10
6.431040
 20
1.796960
  0
VERTEX
  8
0
  6
CONTINUOUS
 10
6.405960
 20
1.793440
  0
SEQEND
  8
0
  0
SOLID
  8
0
 62
    15
 10
6.431040
 20
1.796960
 11
6.431040
 21
2.537920
 12
6.452600
 22
1.807080
 13
6.453040
 23
2.548480
  0
POLYLINE
  8
0
  6
CONTINUOUS
 66
     1
 40
0.000000
 41
0.000000
  0
VERTEX
  8
0
  6
CONTINUOUS
 10
6.431040
 20
1.796960
  0
VERTEX
  8
0
  6
CONTINUOUS
 10
6.431040
 20
2.537920
  0
VERTEX
  8
0
  6
CONTINUOUS
 10
6.453040
 20
2.548480
  0
VERTEX
  8
0
  6
CONTINUOUS
 10
6.452600
 20
1.807080
  0
VERTEX
  8
0
  6
CONTINUOUS
 10
6.431040
 20
1.796960
  0
SEQEND
  8
0
  0
SOLID
  8
0
 62
    15
 10
6.452600
 20
1.807080
 11
6.453040
 21
2.548480
 12
6.487800
 22
1.840080
 13
6.487800
 23
2.581480
  0
POLYLINE
  8
0
  6
CONTINUOUS
 66
     1
 40
0.000000
 41
0.000000
  0
VERTEX
  8
0
  6
CONTINUOUS
 10
6.452600
 20
1.807080
  0
VERTEX
  8
0
  6
CONTINUOUS
 10
6.453040
 20
2.548480
  0
VERTEX
  8
0
  6
CONTINUOUS
 10
6.487800
 20
2.581480
  0
VERTEX
  8
0
  6
CONTINUOUS
 10
6.487800
 20
1.840080
  0
VERTEX
  8
0
  6
CONTINUOUS
 10
6.452600
 20
1.807080
  0
SEQEND
  8
0
  0
SOLID
  8
0
 62
    15
 10
6.487800
 20
1.840080
 11
6.487800
 21
2.581480
 12
6.511120
 22
1.879240
 13
6.511120
 23
2.620200
  0
POLYLINE
  8
0
  6
CONTINUOUS
 66
     1
 40
0.000000
 41
0.000000
  0
VERTEX
  8
0
  6
CONTINUOUS
 10
6.487800
 20
1.840080
  0
VERTEX
  8
0
  6
CONTINUOUS
 10
6.487800
 20
2.581480
  0
VERTEX
  8
0
  6
CONTINUOUS
 10
6.511120
 20
2.620200
  0
VERTEX
  8
0
  6
CONTINUOUS
 10
6.511120
 20
1.879240
  0
VERTEX
  8
0
  6
CONTINUOUS
 10
6.487800
 20
1.840080
  0
SEQEND
  8
0
  0
SOLID
  8
0
 62
    15
 10
6.511120
 20
1.879240
 11
6.511120
 21
2.620200
 12
6.523440
 22
1.910480
 13
6.523440
 23
2.651440
  0
POLYLINE
  8
0
  6
CONTINUOUS
 66
     1
 40
0.000000
 41
0.000000
  0
VERTEX
  8
0
  6
CONTINUOUS
 10
6.511120
 20
1.879240
  0
VERTEX
  8
0
  6
CONTINUOUS
 10
6.511120
 20
2.620200
  0
VERTEX
  8
0
  6
CONTINUOUS
 10
6.523440
 20
2.651440
  0
VERTEX
  8
0
  6
CONTINUOUS
 10
6.523440
 20
1.910480
  0
VERTEX
  8
0
  6
CONTINUOUS
 10
6.511120
 20
1.879240
  0
SEQEND
  8
0
  0
SOLID
  8
0
 62
    15
 10
6.523440
 20
1.910480
 11
6.523440
 21
2.651440
 12
7.115680
 22
1.910040
 13
7.115680
 23
2.651440
  0
POLYLINE
  8
0
  6
CONTINUOUS
 66
     1
 40
0.000000
 41
0.000000
  0
VERTEX
  8
0
  6
CONTINUOUS
 10
6.523440
 20
1.910480
  0
VERTEX
  8
0
  6
CONTINUOUS
 10
6.523440
 20
2.651440
  0
VERTEX
  8
0
  6
CONTINUOUS
 10
7.115680
 20
2.651440
  0
VERTEX
  8
0
  6
CONTINUOUS
 10
7.115680
 20
1.910040
  0
VERTEX
  8
0
  6
CONTINUOUS
 10
6.523440
 20
1.910480
  0
SEQEND
  8
0
  0
SOLID
  8
0
 62
    15
 10
5.121160
 20
2.647480
 11
5.236880
 21
2.643960
 12
5.121160
 22
1.906520
 13
5.236880
 23
1.903000
  0
POLYLINE
  8
0
  6
CONTINUOUS
 66
     1
 40
0.000000
 41
0.000000
  0
VERTEX
  8
0
  6
CONTINUOUS
 10
5.121160
 20
2.647480
  0
VERTEX
  8
0
  6
CONTINUOUS
 10
5.236880
 20
2.643960
  0
VERTEX
  8
0
  6
CONTINUOUS
 10
5.236880
 20
1.903000
  0
VERTEX
  8
0
  6
CONTINUOUS
 10
5.121160
 20
1.906520
  0
VERTEX
  8
0
  6
CONTINUOUS
 10
5.121160
 20
2.647480
  0
SEQEND
  8
0
  0
SOLID
  8
0
 62
    15
 10
5.021280
 20
1.903440
 11
5.021280
 21
2.644400
 12
5.146240
 22
1.906960
 13
5.146240
 23
2.648360
  0
POLYLINE
  8
0
  6
CONTINUOUS
 66
     1
 40
0.000000
 41
0.000000
  0
VERTEX
  8
0
  6
CONTINUOUS
 10
5.021280
 20
1.903440
  0
VERTEX
  8
0
  6
CONTINUOUS
 10
5.021280
 20
2.644400
  0
VERTEX
  8
0
  6
CONTINUOUS
 10
5.146240
 20
2.648360
  0
VERTEX
  8
0
  6
CONTINUOUS
 10
5.146240
 20
1.906960
  0
VERTEX
  8
0
  6
CONTINUOUS
 10
5.021280
 20
1.903440
  0
SEQEND
  8
0
  0
SOLID
  8
0
 62
    15
 10
3.142480
 20
1.910920
 11
3.142480
 21
2.651880
 12
3.734720
 22
1.910920
 13
3.734720
 23
2.651880
  0
POLYLINE
  8
0
  6
CONTINUOUS
 66
     1
 40
0.000000
 41
0.000000
  0
VERTEX
  8
0
  6
CONTINUOUS
 10
3.142480
 20
1.910920
  0
VERTEX
  8
0
  6
CONTINUOUS
 10
3.142480
 20
2.651880
  0
VERTEX
  8
0
  6
CONTINUOUS
 10
3.734720
 20
2.651880
  0
VERTEX
  8
0
  6
CONTINUOUS
 10
3.734720
 20
1.910920
  0
VERTEX
  8
0
  6
CONTINUOUS
 10
3.142480
 20
1.910920
  0
SEQEND
  8
0
  0
SOLID
  8
0
 62
    15
 10
3.734720
 20
1.910920
 11
3.734720
 21
2.651880
 12
3.746600
 22
1.879680
 13
3.746600
 23
2.620640
  0
POLYLINE
  8
0
  6
CONTINUOUS
 66
     1
 40
0.000000
 41
0.000000
  0
VERTEX
  8
0
  6
CONTINUOUS
 10
3.734720
 20
1.910920
  0
VERTEX
  8
0
  6
CONTINUOUS
 10
3.734720
 20
2.651880
  0
VERTEX
  8
0
  6
CONTINUOUS
 10
3.746600
 20
2.620640
  0
VERTEX
  8
0
  6
CONTINUOUS
 10
3.746600
 20
1.879680
  0
VERTEX
  8
0
  6
CONTINUOUS
 10
3.734720
 20
1.910920
  0
SEQEND
  8
0
  0
SOLID
  8
0
 62
    15
 10
3.746600
 20
1.879680
 11
3.746600
 21
2.620640
 12
3.769920
 22
1.840520
 13
3.769920
 23
2.581920
  0
POLYLINE
  8
0
  6
CONTINUOUS
 66
     1
 40
0.000000
 41
0.000000
  0
VERTEX
  8
0
  6
CONTINUOUS
 10
3.746600
 20
1.879680
  0
VERTEX
  8
0
  6
CONTINUOUS
 10
3.746600
 20
2.620640
  0
VERTEX
  8
0
  6
CONTINUOUS
 10
3.769920
 20
2.581920
  0
VERTEX
  8
0
  6
CONTINUOUS
 10
3.769920
 20
1.840520
  0
VERTEX
  8
0
  6
CONTINUOUS
 10
3.746600
 20
1.879680
  0
SEQEND
  8
0
  0
SOLID
  8
0
 62
    15
 10
3.769920
 20
1.840520
 11
3.769920
 21
2.581920
 12
3.805120
 22
1.807520
 13
3.805120
 23
2.548920
  0
POLYLINE
  8
0
  6
CONTINUOUS
 66
     1
 40
0.000000
 41
0.000000
  0
VERTEX
  8
0
  6
CONTINUOUS
 10
3.769920
 20
1.840520
  0
VERTEX
  8
0
  6
CONTINUOUS
 10
3.769920
 20
2.581920
  0
VERTEX
  8
0
  6
CONTINUOUS
 10
3.805120
 20
2.548920
  0
VERTEX
  8
0
  6
CONTINUOUS
 10
3.805120
 20
1.807520
  0
VERTEX
  8
0
  6
CONTINUOUS
 10
3.769920
 20
1.840520
  0
SEQEND
  8
0
  0
SOLID
  8
0
 62
    15
 10
3.805120
 20
1.807520
 11
3.805120
 21
2.548920
 12
3.827120
 22
1.797400
 13
3.827120
 23
2.538800
  0
POLYLINE
  8
0
  6
CONTINUOUS
 66
     1
 40
0.000000
 41
0.000000
  0
VERTEX
  8
0
  6
CONTINUOUS
 10
3.805120
 20
1.807520
  0
VERTEX
  8
0
  6
CONTINUOUS
 10
3.805120
 20
2.548920
  0
VERTEX
  8
0
  6
CONTINUOUS
 10
3.827120
 20
2.538800
  0
VERTEX
  8
0
  6
CONTINUOUS
 10
3.827120
 20
1.797400
  0
VERTEX
  8
0
  6
CONTINUOUS
 10
3.805120
 20
1.807520
  0
SEQEND
  8
0
  0
SOLID
  8
0
 62
    15
 10
3.827120
 20
1.797400
 11
3.827120
 21
2.538800
 12
3.851760
 22
1.793880
 13
3.851760
 23
2.534840
  0
POLYLINE
  8
0
  6
CONTINUOUS
 66
     1
 40
0.000000
 41
0.000000
  0
VERTEX
  8
0
  6
CONTINUOUS
 10
3.827120
 20
1.797400
  0
VERTEX
  8
0
  6
CONTINUOUS
 10
3.827120
 20
2.538800
  0
VERTEX
  8
0
  6
CONTINUOUS
 10
3.851760
 20
2.534840
  0
VERTEX
  8
0
  6
CONTINUOUS
 10
3.851760
 20
1.793880
  0
VERTEX
  8
0
  6
CONTINUOUS
 10
3.827120
 20
1.797400
  0
SEQEND
  8
0
  0
SOLID
  8
0
 62
    15
 10
3.851760
 20
1.793880
 11
3.851760
 21
2.534840
 12
3.871560
 22
1.570800
 13
3.871560
 23
2.311760
  0
POLYLINE
  8
0
  6
CONTINUOUS
 66
     1
 40
0.000000
 41
0.000000
  0
VERTEX
  8
0
  6
CONTINUOUS
 10
3.851760
 20
1.793880
  0
VERTEX
  8
0
  6
CONTINUOUS
 10
3.851760
 20
2.534840
  0
VERTEX
  8
0
  6
CONTINUOUS
 10
3.871560
 20
2.311760
  0
VERTEX
  8
0
  6
CONTINUOUS
 10
3.871560
 20
1.570800
  0
VERTEX
  8
0
  6
CONTINUOUS
 10
3.851760
 20
1.793880
  0
SEQEND
  8
0
  0
SOLID
  8
0
 62
    15
 10
3.871560
 20
1.570800
 11
3.871560
 21
2.311760
 12
3.938880
 22
1.574760
 13
3.938880
 23
2.315720
  0
POLYLINE
  8
0
  6
CONTINUOUS
 66
     1
 40
0.000000
 41
0.000000
  0
VERTEX
  8
0
  6
CONTINUOUS
 10
3.871560
 20
1.570800
  0
VERTEX
  8
0
  6
CONTINUOUS
 10
3.871560
 20
2.311760
  0
VERTEX
  8
0
  6
CONTINUOUS
 10
3.938880
 20
2.315720
  0
VERTEX
  8
0
  6
CONTINUOUS
 10
3.938880
 20
1.574760
  0
VERTEX
  8
0
  6
CONTINUOUS
 10
3.871560
 20
1.570800
  0
SEQEND
  8
0
  0
SOLID
  8
0
 62
    15
 10
3.938880
 20
1.574760
 11
3.938880
 21
2.315720
 12
4.003120
 22
1.585320
 13
4.003120
 23
2.326280
  0
POLYLINE
  8
0
  6
CONTINUOUS
 66
     1
 40
0.000000
 41
0.000000
  0
VERTEX
  8
0
  6
CONTINUOUS
 10
3.938880
 20
1.574760
  0
VERTEX
  8
0
  6
CONTINUOUS
 10
3.938880
 20
2.315720
  0
VERTEX
  8
0
  6
CONTINUOUS
 10
4.003120
 20
2.326280
  0
VERTEX
  8
0
  6
CONTINUOUS
 10
4.003120
 20
1.585320
  0
VERTEX
  8
0
  6
CONTINUOUS
 10
3.938880
 20
1.574760
  0
SEQEND
  8
0
  0
SOLID
  8
0
 62
    15
 10
4.003120
 20
1.585320
 11
4.003120
 21
2.326280
 12
4.066040
 22
1.602040
 13
4.066040
 23
2.343000
  0
POLYLINE
  8
0
  6
CONTINUOUS
 66
     1
 40
0.000000
 41
0.000000
  0
VERTEX
  8
0
  6
CONTINUOUS
 10
4.003120
 20
1.585320
  0
VERTEX
  8
0
  6
CONTINUOUS
 10
4.003120
 20
2.326280
  0
VERTEX
  8
0
  6
CONTINUOUS
 10
4.066040
 20
2.343000
  0
VERTEX
  8
0
  6
CONTINUOUS
 10
4.066040
 20
1.602040
  0
VERTEX
  8
0
  6
CONTINUOUS
 10
4.003120
 20
1.585320
  0
SEQEND
  8
0
  0
SOLID
  8
0
 62
    15
 10
4.066040
 20
1.602040
 11
4.066040
 21
2.343000
 12
4.128080
 22
1.623600
 13
4.128080
 23
2.364560
  0
POLYLINE
  8
0
  6
CONTINUOUS
 66
     1
 40
0.000000
 41
0.000000
  0
VERTEX
  8
0
  6
CONTINUOUS
 10
4.066040
 20
1.602040
  0
VERTEX
  8
0
  6
CONTINUOUS
 10
4.066040
 20
2.343000
  0
VERTEX
  8
0
  6
CONTINUOUS
 10
4.128080
 20
2.364560
  0
VERTEX
  8
0
  6
CONTINUOUS
 10
4.128080
 20
1.623600
  0
VERTEX
  8
0
  6
CONTINUOUS
 10
4.066040
 20
1.602040
  0
SEQEND
  8
0
  0
SOLID
  8
0
 62
    15
 10
4.128080
 20
1.623600
 11
4.128080
 21
2.364560
 12
4.253040
 22
1.677280
 13
4.253040
 23
2.418240
  0
POLYLINE
  8
0
  6
CONTINUOUS
 66
     1
 40
0.000000
 41
0.000000
  0
VERTEX
  8
0
  6
CONTINUOUS
 10
4.128080
 20
1.623600
  0
VERTEX
  8
0
  6
CONTINUOUS
 10
4.128080
 20
2.364560
  0
VERTEX
  8
0
  6
CONTINUOUS
 10
4.253040
 20
2.418240
  0
VERTEX
  8
0
  6
CONTINUOUS
 10
4.253040
 20
1.677280
  0
VERTEX
  8
0
  6
CONTINUOUS
 10
4.128080
 20
1.623600
  0
SEQEND
  8
0
  0
SOLID
  8
0
 62
    15
 10
4.253040
 20
1.677280
 11
4.253040
 21
2.418240
 12
4.317720
 22
1.707640
 13
4.317720
 23
2.448600
  0
POLYLINE
  8
0
  6
CONTINUOUS
 66
     1
 40
0.000000
 41
0.000000
  0
VERTEX
  8
0
  6
CONTINUOUS
 10
4.253040
 20
1.677280
  0
VERTEX
  8
0
  6
CONTINUOUS
 10
4.253040
 20
2.418240
  0
VERTEX
  8
0
  6
CONTINUOUS
 10
4.317720
 20
2.448600
  0
VERTEX
  8
0
  6
CONTINUOUS
 10
4.317720
 20
1.707640
  0
VERTEX
  8
0
  6
CONTINUOUS
 10
4.253040
 20
1.677280
  0
SEQEND
  8
0
  0
SOLID
  8
0
 62
    15
 10
4.317720
 20
1.707640
 11
4.317720
 21
2.448600
 12
4.385480
 22
1.738880
 13
4.385920
 23
2.479840
  0
POLYLINE
  8
0
  6
CONTINUOUS
 66
     1
 40
0.000000
 41
0.000000
  0
VERTEX
  8
0
  6
CONTINUOUS
 10
4.317720
 20
1.707640
  0
VERTEX
  8
0
  6
CONTINUOUS
 10
4.317720
 20
2.448600
  0
VERTEX
  8
0
  6
CONTINUOUS
 10
4.385920
 20
2.479840
  0
VERTEX
  8
0
  6
CONTINUOUS
 10
4.385480
 20
1.738880
  0
VERTEX
  8
0
  6
CONTINUOUS
 10
4.317720
 20
1.707640
  0
SEQEND
  8
0
  0
SOLID
  8
0
 62
    15
 10
4.385480
 20
1.738880
 11
4.385920
 21
2.479840
 12
4.457200
 22
1.770560
 13
4.457640
 23
2.511520
  0
POLYLINE
  8
0
  6
CONTINUOUS
 66
     1
 40
0.000000
 41
0.000000
  0
VERTEX
  8
0
  6
CONTINUOUS
 10
4.385480
 20
1.738880
  0
VERTEX
  8
0
  6
CONTINUOUS
 10
4.385920
 20
2.479840
  0
VERTEX
  8
0
  6
CONTINUOUS
 10
4.457640
 20
2.511520
  0
VERTEX
  8
0
  6
CONTINUOUS
 10
4.457200
 20
1.770560
  0
VERTEX
  8
0
  6
CONTINUOUS
 10
4.385480
 20
1.738880
  0
SEQEND
  8
0
  0
SOLID
  8
0
 62
    15
 10
4.457200
 20
1.770560
 11
4.457640
 21
2.511520
 12
4.533760
 22
1.800920
 13
4.533760
 23
2.541880
  0
POLYLINE
  8
0
  6
CONTINUOUS
 66
     1
 40
0.000000
 41
0.000000
  0
VERTEX
  8
0
  6
CONTINUOUS
 10
4.457200
 20
1.770560
  0
VERTEX
  8
0
  6
CONTINUOUS
 10
4.457640
 20
2.511520
  0
VERTEX
  8
0
  6
CONTINUOUS
 10
4.533760
 20
2.541880
  0
VERTEX
  8
0
  6
CONTINUOUS
 10
4.533760
 20
1.800920
  0
VERTEX
  8
0
  6
CONTINUOUS
 10
4.457200
 20
1.770560
  0
SEQEND
  8
0
  0
SOLID
  8
0
 62
    15
 10
4.533760
 20
1.800920
 11
4.533760
 21
2.541880
 12
4.616040
 22
1.829080
 13
4.616040
 23
2.570040
  0
POLYLINE
  8
0
  6
CONTINUOUS
 66
     1
 40
0.000000
 41
0.000000
  0
VERTEX
  8
0
  6
CONTINUOUS
 10
4.533760
 20
1.800920
  0
VERTEX
  8
0
  6
CONTINUOUS
 10
4.533760
 20
2.541880
  0
VERTEX
  8
0
  6
CONTINUOUS
 10
4.616040
 20
2.570040
  0
VERTEX
  8
0
  6
CONTINUOUS
 10
4.616040
 20
1.829080
  0
VERTEX
  8
0
  6
CONTINUOUS
 10
4.533760
 20
1.800920
  0
SEQEND
  8
0
  0
SOLID
  8
0
 62
    15
 10
4.616040
 20
1.829080
 11
4.616040
 21
2.570040
 12
4.704920
 22
1.854600
 13
4.704920
 23
2.595560
  0
POLYLINE
  8
0
  6
CONTINUOUS
 66
     1
 40
0.000000
 41
0.000000
  0
VERTEX
  8
0
  6
CONTINUOUS
 10
4.616040
 20
1.829080
  0
VERTEX
  8
0
  6
CONTINUOUS
 10
4.616040
 20
2.570040
  0
VERTEX
  8
0
  6
CONTINUOUS
 10
4.704920
 20
2.595560
  0
VERTEX
  8
0
  6
CONTINUOUS
 10
4.704920
 20
1.854600
  0
VERTEX
  8
0
  6
CONTINUOUS
 10
4.616040
 20
1.829080
  0
SEQEND
  8
0
  0
SOLID
  8
0
 62
    15
 10
4.704920
 20
1.854600
 11
4.704920
 21
2.595560
 12
4.801720
 22
1.876160
 13
4.801720
 23
2.617120
  0
POLYLINE
  8
0
  6
CONTINUOUS
 66
     1
 40
0.000000
 41
0.000000
  0
VERTEX
  8
0
  6
CONTINUOUS
 10
4.704920
 20
1.854600
  0
VERTEX
  8
0
  6
CONTINUOUS
 10
4.704920
 20
2.595560
  0
VERTEX
  8
0
  6
CONTINUOUS
 10
4.801720
 20
2.617120
  0
VERTEX
  8
0
  6
CONTINUOUS
 10
4.801720
 20
1.876160
  0
VERTEX
  8
0
  6
CONTINUOUS
 10
4.704920
 20
1.854600
  0
SEQEND
  8
0
  0
SOLID
  8
0
 62
    15
 10
4.801720
 20
1.876160
 11
4.801720
 21
2.617120
 12
4.906440
 22
1.892880
 13
4.906880
 23
2.633840
  0
POLYLINE
  8
0
  6
CONTINUOUS
 66
     1
 40
0.000000
 41
0.000000
  0
VERTEX
  8
0
  6
CONTINUOUS
 10
4.801720
 20
1.876160
  0
VERTEX
  8
0
  6
CONTINUOUS
 10
4.801720
 20
2.617120
  0
VERTEX
  8
0
  6
CONTINUOUS
 10
4.906880
 20
2.633840
  0
VERTEX
  8
0
  6
CONTINUOUS
 10
4.906440
 20
1.892880
  0
VERTEX
  8
0
  6
CONTINUOUS
 10
4.801720
 20
1.876160
  0
SEQEND
  8
0
  0
SOLID
  8
0
 62
    15
 10
4.906440
 20
1.892880
 11
4.906880
 21
2.633840
 12
5.021280
 22
1.903440
 13
5.021280
 23
2.644400
  0
POLYLINE
  8
0
  6
CONTINUOUS
 66
     1
 40
0.000000
 41
0.000000
  0
VERTEX
  8
0
  6
CONTINUOUS
 10
4.906440
 20
1.892880
  0
VERTEX
  8
0
  6
CONTINUOUS
 10
4.906880
 20
2.633840
  0
VERTEX
  8
0
  6
CONTINUOUS
 10
5.021280
 20
2.644400
  0
VERTEX
  8
0
  6
CONTINUOUS
 10
5.021280
 20
1.903440
  0
VERTEX
  8
0
  6
CONTINUOUS
 10
4.906440
 20
1.892880
  0
SEQEND
  8
0
  0
SOLID
  8
0
 62
    15
 10
5.111920
 20
1.906520
 11
5.111920
 21
2.647480
 12
5.121160
 22
1.906520
 13
5.121160
 23
2.647480
  0
POLYLINE
  8
0
  6
CONTINUOUS
 66
     1
 40
0.000000
 41
0.000000
  0
VERTEX
  8
0
  6
CONTINUOUS
 10
5.111920
 20
1.906520
  0
VERTEX
  8
0
  6
CONTINUOUS
 10
5.111920
 20
2.647480
  0
VERTEX
  8
0
  6
CONTINUOUS
 10
5.121160
 20
2.647480
  0
VERTEX
  8
0
  6
CONTINUOUS
 10
5.121160
 20
1.906520
  0
VERTEX
  8
0
  6
CONTINUOUS
 10
5.111920
 20
1.906520
  0
SEQEND
  8
0
  0
POLYLINE
  8
0
  6
CONTINUOUS
 66
     1
 40
0.000000
 41
0.000000
  0
VERTEX
  8
0
  6
CONTINUOUS
 10
5.111920
 20
1.906520
  0
VERTEX
  8
0
  6
CONTINUOUS
 10
5.236880
 20
1.903000
  0
VERTEX
  8
0
  6
CONTINUOUS
 10
5.351280
 20
1.892440
  0
VERTEX
  8
0
  6
CONTINUOUS
 10
5.456440
 20
1.875720
  0
VERTEX
  8
0
  6
CONTINUOUS
 10
5.552800
 20
1.854160
  0
VERTEX
  8
0
  6
CONTINUOUS
 10
5.641680
 20
1.828640
  0
VERTEX
  8
0
  6
CONTINUOUS
 10
5.723960
 20
1.800480
  0
VERTEX
  8
0
  6
CONTINUOUS
 10
5.800520
 20
1.770120
  0
VERTEX
  8
0
  6
CONTINUOUS
 10
5.872240
 20
1.738440
  0
VERTEX
  8
0
  6
CONTINUOUS
 10
5.940000
 20
1.707200
  0
VERTEX
  8
0
  6
CONTINUOUS
 10
5.973000
 20
1.691800
  0
VERTEX
  8
0
  6
CONTINUOUS
 10
6.005120
 20
1.676840
  0
VERTEX
  8
0
  6
CONTINUOUS
 10
6.130080
 20
1.623160
  0
VERTEX
  8
0
  6
CONTINUOUS
 10
6.192120
 20
1.601600
  0
VERTEX
  8
0
  6
CONTINUOUS
 10
6.254600
 20
1.584880
  0
VERTEX
  8
0
  6
CONTINUOUS
 10
6.319280
 20
1.574320
  0
VERTEX
  8
0
  6
CONTINUOUS
 10
6.386600
 20
1.570360
  0
VERTEX
  8
0
  6
CONTINUOUS
 10
6.405960
 20
1.793440
  0
VERTEX
  8
0
  6
CONTINUOUS
 10
6.431040
 20
1.796960
  0
VERTEX
  8
0
  6
CONTINUOUS
 10
6.452600
 20
1.807080
  0
VERTEX
  8
0
  6
CONTINUOUS
 10
6.487800
 20
1.840080
  0
VERTEX
  8
0
  6
CONTINUOUS
 10
6.511120
 20
1.879240
  0
VERTEX
  8
0
  6
CONTINUOUS
 10
6.523440
 20
1.910480
  0
VERTEX
  8
0
  6
CONTINUOUS
 10
7.115680
 20
1.910040
  0
VERTEX
  8
0
  6
CONTINUOUS
 10
7.115680
 20
0.909920
  0
VERTEX
  8
0
  6
CONTINUOUS
 10
3.142480
 20
0.909920
  0
VERTEX
  8
0
  6
CONTINUOUS
 10
3.142480
 20
1.910920
  0
VERTEX
  8
0
  6
CONTINUOUS
 10
3.734720
 20
1.910920
  0
VERTEX
  8
0
  6
CONTINUOUS
 10
3.746600
 20
1.879680
  0
VERTEX
  8
0
  6
CONTINUOUS
 10
3.769920
 20
1.840520
  0
VERTEX
  8
0
  6
CONTINUOUS
 10
3.805120
 20
1.807520
  0
VERTEX
  8
0
  6
CONTINUOUS
 10
3.827120
 20
1.797400
  0
VERTEX
  8
0
  6
CONTINUOUS
 10
3.851760
 20
1.793880
  0
VERTEX
  8
0
  6
CONTINUOUS
 10
3.871560
 20
1.570800
  0
VERTEX
  8
0
  6
CONTINUOUS
 10
3.938880
 20
1.574760
  0
VERTEX
  8
0
  6
CONTINUOUS
 10
4.003120
 20
1.585320
  0
VERTEX
  8
0
  6
CONTINUOUS
 10
4.066040
 20
1.602040
  0
VERTEX
  8
0
  6
CONTINUOUS
 10
4.128080
 20
1.623600
  0
VERTEX
  8
0
  6
CONTINUOUS
 10
4.253040
 20
1.677280
  0
VERTEX
  8
0
  6
CONTINUOUS
 10
4.317720
 20
1.707640
  0
VERTEX
  8
0
  6
CONTINUOUS
 10
4.385480
 20
1.738880
  0
VERTEX
  8
0
  6
CONTINUOUS
 10
4.457200
 20
1.770560
  0
VERTEX
  8
0
  6
CONTINUOUS
 10
4.533760
 20
1.800920
  0
VERTEX
  8
0
  6
CONTINUOUS
 10
4.616040
 20
1.829080
  0
VERTEX
  8
0
  6
CONTINUOUS
 10
4.704920
 20
1.854600
  0
VERTEX
  8
0
  6
CONTINUOUS
 10
4.801720
 20
1.876160
  0
VERTEX
  8
0
  6
CONTINUOUS
 10
4.906440
 20
1.892880
  0
VERTEX
  8
0
  6
CONTINUOUS
 10
5.021280
 20
1.903440
  0
VERTEX
  8
0
  6
CONTINUOUS
 10
5.146240
 20
1.906960
  0
VERTEX
  8
0
  6
CONTINUOUS
 10
5.111920
 20
1.906520
  0
SEQEND
  8
0
  0
TEXT
  8
0
 10
4.834280
 20
0.693440
 40
0.138182
  1
BA  821
 41
1.000000
  7
SN0
 71
     0
 72
     5
 11
5.424691
 21
0.693440
  0
TEXT
  8
0
 10
4.890600
 20
0.501600
 40
0.138182
  1
1" x 4"
 41
1.000000
  7
SN0
 71
     0
 72
     5
 11
5.367704
 21
0.501600
  0
POLYLINE
  8
0
  6
CONTINUOUS
 66
     1
 40
0.014080
 41
0.014080
  0
VERTEX
  8
0
  6
CONTINUOUS
 10
5.046360
 20
4.223560
  0
VERTEX
  8
0
  6
CONTINUOUS
 10
5.140960
 20
4.221360
  0
VERTEX
  8
0
  6
CONTINUOUS
 10
5.229840
 20
4.215200
  0
VERTEX
  8
0
  6
CONTINUOUS
 10
5.313000
 20
4.205520
  0
VERTEX
  8
0
  6
CONTINUOUS
 10
5.390880
 20
4.192320
  0
VERTEX
  8
0
  6
CONTINUOUS
 10
5.487680
 20
4.171200
  0
VERTEX
  8
0
  6
CONTINUOUS
 10
5.576560
 20
4.145680
  0
VERTEX
  8
0
  6
CONTINUOUS
 10
5.658840
 20
4.117080
  0
VERTEX
  8
0
  6
CONTINUOUS
 10
5.771480
 20
4.071320
  0
VERTEX
  8
0
  6
CONTINUOUS
 10
6.033720
 20
3.952080
  0
VERTEX
  8
0
  6
CONTINUOUS
 10
6.095760
 20
3.928760
  0
VERTEX
  8
0
  6
CONTINUOUS
 10
6.157800
 20
3.909400
  0
VERTEX
  8
0
  6
CONTINUOUS
 10
6.221160
 20
3.895760
  0
VERTEX
  8
0
  6
CONTINUOUS
 10
6.287160
 20
3.888280
  0
VERTEX
  8
0
  6
CONTINUOUS
 10
6.321040
 20
3.887400
  0
VERTEX
  8
0
  6
CONTINUOUS
 10
6.340840
 20
4.110040
  0
VERTEX
  8
0
  6
CONTINUOUS
 10
6.353600
 20
4.110920
  0
VERTEX
  8
0
  6
CONTINUOUS
 10
6.376920
 20
4.118400
  0
VERTEX
  8
0
  6
CONTINUOUS
 10
6.397600
 20
4.131160
  0
VERTEX
  8
0
  6
CONTINUOUS
 10
6.415200
 20
4.147880
  0
VERTEX
  8
0
  6
CONTINUOUS
 10
6.435880
 20
4.176480
  0
VERTEX
  8
0
  6
CONTINUOUS
 10
6.453480
 20
4.213440
  0
VERTEX
  8
0
  6
CONTINUOUS
 10
6.457880
 20
4.227520
  0
VERTEX
  8
0
  6
CONTINUOUS
 10
7.050560
 20
4.227080
  0
VERTEX
  8
0
  6
CONTINUOUS
 10
7.050560
 20
3.226520
  0
VERTEX
  8
0
  6
CONTINUOUS
 10
3.076920
 20
3.226520
  0
VERTEX
  8
0
  6
CONTINUOUS
 10
3.076920
 20
4.227960
  0
VERTEX
  8
0
  6
CONTINUOUS
 10
3.669160
 20
4.227960
  0
VERTEX
  8
0
  6
CONTINUOUS
 10
3.681480
 20
4.196280
  0
VERTEX
  8
0
  6
CONTINUOUS
 10
3.697760
 20
4.167240
  0
VERTEX
  8
0
  6
CONTINUOUS
 10
3.720640
 20
4.139520
  0
VERTEX
  8
0
  6
CONTINUOUS
 10
3.740000
 20
4.124560
  0
VERTEX
  8
0
  6
CONTINUOUS
 10
3.761560
 20
4.114440
  0
VERTEX
  8
0
  6
CONTINUOUS
 10
3.773880
 20
4.111360
  0
VERTEX
  8
0
  6
CONTINUOUS
 10
3.786640
 20
4.110480
  0
VERTEX
  8
0
  6
CONTINUOUS
 10
3.806440
 20
3.887840
  0
VERTEX
  8
0
  6
CONTINUOUS
 10
3.840320
 20
3.888720
  0
VERTEX
  8
0
  6
CONTINUOUS
 10
3.906320
 20
3.896200
  0
VERTEX
  8
0
  6
CONTINUOUS
 10
3.969680
 20
3.909840
  0
VERTEX
  8
0
  6
CONTINUOUS
 10
4.031720
 20
3.929200
  0
VERTEX
  8
0
  6
CONTINUOUS
 10
4.093760
 20
3.952520
  0
VERTEX
  8
0
  6
CONTINUOUS
 10
4.356000
 20
4.071760
  0
VERTEX
  8
0
  6
CONTINUOUS
 10
4.468640
 20
4.117520
  0
VERTEX
  8
0
  6
CONTINUOUS
 10
4.550920
 20
4.146120
  0
VERTEX
  8
0
  6
CONTINUOUS
 10
4.639800
 20
4.171640
  0
VERTEX
  8
0
  6
CONTINUOUS
 10
4.736600
 20
4.192760
  0
VERTEX
  8
0
  6
CONTINUOUS
 10
4.814480
 20
4.205960
  0
VERTEX
  8
0
  6
CONTINUOUS
 10
4.897640
 20
4.215640
  0
VERTEX
  8
0
  6
CONTINUOUS
 10
4.986520
 20
4.221800
  0
VERTEX
  8
0
  6
CONTINUOUS
 10
5.081120
 20
4.224000
  0
VERTEX
  8
0
  6
CONTINUOUS
 10
5.046360
 20
4.223560
  0
SEQEND
  8
0
  0
ENDSEC
  0
EOF
