  0
SECTION
  2
HEADER
  9
$ACADVER
  1
AC1006
  9
$EXTMIN
 10
5.275600
 20
0.388960
  9
$EXTMAX
 10
7.473400
 20
2.247960
  9
$LTSCALE
 40
0.044000
  9
$PDMODE
 70
    35
  9
$PDSIZE
 40
0.035200
  0
ENDSEC
  0
SECTION
  2
TABLES
  0
TABLE
  2
LTYPE
 70
     9
  0
LTYPE
  2
CONTINUOUS
 70
    64
  3
Solid line
 72
    65
 73
     0
 40
0.000000
  0
LTYPE
  2
DASHED
 70
    64
  3
__ __ __ __ __ __ __ __ __ __ __ __ __ __ __
 72
    65
 73
     2
 40
0.000330
 49
0.000220
 49
-0.000110
  0
LTYPE
  2
HIDDEN
 70
    64
  3
 _ _ _ _ _ _ _ _ _ _ _ _ _ _ _ _ _ _ _ _ _ _
 72
    65
 73
     2
 40
0.000165
 49
0.000110
 49
-0.000055
  0
LTYPE
  2
CENTER
 70
    64
  3
____ _ ____ _ ____ _ ____ _ ____ _ ____ _ ____
 72
    65
 73
     4
 40
0.000880
 49
0.000550
 49
-0.000110
 49
0.000110
 49
-0.000110
  0
LTYPE
  2
PHANTOM
 70
    64
  3
_____ _ _ _____ _ _ _____ _ _ _____ _ _ ____
 72
    65
 73
     6
 40
0.001100
 49
0.000550
 49
-0.000110
 49
0.000110
 49
-0.000110
 49
0.000110
 49
-0.000110
  0
LTYPE
  2
DOT
 70
    64
  3
...............................................
 72
    65
 73
     2
 40
0.000110
 49
0.000000
 49
-0.000110
  0
LTYPE
  2
DASHDOT
 70
    64
  3
__ . __ . __ . __ . __ . __ . __ . __ . __ . __
 72
    65
 73
     4
 40
0.000440
 49
0.000220
 49
-0.000110
 49
0.000000
 49
-0.000110
  0
LTYPE
  2
BORDER
 70
    64
  3
__ __ . __ __ . __ __ . __ __ . __ __ . __ __
 72
    65
 73
     6
 40
0.000770
 49
0.000220
 49
-0.000110
 49
0.000220
 49
-0.000110
 49
0.000000
 49
-0.000110
  0
LTYPE
  2
DIVIDE
 70
    64
  3
__ . . __ . . __ . . __ . . __ . . __ . . __
 72
    65
 73
     6
 40
0.000550
 49
0.000220
 49
-0.000110
 49
0.000000
 49
-0.000110
 49
0.000000
 49
-0.000110
  0
LTYPE
  2
DOTDOT
 70
    64
  3
 . .  . .  . .  . .  . .  . . 
 72
    65
 73
     5
 40
0.000242
 49
-0.000110
 49
0.000000
 49
-0.000110
 49
0.000000
 49
-0.000110
  0
ENDTAB
  0
TABLE
  2
STYLE
 70
     2
  0
STYLE
 70
     0
  2
SN0
 40
0.000000
 41
0.000440
 50
0.000000
 71
     0
 42
0.000000
  3
ROMAND
  0
STYLE
 70
    68
  2
SV0
 40
0.000000
 41
0.000440
 50
0.000000
 71
     0
 42
0.000000
  3
ROMAND
  0
ENDTAB
  0
TABLE
  2
LAYER
 70
     3
  0
LAYER
  2
FOREGROUND
 70
    64
 62
     7
  6
CONTINUOUS
  0
LAYER
  2
BACKGROUND
 70
    65
 62
    -7
  6
CONTINUOUS
  0
LAYER
  2
0
 70
    64
 62
     7
  6
CONTINUOUS
  0
ENDTAB
  0
ENDSEC
  0
SECTION
  2
ENTITIES
  0
POLYLINE
  8
FOREGROUND
  6
CONTINUOUS
 66
     1
 40
0.000000
 41
0.000000
  0
VERTEX
  8
FOREGROUND
  6
CONTINUOUS
 10
0.000000
 20
2.636920
  0
VERTEX
  8
FOREGROUND
  6
CONTINUOUS
 10
8.499920
 20
2.636920
  0
VERTEX
  8
FOREGROUND
  6
CONTINUOUS
 10
8.499920
 20
-8.363080
  0
VERTEX
  8
FOREGROUND
  6
CONTINUOUS
 10
0.000000
 20
-8.363080
  0
VERTEX
  8
FOREGROUND
  6
CONTINUOUS
 10
0.000000
 20
2.636920
  0
SEQEND
  8
0
  0
POLYLINE
  8
FOREGROUND
  6
CONTINUOUS
 66
     1
 40
0.000000
 41
0.000000
  0
VERTEX
  8
FOREGROUND
  6
CONTINUOUS
 10
0.000000
 20
2.636920
  0
VERTEX
  8
FOREGROUND
  6
CONTINUOUS
 10
8.499920
 20
2.636920
  0
VERTEX
  8
FOREGROUND
  6
CONTINUOUS
 10
8.499920
 20
-8.363080
  0
VERTEX
  8
FOREGROUND
  6
CONTINUOUS
 10
0.000000
 20
-8.363080
  0
VERTEX
  8
FOREGROUND
  6
CONTINUOUS
 10
0.000000
 20
2.636920
  0
SEQEND
  8
0
  0
TEXT
  8
0
 10
5.450280
 20
0.624360
 40
0.138109
  1
BA  820
 41
1.000000
  7
SN0
 71
     0
 72
     5
 11
6.040060
 21
0.624360
  0
TEXT
  8
0
 10
5.368440
 20
0.432520
 40
0.138109
  1
5/8" x 5/8"
 41
1.000000
  7
SN0
 71
     0
 72
     5
 11
6.121186
 21
0.432520
  0
SOLID
  8
0
 62
    15
 10
5.716920
 20
1.391280
 11
5.719560
 21
2.150280
 12
5.730560
 22
1.359600
 13
5.732760
 23
2.118600
  0
POLYLINE
  8
0
  6
CONTINUOUS
 66
     1
 40
0.000000
 41
0.000000
  0
VERTEX
  8
0
  6
CONTINUOUS
 10
5.716920
 20
1.391280
  0
VERTEX
  8
0
  6
CONTINUOUS
 10
5.719560
 20
2.150280
  0
VERTEX
  8
0
  6
CONTINUOUS
 10
5.732760
 20
2.118600
  0
VERTEX
  8
0
  6
CONTINUOUS
 10
5.730560
 20
1.359600
  0
VERTEX
  8
0
  6
CONTINUOUS
 10
5.716920
 20
1.391280
  0
SEQEND
  8
0
  0
SOLID
  8
0
 62
    15
 10
5.550160
 20
1.430880
 11
5.552800
 21
2.189880
 12
5.553680
 22
1.445400
 13
5.556320
 23
2.204400
  0
POLYLINE
  8
0
  6
CONTINUOUS
 66
     1
 40
0.000000
 41
0.000000
  0
VERTEX
  8
0
  6
CONTINUOUS
 10
5.550160
 20
1.430880
  0
VERTEX
  8
0
  6
CONTINUOUS
 10
5.552800
 20
2.189880
  0
VERTEX
  8
0
  6
CONTINUOUS
 10
5.556320
 20
2.204400
  0
VERTEX
  8
0
  6
CONTINUOUS
 10
5.553680
 20
1.445400
  0
VERTEX
  8
0
  6
CONTINUOUS
 10
5.550160
 20
1.430880
  0
SEQEND
  8
0
  0
SOLID
  8
0
 62
    15
 10
5.553680
 20
1.445400
 11
5.556320
 21
2.204400
 12
5.567320
 22
1.468720
 13
5.569960
 23
2.227720
  0
POLYLINE
  8
0
  6
CONTINUOUS
 66
     1
 40
0.000000
 41
0.000000
  0
VERTEX
  8
0
  6
CONTINUOUS
 10
5.553680
 20
1.445400
  0
VERTEX
  8
0
  6
CONTINUOUS
 10
5.556320
 20
2.204400
  0
VERTEX
  8
0
  6
CONTINUOUS
 10
5.569960
 20
2.227720
  0
VERTEX
  8
0
  6
CONTINUOUS
 10
5.567320
 20
1.468720
  0
VERTEX
  8
0
  6
CONTINUOUS
 10
5.553680
 20
1.445400
  0
SEQEND
  8
0
  0
SOLID
  8
0
 62
    15
 10
5.567320
 20
1.468720
 11
5.569960
 21
2.227720
 12
5.577000
 22
1.477520
 13
5.579200
 23
2.236520
  0
POLYLINE
  8
0
  6
CONTINUOUS
 66
     1
 40
0.000000
 41
0.000000
  0
VERTEX
  8
0
  6
CONTINUOUS
 10
5.567320
 20
1.468720
  0
VERTEX
  8
0
  6
CONTINUOUS
 10
5.569960
 20
2.227720
  0
VERTEX
  8
0
  6
CONTINUOUS
 10
5.579200
 20
2.236520
  0
VERTEX
  8
0
  6
CONTINUOUS
 10
5.577000
 20
1.477520
  0
VERTEX
  8
0
  6
CONTINUOUS
 10
5.567320
 20
1.468720
  0
SEQEND
  8
0
  0
SOLID
  8
0
 62
    15
 10
5.577000
 20
1.477520
 11
5.579200
 21
2.236520
 12
5.588000
 22
1.483680
 13
5.590640
 23
2.243120
  0
POLYLINE
  8
0
  6
CONTINUOUS
 66
     1
 40
0.000000
 41
0.000000
  0
VERTEX
  8
0
  6
CONTINUOUS
 10
5.577000
 20
1.477520
  0
VERTEX
  8
0
  6
CONTINUOUS
 10
5.579200
 20
2.236520
  0
VERTEX
  8
0
  6
CONTINUOUS
 10
5.590640
 20
2.243120
  0
VERTEX
  8
0
  6
CONTINUOUS
 10
5.588000
 20
1.483680
  0
VERTEX
  8
0
  6
CONTINUOUS
 10
5.577000
 20
1.477520
  0
SEQEND
  8
0
  0
SOLID
  8
0
 62
    15
 10
5.588000
 20
1.483680
 11
5.590640
 21
2.243120
 12
5.600320
 22
1.487640
 13
5.602960
 23
2.246640
  0
POLYLINE
  8
0
  6
CONTINUOUS
 66
     1
 40
0.000000
 41
0.000000
  0
VERTEX
  8
0
  6
CONTINUOUS
 10
5.588000
 20
1.483680
  0
VERTEX
  8
0
  6
CONTINUOUS
 10
5.590640
 20
2.243120
  0
VERTEX
  8
0
  6
CONTINUOUS
 10
5.602960
 20
2.246640
  0
VERTEX
  8
0
  6
CONTINUOUS
 10
5.600320
 20
1.487640
  0
VERTEX
  8
0
  6
CONTINUOUS
 10
5.588000
 20
1.483680
  0
SEQEND
  8
0
  0
SOLID
  8
0
 62
    15
 10
5.600320
 20
1.487640
 11
5.602960
 21
2.246640
 12
5.613960
 22
1.488520
 13
5.616160
 23
2.247520
  0
POLYLINE
  8
0
  6
CONTINUOUS
 66
     1
 40
0.000000
 41
0.000000
  0
VERTEX
  8
0
  6
CONTINUOUS
 10
5.600320
 20
1.487640
  0
VERTEX
  8
0
  6
CONTINUOUS
 10
5.602960
 20
2.246640
  0
VERTEX
  8
0
  6
CONTINUOUS
 10
5.616160
 20
2.247520
  0
VERTEX
  8
0
  6
CONTINUOUS
 10
5.613960
 20
1.488520
  0
VERTEX
  8
0
  6
CONTINUOUS
 10
5.600320
 20
1.487640
  0
SEQEND
  8
0
  0
SOLID
  8
0
 62
    15
 10
5.613960
 20
1.488520
 11
5.616160
 21
2.247520
 12
5.628040
 22
1.485880
 13
5.630680
 23
2.244880
  0
POLYLINE
  8
0
  6
CONTINUOUS
 66
     1
 40
0.000000
 41
0.000000
  0
VERTEX
  8
0
  6
CONTINUOUS
 10
5.613960
 20
1.488520
  0
VERTEX
  8
0
  6
CONTINUOUS
 10
5.616160
 20
2.247520
  0
VERTEX
  8
0
  6
CONTINUOUS
 10
5.630680
 20
2.244880
  0
VERTEX
  8
0
  6
CONTINUOUS
 10
5.628040
 20
1.485880
  0
VERTEX
  8
0
  6
CONTINUOUS
 10
5.613960
 20
1.488520
  0
SEQEND
  8
0
  0
SOLID
  8
0
 62
    15
 10
5.628040
 20
1.485880
 11
5.630680
 21
2.244880
 12
5.643000
 22
1.480160
 13
5.645200
 23
2.239160
  0
POLYLINE
  8
0
  6
CONTINUOUS
 66
     1
 40
0.000000
 41
0.000000
  0
VERTEX
  8
0
  6
CONTINUOUS
 10
5.628040
 20
1.485880
  0
VERTEX
  8
0
  6
CONTINUOUS
 10
5.630680
 20
2.244880
  0
VERTEX
  8
0
  6
CONTINUOUS
 10
5.645200
 20
2.239160
  0
VERTEX
  8
0
  6
CONTINUOUS
 10
5.643000
 20
1.480160
  0
VERTEX
  8
0
  6
CONTINUOUS
 10
5.628040
 20
1.485880
  0
SEQEND
  8
0
  0
SOLID
  8
0
 62
    15
 10
5.643000
 20
1.480160
 11
5.645200
 21
2.239160
 12
5.657960
 22
1.470920
 13
5.660600
 23
2.229920
  0
POLYLINE
  8
0
  6
CONTINUOUS
 66
     1
 40
0.000000
 41
0.000000
  0
VERTEX
  8
0
  6
CONTINUOUS
 10
5.643000
 20
1.480160
  0
VERTEX
  8
0
  6
CONTINUOUS
 10
5.645200
 20
2.239160
  0
VERTEX
  8
0
  6
CONTINUOUS
 10
5.660600
 20
2.229920
  0
VERTEX
  8
0
  6
CONTINUOUS
 10
5.657960
 20
1.470920
  0
VERTEX
  8
0
  6
CONTINUOUS
 10
5.643000
 20
1.480160
  0
SEQEND
  8
0
  0
SOLID
  8
0
 62
    15
 10
5.657960
 20
1.470920
 11
5.660600
 21
2.229920
 12
5.673360
 22
1.457280
 13
5.676000
 23
2.216280
  0
POLYLINE
  8
0
  6
CONTINUOUS
 66
     1
 40
0.000000
 41
0.000000
  0
VERTEX
  8
0
  6
CONTINUOUS
 10
5.657960
 20
1.470920
  0
VERTEX
  8
0
  6
CONTINUOUS
 10
5.660600
 20
2.229920
  0
VERTEX
  8
0
  6
CONTINUOUS
 10
5.676000
 20
2.216280
  0
VERTEX
  8
0
  6
CONTINUOUS
 10
5.673360
 20
1.457280
  0
VERTEX
  8
0
  6
CONTINUOUS
 10
5.657960
 20
1.470920
  0
SEQEND
  8
0
  0
SOLID
  8
0
 62
    15
 10
5.673360
 20
1.457280
 11
5.676000
 21
2.216280
 12
5.688320
 22
1.439680
 13
5.690960
 23
2.198680
  0
POLYLINE
  8
0
  6
CONTINUOUS
 66
     1
 40
0.000000
 41
0.000000
  0
VERTEX
  8
0
  6
CONTINUOUS
 10
5.673360
 20
1.457280
  0
VERTEX
  8
0
  6
CONTINUOUS
 10
5.676000
 20
2.216280
  0
VERTEX
  8
0
  6
CONTINUOUS
 10
5.690960
 20
2.198680
  0
VERTEX
  8
0
  6
CONTINUOUS
 10
5.688320
 20
1.439680
  0
VERTEX
  8
0
  6
CONTINUOUS
 10
5.673360
 20
1.457280
  0
SEQEND
  8
0
  0
SOLID
  8
0
 62
    15
 10
5.688320
 20
1.439680
 11
5.690960
 21
2.198680
 12
5.702840
 22
1.417680
 13
5.705480
 23
2.176680
  0
POLYLINE
  8
0
  6
CONTINUOUS
 66
     1
 40
0.000000
 41
0.000000
  0
VERTEX
  8
0
  6
CONTINUOUS
 10
5.688320
 20
1.439680
  0
VERTEX
  8
0
  6
CONTINUOUS
 10
5.690960
 20
2.198680
  0
VERTEX
  8
0
  6
CONTINUOUS
 10
5.705480
 20
2.176680
  0
VERTEX
  8
0
  6
CONTINUOUS
 10
5.702840
 20
1.417680
  0
VERTEX
  8
0
  6
CONTINUOUS
 10
5.688320
 20
1.439680
  0
SEQEND
  8
0
  0
SOLID
  8
0
 62
    15
 10
5.702840
 20
1.417680
 11
5.705480
 21
2.176680
 12
5.716920
 22
1.391280
 13
5.719560
 23
2.150280
  0
POLYLINE
  8
0
  6
CONTINUOUS
 66
     1
 40
0.000000
 41
0.000000
  0
VERTEX
  8
0
  6
CONTINUOUS
 10
5.702840
 20
1.417680
  0
VERTEX
  8
0
  6
CONTINUOUS
 10
5.705480
 20
2.176680
  0
VERTEX
  8
0
  6
CONTINUOUS
 10
5.719560
 20
2.150280
  0
VERTEX
  8
0
  6
CONTINUOUS
 10
5.716920
 20
1.391280
  0
VERTEX
  8
0
  6
CONTINUOUS
 10
5.702840
 20
1.417680
  0
SEQEND
  8
0
  0
SOLID
  8
0
 62
    15
 10
5.430040
 20
1.404040
 11
5.432680
 21
2.163040
 12
5.549280
 22
1.404040
 13
5.551920
 23
2.163040
  0
POLYLINE
  8
0
  6
CONTINUOUS
 66
     1
 40
0.000000
 41
0.000000
  0
VERTEX
  8
0
  6
CONTINUOUS
 10
5.430040
 20
1.404040
  0
VERTEX
  8
0
  6
CONTINUOUS
 10
5.432680
 20
2.163040
  0
VERTEX
  8
0
  6
CONTINUOUS
 10
5.551920
 20
2.163040
  0
VERTEX
  8
0
  6
CONTINUOUS
 10
5.549280
 20
1.404040
  0
VERTEX
  8
0
  6
CONTINUOUS
 10
5.430040
 20
1.404040
  0
SEQEND
  8
0
  0
SOLID
  8
0
 62
    15
 10
5.730560
 20
1.359600
 11
5.732760
 21
2.118600
 12
5.744200
 22
1.327040
 13
5.746840
 23
2.086040
  0
POLYLINE
  8
0
  6
CONTINUOUS
 66
     1
 40
0.000000
 41
0.000000
  0
VERTEX
  8
0
  6
CONTINUOUS
 10
5.730560
 20
1.359600
  0
VERTEX
  8
0
  6
CONTINUOUS
 10
5.732760
 20
2.118600
  0
VERTEX
  8
0
  6
CONTINUOUS
 10
5.746840
 20
2.086040
  0
VERTEX
  8
0
  6
CONTINUOUS
 10
5.744200
 20
1.327040
  0
VERTEX
  8
0
  6
CONTINUOUS
 10
5.730560
 20
1.359600
  0
SEQEND
  8
0
  0
SOLID
  8
0
 62
    15
 10
5.744200
 20
1.327040
 11
5.746840
 21
2.086040
 12
5.760040
 22
1.297560
 13
5.762680
 23
2.056560
  0
POLYLINE
  8
0
  6
CONTINUOUS
 66
     1
 40
0.000000
 41
0.000000
  0
VERTEX
  8
0
  6
CONTINUOUS
 10
5.744200
 20
1.327040
  0
VERTEX
  8
0
  6
CONTINUOUS
 10
5.746840
 20
2.086040
  0
VERTEX
  8
0
  6
CONTINUOUS
 10
5.762680
 20
2.056560
  0
VERTEX
  8
0
  6
CONTINUOUS
 10
5.760040
 20
1.297560
  0
VERTEX
  8
0
  6
CONTINUOUS
 10
5.744200
 20
1.327040
  0
SEQEND
  8
0
  0
SOLID
  8
0
 62
    15
 10
5.760040
 20
1.297560
 11
5.762680
 21
2.056560
 12
5.777640
 22
1.271160
 13
5.780280
 23
2.030160
  0
POLYLINE
  8
0
  6
CONTINUOUS
 66
     1
 40
0.000000
 41
0.000000
  0
VERTEX
  8
0
  6
CONTINUOUS
 10
5.760040
 20
1.297560
  0
VERTEX
  8
0
  6
CONTINUOUS
 10
5.762680
 20
2.056560
  0
VERTEX
  8
0
  6
CONTINUOUS
 10
5.780280
 20
2.030160
  0
VERTEX
  8
0
  6
CONTINUOUS
 10
5.777640
 20
1.271160
  0
VERTEX
  8
0
  6
CONTINUOUS
 10
5.760040
 20
1.297560
  0
SEQEND
  8
0
  0
SOLID
  8
0
 62
    15
 10
5.777640
 20
1.271160
 11
5.780280
 21
2.030160
 12
5.797000
 22
1.247840
 13
5.799640
 23
2.006840
  0
POLYLINE
  8
0
  6
CONTINUOUS
 66
     1
 40
0.000000
 41
0.000000
  0
VERTEX
  8
0
  6
CONTINUOUS
 10
5.777640
 20
1.271160
  0
VERTEX
  8
0
  6
CONTINUOUS
 10
5.780280
 20
2.030160
  0
VERTEX
  8
0
  6
CONTINUOUS
 10
5.799640
 20
2.006840
  0
VERTEX
  8
0
  6
CONTINUOUS
 10
5.797000
 20
1.247840
  0
VERTEX
  8
0
  6
CONTINUOUS
 10
5.777640
 20
1.271160
  0
SEQEND
  8
0
  0
SOLID
  8
0
 62
    15
 10
5.797000
 20
1.247840
 11
5.799640
 21
2.006840
 12
5.839240
 22
1.208240
 13
5.841880
 23
1.967240
  0
POLYLINE
  8
0
  6
CONTINUOUS
 66
     1
 40
0.000000
 41
0.000000
  0
VERTEX
  8
0
  6
CONTINUOUS
 10
5.797000
 20
1.247840
  0
VERTEX
  8
0
  6
CONTINUOUS
 10
5.799640
 20
2.006840
  0
VERTEX
  8
0
  6
CONTINUOUS
 10
5.841880
 20
1.967240
  0
VERTEX
  8
0
  6
CONTINUOUS
 10
5.839240
 20
1.208240
  0
VERTEX
  8
0
  6
CONTINUOUS
 10
5.797000
 20
1.247840
  0
SEQEND
  8
0
  0
SOLID
  8
0
 62
    15
 10
5.839240
 20
1.208240
 11
5.841880
 21
1.967240
 12
5.884560
 22
1.177880
 13
5.887200
 23
1.936880
  0
POLYLINE
  8
0
  6
CONTINUOUS
 66
     1
 40
0.000000
 41
0.000000
  0
VERTEX
  8
0
  6
CONTINUOUS
 10
5.839240
 20
1.208240
  0
VERTEX
  8
0
  6
CONTINUOUS
 10
5.841880
 20
1.967240
  0
VERTEX
  8
0
  6
CONTINUOUS
 10
5.887200
 20
1.936880
  0
VERTEX
  8
0
  6
CONTINUOUS
 10
5.884560
 20
1.177880
  0
VERTEX
  8
0
  6
CONTINUOUS
 10
5.839240
 20
1.208240
  0
SEQEND
  8
0
  0
SOLID
  8
0
 62
    15
 10
5.884560
 20
1.177880
 11
5.887200
 21
1.936880
 12
5.931200
 22
1.155000
 13
5.933840
 23
1.914000
  0
POLYLINE
  8
0
  6
CONTINUOUS
 66
     1
 40
0.000000
 41
0.000000
  0
VERTEX
  8
0
  6
CONTINUOUS
 10
5.884560
 20
1.177880
  0
VERTEX
  8
0
  6
CONTINUOUS
 10
5.887200
 20
1.936880
  0
VERTEX
  8
0
  6
CONTINUOUS
 10
5.933840
 20
1.914000
  0
VERTEX
  8
0
  6
CONTINUOUS
 10
5.931200
 20
1.155000
  0
VERTEX
  8
0
  6
CONTINUOUS
 10
5.884560
 20
1.177880
  0
SEQEND
  8
0
  0
SOLID
  8
0
 62
    15
 10
5.931200
 20
1.155000
 11
5.933840
 21
1.914000
 12
5.976960
 22
1.137840
 13
5.979600
 23
1.896840
  0
POLYLINE
  8
0
  6
CONTINUOUS
 66
     1
 40
0.000000
 41
0.000000
  0
VERTEX
  8
0
  6
CONTINUOUS
 10
5.931200
 20
1.155000
  0
VERTEX
  8
0
  6
CONTINUOUS
 10
5.933840
 20
1.914000
  0
VERTEX
  8
0
  6
CONTINUOUS
 10
5.979600
 20
1.896840
  0
VERTEX
  8
0
  6
CONTINUOUS
 10
5.976960
 20
1.137840
  0
VERTEX
  8
0
  6
CONTINUOUS
 10
5.931200
 20
1.155000
  0
SEQEND
  8
0
  0
SOLID
  8
0
 62
    15
 10
5.976960
 20
1.137840
 11
5.979600
 21
1.896840
 12
6.020080
 22
1.124640
 13
6.022720
 23
1.883640
  0
POLYLINE
  8
0
  6
CONTINUOUS
 66
     1
 40
0.000000
 41
0.000000
  0
VERTEX
  8
0
  6
CONTINUOUS
 10
5.976960
 20
1.137840
  0
VERTEX
  8
0
  6
CONTINUOUS
 10
5.979600
 20
1.896840
  0
VERTEX
  8
0
  6
CONTINUOUS
 10
6.022720
 20
1.883640
  0
VERTEX
  8
0
  6
CONTINUOUS
 10
6.020080
 20
1.124640
  0
VERTEX
  8
0
  6
CONTINUOUS
 10
5.976960
 20
1.137840
  0
SEQEND
  8
0
  0
SOLID
  8
0
 62
    15
 10
6.020080
 20
1.124640
 11
6.022720
 21
1.883640
 12
6.039880
 22
1.119360
 13
6.042520
 23
1.878360
  0
POLYLINE
  8
0
  6
CONTINUOUS
 66
     1
 40
0.000000
 41
0.000000
  0
VERTEX
  8
0
  6
CONTINUOUS
 10
6.020080
 20
1.124640
  0
VERTEX
  8
0
  6
CONTINUOUS
 10
6.022720
 20
1.883640
  0
VERTEX
  8
0
  6
CONTINUOUS
 10
6.042520
 20
1.878360
  0
VERTEX
  8
0
  6
CONTINUOUS
 10
6.039880
 20
1.119360
  0
VERTEX
  8
0
  6
CONTINUOUS
 10
6.020080
 20
1.124640
  0
SEQEND
  8
0
  0
SOLID
  8
0
 62
    15
 10
6.058360
 20
1.114520
 11
6.061000
 21
1.873520
 12
6.058360
 22
0.881320
 13
6.061000
 23
1.640320
  0
POLYLINE
  8
0
  6
CONTINUOUS
 66
     1
 40
0.000000
 41
0.000000
  0
VERTEX
  8
0
  6
CONTINUOUS
 10
6.058360
 20
1.114520
  0
VERTEX
  8
0
  6
CONTINUOUS
 10
6.061000
 20
1.873520
  0
VERTEX
  8
0
  6
CONTINUOUS
 10
6.061000
 20
1.640320
  0
VERTEX
  8
0
  6
CONTINUOUS
 10
6.058360
 20
0.881320
  0
VERTEX
  8
0
  6
CONTINUOUS
 10
6.058360
 20
1.114520
  0
SEQEND
  8
0
  0
SOLID
  8
0
 62
    15
 10
6.039880
 20
1.119360
 11
6.042520
 21
1.878360
 12
6.058360
 22
1.114520
 13
6.061000
 23
1.873520
  0
POLYLINE
  8
0
  6
CONTINUOUS
 66
     1
 40
0.000000
 41
0.000000
  0
VERTEX
  8
0
  6
CONTINUOUS
 10
6.039880
 20
1.119360
  0
VERTEX
  8
0
  6
CONTINUOUS
 10
6.042520
 20
1.878360
  0
VERTEX
  8
0
  6
CONTINUOUS
 10
6.061000
 20
1.873520
  0
VERTEX
  8
0
  6
CONTINUOUS
 10
6.058360
 20
1.114520
  0
VERTEX
  8
0
  6
CONTINUOUS
 10
6.039880
 20
1.119360
  0
SEQEND
  8
0
  0
SOLID
  8
0
 62
    15
 10
5.549280
 20
1.415480
 11
5.551480
 21
2.174480
 12
5.550160
 22
1.430880
 13
5.552800
 23
2.189880
  0
POLYLINE
  8
0
  6
CONTINUOUS
 66
     1
 40
0.000000
 41
0.000000
  0
VERTEX
  8
0
  6
CONTINUOUS
 10
5.549280
 20
1.415480
  0
VERTEX
  8
0
  6
CONTINUOUS
 10
5.551480
 20
2.174480
  0
VERTEX
  8
0
  6
CONTINUOUS
 10
5.552800
 20
2.189880
  0
VERTEX
  8
0
  6
CONTINUOUS
 10
5.550160
 20
1.430880
  0
VERTEX
  8
0
  6
CONTINUOUS
 10
5.549280
 20
1.415480
  0
SEQEND
  8
0
  0
POLYLINE
  8
0
  6
CONTINUOUS
 66
     1
 40
0.000000
 41
0.000000
  0
VERTEX
  8
0
  6
CONTINUOUS
 10
5.549280
 20
1.415480
  0
VERTEX
  8
0
  6
CONTINUOUS
 10
5.550160
 20
1.430880
  0
VERTEX
  8
0
  6
CONTINUOUS
 10
5.553680
 20
1.445400
  0
VERTEX
  8
0
  6
CONTINUOUS
 10
5.567320
 20
1.468720
  0
VERTEX
  8
0
  6
CONTINUOUS
 10
5.577000
 20
1.477520
  0
VERTEX
  8
0
  6
CONTINUOUS
 10
5.588000
 20
1.483680
  0
VERTEX
  8
0
  6
CONTINUOUS
 10
5.600320
 20
1.487640
  0
VERTEX
  8
0
  6
CONTINUOUS
 10
5.613960
 20
1.488520
  0
VERTEX
  8
0
  6
CONTINUOUS
 10
5.628040
 20
1.485880
  0
VERTEX
  8
0
  6
CONTINUOUS
 10
5.643000
 20
1.480160
  0
VERTEX
  8
0
  6
CONTINUOUS
 10
5.657960
 20
1.470920
  0
VERTEX
  8
0
  6
CONTINUOUS
 10
5.673360
 20
1.457280
  0
VERTEX
  8
0
  6
CONTINUOUS
 10
5.688320
 20
1.439680
  0
VERTEX
  8
0
  6
CONTINUOUS
 10
5.702840
 20
1.417680
  0
VERTEX
  8
0
  6
CONTINUOUS
 10
5.716920
 20
1.391280
  0
VERTEX
  8
0
  6
CONTINUOUS
 10
5.730560
 20
1.359600
  0
VERTEX
  8
0
  6
CONTINUOUS
 10
5.744200
 20
1.327040
  0
VERTEX
  8
0
  6
CONTINUOUS
 10
5.760040
 20
1.297560
  0
VERTEX
  8
0
  6
CONTINUOUS
 10
5.777640
 20
1.271160
  0
VERTEX
  8
0
  6
CONTINUOUS
 10
5.797000
 20
1.247840
  0
VERTEX
  8
0
  6
CONTINUOUS
 10
5.839240
 20
1.208240
  0
VERTEX
  8
0
  6
CONTINUOUS
 10
5.884560
 20
1.177880
  0
VERTEX
  8
0
  6
CONTINUOUS
 10
5.931200
 20
1.155000
  0
VERTEX
  8
0
  6
CONTINUOUS
 10
5.976960
 20
1.137840
  0
VERTEX
  8
0
  6
CONTINUOUS
 10
6.020080
 20
1.124640
  0
VERTEX
  8
0
  6
CONTINUOUS
 10
6.039880
 20
1.119360
  0
VERTEX
  8
0
  6
CONTINUOUS
 10
6.058360
 20
1.114520
  0
VERTEX
  8
0
  6
CONTINUOUS
 10
6.058360
 20
0.881320
  0
VERTEX
  8
0
  6
CONTINUOUS
 10
5.430040
 20
0.881320
  0
VERTEX
  8
0
  6
CONTINUOUS
 10
5.430040
 20
1.404040
  0
VERTEX
  8
0
  6
CONTINUOUS
 10
5.549280
 20
1.404040
  0
VERTEX
  8
0
  6
CONTINUOUS
 10
5.549280
 20
1.415480
  0
SEQEND
  8
0
  0
POLYLINE
  8
0
  6
CONTINUOUS
 66
     1
 40
0.014080
 41
0.014080
  0
VERTEX
  8
0
  6
CONTINUOUS
 10
7.209840
 20
1.257080
  0
VERTEX
  8
0
  6
CONTINUOUS
 10
7.198840
 20
1.257080
  0
VERTEX
  8
0
  6
CONTINUOUS
 10
7.198840
 20
1.137840
  0
VERTEX
  8
0
  6
CONTINUOUS
 10
6.676120
 20
1.137840
  0
VERTEX
  8
0
  6
CONTINUOUS
 10
6.676120
 20
1.766600
  0
VERTEX
  8
0
  6
CONTINUOUS
 10
6.909320
 20
1.766600
  0
VERTEX
  8
0
  6
CONTINUOUS
 10
6.932640
 20
1.685200
  0
VERTEX
  8
0
  6
CONTINUOUS
 10
6.949800
 20
1.639440
  0
VERTEX
  8
0
  6
CONTINUOUS
 10
6.960360
 20
1.615680
  0
VERTEX
  8
0
  6
CONTINUOUS
 10
6.972680
 20
1.592360
  0
VERTEX
  8
0
  6
CONTINUOUS
 10
7.003040
 20
1.547040
  0
VERTEX
  8
0
  6
CONTINUOUS
 10
7.031640
 20
1.514920
  0
VERTEX
  8
0
  6
CONTINUOUS
 10
7.065960
 20
1.485880
  0
VERTEX
  8
0
  6
CONTINUOUS
 10
7.092360
 20
1.467840
  0
VERTEX
  8
0
  6
CONTINUOUS
 10
7.137680
 20
1.444960
  0
VERTEX
  8
0
  6
CONTINUOUS
 10
7.186080
 20
1.425160
  0
VERTEX
  8
0
  6
CONTINUOUS
 10
7.224360
 20
1.403600
  0
VERTEX
  8
0
  6
CONTINUOUS
 10
7.252080
 20
1.381160
  0
VERTEX
  8
0
  6
CONTINUOUS
 10
7.265720
 20
1.366200
  0
VERTEX
  8
0
  6
CONTINUOUS
 10
7.278480
 20
1.343320
  0
VERTEX
  8
0
  6
CONTINUOUS
 10
7.283320
 20
1.321760
  0
VERTEX
  8
0
  6
CONTINUOUS
 10
7.282440
 20
1.308560
  0
VERTEX
  8
0
  6
CONTINUOUS
 10
7.275840
 20
1.290080
  0
VERTEX
  8
0
  6
CONTINUOUS
 10
7.263520
 20
1.275120
  0
VERTEX
  8
0
  6
CONTINUOUS
 10
7.246360
 20
1.264560
  0
VERTEX
  8
0
  6
CONTINUOUS
 10
7.225680
 20
1.257960
  0
VERTEX
  8
0
  6
CONTINUOUS
 10
7.209840
 20
1.257080
  0
SEQEND
  8
0
  0
TEXT
  8
0
 10
6.708680
 20
0.872520
 40
0.138109
  1
BA  820
 41
1.000000
  7
SN0
 71
     0
 72
     5
 11
7.298460
 21
0.872520
  0
TEXT
  8
0
 10
6.626840
 20
0.681120
 40
0.138109
  1
5/8" x 5/8"
 41
1.000000
  7
SN0
 71
     0
 72
     5
 11
7.379587
 21
0.681120
  0
ENDSEC
  0
EOF
