  0
SECTION
  2
HEADER
  9
$ACADVER
  1
AC1006
  9
$EXTMIN
 10
3.144240
 20
0.550000
  9
$EXTMAX
 10
7.508160
 20
5.503080
  9
$LTSCALE
 40
0.044000
  9
$PDMODE
 70
    35
  9
$PDSIZE
 40
0.035200
  0
ENDSEC
  0
SECTION
  2
TABLES
  0
TABLE
  2
LTYPE
 70
     9
  0
LTYPE
  2
CONTINUOUS
 70
    64
  3
Solid line
 72
    65
 73
     0
 40
0.000000
  0
LTYPE
  2
DASHED
 70
    64
  3
__ __ __ __ __ __ __ __ __ __ __ __ __ __ __
 72
    65
 73
     2
 40
0.000330
 49
0.000220
 49
-0.000110
  0
LTYPE
  2
HIDDEN
 70
    64
  3
 _ _ _ _ _ _ _ _ _ _ _ _ _ _ _ _ _ _ _ _ _ _
 72
    65
 73
     2
 40
0.000165
 49
0.000110
 49
-0.000055
  0
LTYPE
  2
CENTER
 70
    64
  3
____ _ ____ _ ____ _ ____ _ ____ _ ____ _ ____
 72
    65
 73
     4
 40
0.000880
 49
0.000550
 49
-0.000110
 49
0.000110
 49
-0.000110
  0
LTYPE
  2
PHANTOM
 70
    64
  3
_____ _ _ _____ _ _ _____ _ _ _____ _ _ ____
 72
    65
 73
     6
 40
0.001100
 49
0.000550
 49
-0.000110
 49
0.000110
 49
-0.000110
 49
0.000110
 49
-0.000110
  0
LTYPE
  2
DOT
 70
    64
  3
...............................................
 72
    65
 73
     2
 40
0.000110
 49
0.000000
 49
-0.000110
  0
LTYPE
  2
DASHDOT
 70
    64
  3
__ . __ . __ . __ . __ . __ . __ . __ . __ . __
 72
    65
 73
     4
 40
0.000440
 49
0.000220
 49
-0.000110
 49
0.000000
 49
-0.000110
  0
LTYPE
  2
BORDER
 70
    64
  3
__ __ . __ __ . __ __ . __ __ . __ __ . __ __
 72
    65
 73
     6
 40
0.000770
 49
0.000220
 49
-0.000110
 49
0.000220
 49
-0.000110
 49
0.000000
 49
-0.000110
  0
LTYPE
  2
DIVIDE
 70
    64
  3
__ . . __ . . __ . . __ . . __ . . __ . . __
 72
    65
 73
     6
 40
0.000550
 49
0.000220
 49
-0.000110
 49
0.000000
 49
-0.000110
 49
0.000000
 49
-0.000110
  0
LTYPE
  2
DOTDOT
 70
    64
  3
 . .  . .  . .  . .  . .  . . 
 72
    65
 73
     5
 40
0.000242
 49
-0.000110
 49
0.000000
 49
-0.000110
 49
0.000000
 49
-0.000110
  0
ENDTAB
  0
TABLE
  2
STYLE
 70
     2
  0
STYLE
 70
     0
  2
SN0
 40
0.000000
 41
0.000440
 50
0.000000
 71
     0
 42
0.000000
  3
ROMAND
  0
STYLE
 70
    68
  2
SV0
 40
0.000000
 41
0.000440
 50
0.000000
 71
     0
 42
0.000000
  3
ROMAND
  0
ENDTAB
  0
TABLE
  2
LAYER
 70
     3
  0
LAYER
  2
FOREGROUND
 70
    64
 62
     7
  6
CONTINUOUS
  0
LAYER
  2
BACKGROUND
 70
    65
 62
    -7
  6
CONTINUOUS
  0
LAYER
  2
0
 70
    64
 62
     7
  6
CONTINUOUS
  0
ENDTAB
  0
ENDSEC
  0
SECTION
  2
ENTITIES
  0
POLYLINE
  8
FOREGROUND
  6
CONTINUOUS
 66
     1
 40
0.000000
 41
0.000000
  0
VERTEX
  8
FOREGROUND
  6
CONTINUOUS
 10
0.000000
 20
6.053080
  0
VERTEX
  8
FOREGROUND
  6
CONTINUOUS
 10
8.499920
 20
6.053080
  0
VERTEX
  8
FOREGROUND
  6
CONTINUOUS
 10
8.499920
 20
-4.946920
  0
VERTEX
  8
FOREGROUND
  6
CONTINUOUS
 10
0.000000
 20
-4.946920
  0
VERTEX
  8
FOREGROUND
  6
CONTINUOUS
 10
0.000000
 20
6.053080
  0
SEQEND
  8
0
  0
POLYLINE
  8
FOREGROUND
  6
CONTINUOUS
 66
     1
 40
0.000000
 41
0.000000
  0
VERTEX
  8
FOREGROUND
  6
CONTINUOUS
 10
0.000000
 20
6.053080
  0
VERTEX
  8
FOREGROUND
  6
CONTINUOUS
 10
8.499920
 20
6.053080
  0
VERTEX
  8
FOREGROUND
  6
CONTINUOUS
 10
8.499920
 20
-4.946920
  0
VERTEX
  8
FOREGROUND
  6
CONTINUOUS
 10
0.000000
 20
-4.946920
  0
VERTEX
  8
FOREGROUND
  6
CONTINUOUS
 10
0.000000
 20
6.053080
  0
SEQEND
  8
0
  0
SOLID
  8
0
 62
    15
 10
6.089600
 20
2.835360
 11
6.746520
 21
2.445960
 12
6.018760
 22
2.662440
 13
6.675680
 23
2.273040
  0
POLYLINE
  8
0
  6
CONTINUOUS
 66
     1
 40
0.000000
 41
0.000000
  0
VERTEX
  8
0
  6
CONTINUOUS
 10
6.089600
 20
2.835360
  0
VERTEX
  8
0
  6
CONTINUOUS
 10
6.746520
 20
2.445960
  0
VERTEX
  8
0
  6
CONTINUOUS
 10
6.675680
 20
2.273040
  0
VERTEX
  8
0
  6
CONTINUOUS
 10
6.018760
 20
2.662440
  0
VERTEX
  8
0
  6
CONTINUOUS
 10
6.089600
 20
2.835360
  0
SEQEND
  8
0
  0
SOLID
  8
0
 62
    15
 10
6.727600
 20
3.843840
 11
7.384520
 21
3.454440
 12
6.621560
 22
3.746160
 13
7.278480
 23
3.356760
  0
POLYLINE
  8
0
  6
CONTINUOUS
 66
     1
 40
0.000000
 41
0.000000
  0
VERTEX
  8
0
  6
CONTINUOUS
 10
6.727600
 20
3.843840
  0
VERTEX
  8
0
  6
CONTINUOUS
 10
7.384520
 20
3.454440
  0
VERTEX
  8
0
  6
CONTINUOUS
 10
7.278480
 20
3.356760
  0
VERTEX
  8
0
  6
CONTINUOUS
 10
6.621560
 20
3.746160
  0
VERTEX
  8
0
  6
CONTINUOUS
 10
6.727600
 20
3.843840
  0
SEQEND
  8
0
  0
SOLID
  8
0
 62
    15
 10
6.621560
 20
3.746160
 11
7.278480
 21
3.356760
 12
6.530040
 22
3.649800
 13
7.186960
 23
3.260400
  0
POLYLINE
  8
0
  6
CONTINUOUS
 66
     1
 40
0.000000
 41
0.000000
  0
VERTEX
  8
0
  6
CONTINUOUS
 10
6.621560
 20
3.746160
  0
VERTEX
  8
0
  6
CONTINUOUS
 10
7.278480
 20
3.356760
  0
VERTEX
  8
0
  6
CONTINUOUS
 10
7.186960
 20
3.260400
  0
VERTEX
  8
0
  6
CONTINUOUS
 10
6.530040
 20
3.649800
  0
VERTEX
  8
0
  6
CONTINUOUS
 10
6.621560
 20
3.746160
  0
SEQEND
  8
0
  0
SOLID
  8
0
 62
    15
 10
6.530040
 20
3.649800
 11
7.186960
 21
3.260400
 12
6.450840
 22
3.554760
 13
7.107760
 23
3.165360
  0
POLYLINE
  8
0
  6
CONTINUOUS
 66
     1
 40
0.000000
 41
0.000000
  0
VERTEX
  8
0
  6
CONTINUOUS
 10
6.530040
 20
3.649800
  0
VERTEX
  8
0
  6
CONTINUOUS
 10
7.186960
 20
3.260400
  0
VERTEX
  8
0
  6
CONTINUOUS
 10
7.107760
 20
3.165360
  0
VERTEX
  8
0
  6
CONTINUOUS
 10
6.450840
 20
3.554760
  0
VERTEX
  8
0
  6
CONTINUOUS
 10
6.530040
 20
3.649800
  0
SEQEND
  8
0
  0
SOLID
  8
0
 62
    15
 10
6.450840
 20
3.554760
 11
7.107760
 21
3.165360
 12
6.324560
 22
3.369080
 13
6.981040
 23
2.979680
  0
POLYLINE
  8
0
  6
CONTINUOUS
 66
     1
 40
0.000000
 41
0.000000
  0
VERTEX
  8
0
  6
CONTINUOUS
 10
6.450840
 20
3.554760
  0
VERTEX
  8
0
  6
CONTINUOUS
 10
7.107760
 20
3.165360
  0
VERTEX
  8
0
  6
CONTINUOUS
 10
6.981040
 20
2.979680
  0
VERTEX
  8
0
  6
CONTINUOUS
 10
6.324560
 20
3.369080
  0
VERTEX
  8
0
  6
CONTINUOUS
 10
6.450840
 20
3.554760
  0
SEQEND
  8
0
  0
SOLID
  8
0
 62
    15
 10
6.324560
 20
3.369080
 11
6.981040
 21
2.979680
 12
6.229960
 22
3.187800
 13
6.886880
 23
2.798400
  0
POLYLINE
  8
0
  6
CONTINUOUS
 66
     1
 40
0.000000
 41
0.000000
  0
VERTEX
  8
0
  6
CONTINUOUS
 10
6.324560
 20
3.369080
  0
VERTEX
  8
0
  6
CONTINUOUS
 10
6.981040
 20
2.979680
  0
VERTEX
  8
0
  6
CONTINUOUS
 10
6.886880
 20
2.798400
  0
VERTEX
  8
0
  6
CONTINUOUS
 10
6.229960
 20
3.187800
  0
VERTEX
  8
0
  6
CONTINUOUS
 10
6.324560
 20
3.369080
  0
SEQEND
  8
0
  0
SOLID
  8
0
 62
    15
 10
6.229960
 20
3.187800
 11
6.886880
 21
2.798400
 12
6.156040
 22
3.010040
 13
6.812960
 23
2.620640
  0
POLYLINE
  8
0
  6
CONTINUOUS
 66
     1
 40
0.000000
 41
0.000000
  0
VERTEX
  8
0
  6
CONTINUOUS
 10
6.229960
 20
3.187800
  0
VERTEX
  8
0
  6
CONTINUOUS
 10
6.886880
 20
2.798400
  0
VERTEX
  8
0
  6
CONTINUOUS
 10
6.812960
 20
2.620640
  0
VERTEX
  8
0
  6
CONTINUOUS
 10
6.156040
 20
3.010040
  0
VERTEX
  8
0
  6
CONTINUOUS
 10
6.229960
 20
3.187800
  0
SEQEND
  8
0
  0
SOLID
  8
0
 62
    15
 10
6.156040
 20
3.010040
 11
6.812960
 21
2.620640
 12
6.122600
 22
2.922480
 13
6.779520
 23
2.533080
  0
POLYLINE
  8
0
  6
CONTINUOUS
 66
     1
 40
0.000000
 41
0.000000
  0
VERTEX
  8
0
  6
CONTINUOUS
 10
6.156040
 20
3.010040
  0
VERTEX
  8
0
  6
CONTINUOUS
 10
6.812960
 20
2.620640
  0
VERTEX
  8
0
  6
CONTINUOUS
 10
6.779520
 20
2.533080
  0
VERTEX
  8
0
  6
CONTINUOUS
 10
6.122600
 20
2.922480
  0
VERTEX
  8
0
  6
CONTINUOUS
 10
6.156040
 20
3.010040
  0
SEQEND
  8
0
  0
SOLID
  8
0
 62
    15
 10
6.122600
 20
2.922480
 11
6.779520
 21
2.533080
 12
6.105880
 22
2.878920
 13
6.762800
 23
2.489520
  0
POLYLINE
  8
0
  6
CONTINUOUS
 66
     1
 40
0.000000
 41
0.000000
  0
VERTEX
  8
0
  6
CONTINUOUS
 10
6.122600
 20
2.922480
  0
VERTEX
  8
0
  6
CONTINUOUS
 10
6.779520
 20
2.533080
  0
VERTEX
  8
0
  6
CONTINUOUS
 10
6.762800
 20
2.489520
  0
VERTEX
  8
0
  6
CONTINUOUS
 10
6.105880
 20
2.878920
  0
VERTEX
  8
0
  6
CONTINUOUS
 10
6.122600
 20
2.922480
  0
SEQEND
  8
0
  0
SOLID
  8
0
 62
    15
 10
6.105880
 20
2.878920
 11
6.762800
 21
2.489520
 12
6.089600
 22
2.835360
 13
6.746520
 23
2.445960
  0
POLYLINE
  8
0
  6
CONTINUOUS
 66
     1
 40
0.000000
 41
0.000000
  0
VERTEX
  8
0
  6
CONTINUOUS
 10
6.105880
 20
2.878920
  0
VERTEX
  8
0
  6
CONTINUOUS
 10
6.762800
 20
2.489520
  0
VERTEX
  8
0
  6
CONTINUOUS
 10
6.746520
 20
2.445960
  0
VERTEX
  8
0
  6
CONTINUOUS
 10
6.089600
 20
2.835360
  0
VERTEX
  8
0
  6
CONTINUOUS
 10
6.105880
 20
2.878920
  0
SEQEND
  8
0
  0
SOLID
  8
0
 62
    15
 10
6.849480
 20
3.943280
 11
7.505960
 21
3.554320
 12
6.727600
 22
3.843840
 13
7.384520
 23
3.454440
  0
POLYLINE
  8
0
  6
CONTINUOUS
 66
     1
 40
0.000000
 41
0.000000
  0
VERTEX
  8
0
  6
CONTINUOUS
 10
6.849480
 20
3.943280
  0
VERTEX
  8
0
  6
CONTINUOUS
 10
7.505960
 20
3.554320
  0
VERTEX
  8
0
  6
CONTINUOUS
 10
7.384520
 20
3.454440
  0
VERTEX
  8
0
  6
CONTINUOUS
 10
6.727600
 20
3.843840
  0
VERTEX
  8
0
  6
CONTINUOUS
 10
6.849480
 20
3.943280
  0
SEQEND
  8
0
  0
SOLID
  8
0
 62
    15
 10
6.018760
 20
2.662440
 11
6.675680
 21
2.273040
 12
5.931200
 22
2.490840
 13
6.588120
 23
2.101440
  0
POLYLINE
  8
0
  6
CONTINUOUS
 66
     1
 40
0.000000
 41
0.000000
  0
VERTEX
  8
0
  6
CONTINUOUS
 10
6.018760
 20
2.662440
  0
VERTEX
  8
0
  6
CONTINUOUS
 10
6.675680
 20
2.273040
  0
VERTEX
  8
0
  6
CONTINUOUS
 10
6.588120
 20
2.101440
  0
VERTEX
  8
0
  6
CONTINUOUS
 10
5.931200
 20
2.490840
  0
VERTEX
  8
0
  6
CONTINUOUS
 10
6.018760
 20
2.662440
  0
SEQEND
  8
0
  0
SOLID
  8
0
 62
    15
 10
5.931200
 20
2.490840
 11
6.588120
 21
2.101440
 12
5.833960
 22
2.329360
 13
6.490880
 23
1.939960
  0
POLYLINE
  8
0
  6
CONTINUOUS
 66
     1
 40
0.000000
 41
0.000000
  0
VERTEX
  8
0
  6
CONTINUOUS
 10
5.931200
 20
2.490840
  0
VERTEX
  8
0
  6
CONTINUOUS
 10
6.588120
 20
2.101440
  0
VERTEX
  8
0
  6
CONTINUOUS
 10
6.490880
 20
1.939960
  0
VERTEX
  8
0
  6
CONTINUOUS
 10
5.833960
 20
2.329360
  0
VERTEX
  8
0
  6
CONTINUOUS
 10
5.931200
 20
2.490840
  0
SEQEND
  8
0
  0
SOLID
  8
0
 62
    15
 10
5.833960
 20
2.329360
 11
6.490880
 21
1.939960
 12
5.739800
 22
2.185920
 13
6.396720
 23
1.796520
  0
POLYLINE
  8
0
  6
CONTINUOUS
 66
     1
 40
0.000000
 41
0.000000
  0
VERTEX
  8
0
  6
CONTINUOUS
 10
5.833960
 20
2.329360
  0
VERTEX
  8
0
  6
CONTINUOUS
 10
6.490880
 20
1.939960
  0
VERTEX
  8
0
  6
CONTINUOUS
 10
6.396720
 20
1.796520
  0
VERTEX
  8
0
  6
CONTINUOUS
 10
5.739800
 20
2.185920
  0
VERTEX
  8
0
  6
CONTINUOUS
 10
5.833960
 20
2.329360
  0
SEQEND
  8
0
  0
SOLID
  8
0
 62
    15
 10
5.739800
 20
2.185920
 11
6.396720
 21
1.796520
 12
5.647840
 22
2.058320
 13
6.304320
 23
1.668920
  0
POLYLINE
  8
0
  6
CONTINUOUS
 66
     1
 40
0.000000
 41
0.000000
  0
VERTEX
  8
0
  6
CONTINUOUS
 10
5.739800
 20
2.185920
  0
VERTEX
  8
0
  6
CONTINUOUS
 10
6.396720
 20
1.796520
  0
VERTEX
  8
0
  6
CONTINUOUS
 10
6.304320
 20
1.668920
  0
VERTEX
  8
0
  6
CONTINUOUS
 10
5.647840
 20
2.058320
  0
VERTEX
  8
0
  6
CONTINUOUS
 10
5.739800
 20
2.185920
  0
SEQEND
  8
0
  0
SOLID
  8
0
 62
    15
 10
5.647840
 20
2.058320
 11
6.304320
 21
1.668920
 12
5.555440
 22
1.943480
 13
6.211920
 23
1.554080
  0
POLYLINE
  8
0
  6
CONTINUOUS
 66
     1
 40
0.000000
 41
0.000000
  0
VERTEX
  8
0
  6
CONTINUOUS
 10
5.647840
 20
2.058320
  0
VERTEX
  8
0
  6
CONTINUOUS
 10
6.304320
 20
1.668920
  0
VERTEX
  8
0
  6
CONTINUOUS
 10
6.211920
 20
1.554080
  0
VERTEX
  8
0
  6
CONTINUOUS
 10
5.555440
 20
1.943480
  0
VERTEX
  8
0
  6
CONTINUOUS
 10
5.647840
 20
2.058320
  0
SEQEND
  8
0
  0
SOLID
  8
0
 62
    15
 10
5.555440
 20
1.943480
 11
6.211920
 21
1.554080
 12
5.362720
 22
1.742400
 13
6.019640
 23
1.353000
  0
POLYLINE
  8
0
  6
CONTINUOUS
 66
     1
 40
0.000000
 41
0.000000
  0
VERTEX
  8
0
  6
CONTINUOUS
 10
5.555440
 20
1.943480
  0
VERTEX
  8
0
  6
CONTINUOUS
 10
6.211920
 20
1.554080
  0
VERTEX
  8
0
  6
CONTINUOUS
 10
6.019640
 20
1.353000
  0
VERTEX
  8
0
  6
CONTINUOUS
 10
5.362720
 20
1.742400
  0
VERTEX
  8
0
  6
CONTINUOUS
 10
5.555440
 20
1.943480
  0
SEQEND
  8
0
  0
SOLID
  8
0
 62
    15
 10
5.362720
 20
1.742400
 11
6.019640
 21
1.353000
 12
5.147560
 22
1.562880
 13
5.804480
 23
1.173480
  0
POLYLINE
  8
0
  6
CONTINUOUS
 66
     1
 40
0.000000
 41
0.000000
  0
VERTEX
  8
0
  6
CONTINUOUS
 10
5.362720
 20
1.742400
  0
VERTEX
  8
0
  6
CONTINUOUS
 10
6.019640
 20
1.353000
  0
VERTEX
  8
0
  6
CONTINUOUS
 10
5.804480
 20
1.173480
  0
VERTEX
  8
0
  6
CONTINUOUS
 10
5.147560
 20
1.562880
  0
VERTEX
  8
0
  6
CONTINUOUS
 10
5.362720
 20
1.742400
  0
SEQEND
  8
0
  0
SOLID
  8
0
 62
    15
 10
5.147560
 20
1.562880
 11
5.804480
 21
1.173480
 12
5.154160
 22
0.951280
 13
5.810640
 23
0.561880
  0
POLYLINE
  8
0
  6
CONTINUOUS
 66
     1
 40
0.000000
 41
0.000000
  0
VERTEX
  8
0
  6
CONTINUOUS
 10
5.147560
 20
1.562880
  0
VERTEX
  8
0
  6
CONTINUOUS
 10
5.804480
 20
1.173480
  0
VERTEX
  8
0
  6
CONTINUOUS
 10
5.810640
 20
0.561880
  0
VERTEX
  8
0
  6
CONTINUOUS
 10
5.154160
 20
0.951280
  0
VERTEX
  8
0
  6
CONTINUOUS
 10
5.147560
 20
1.562880
  0
SEQEND
  8
0
  0
SOLID
  8
0
 62
    15
 10
5.154160
 20
0.951280
 11
5.810640
 21
0.561880
 12
4.667080
 22
0.939840
 13
5.324000
 23
0.550440
  0
POLYLINE
  8
0
  6
CONTINUOUS
 66
     1
 40
0.000000
 41
0.000000
  0
VERTEX
  8
0
  6
CONTINUOUS
 10
5.154160
 20
0.951280
  0
VERTEX
  8
0
  6
CONTINUOUS
 10
5.810640
 20
0.561880
  0
VERTEX
  8
0
  6
CONTINUOUS
 10
5.324000
 20
0.550440
  0
VERTEX
  8
0
  6
CONTINUOUS
 10
4.667080
 20
0.939840
  0
VERTEX
  8
0
  6
CONTINUOUS
 10
5.154160
 20
0.951280
  0
SEQEND
  8
0
  0
SOLID
  8
0
 62
    15
 10
6.851240
 20
4.554440
 11
7.508160
 21
4.165040
 12
6.849480
 22
3.943280
 13
7.505960
 23
3.554320
  0
POLYLINE
  8
0
  6
CONTINUOUS
 66
     1
 40
0.000000
 41
0.000000
  0
VERTEX
  8
0
  6
CONTINUOUS
 10
6.851240
 20
4.554440
  0
VERTEX
  8
0
  6
CONTINUOUS
 10
7.508160
 20
4.165040
  0
VERTEX
  8
0
  6
CONTINUOUS
 10
7.505960
 20
3.554320
  0
VERTEX
  8
0
  6
CONTINUOUS
 10
6.849480
 20
3.943280
  0
VERTEX
  8
0
  6
CONTINUOUS
 10
6.851240
 20
4.554440
  0
SEQEND
  8
0
  0
POLYLINE
  8
0
  6
CONTINUOUS
 66
     1
 40
0.000000
 41
0.000000
  0
VERTEX
  8
0
  6
CONTINUOUS
 10
6.849480
 20
3.943280
  0
VERTEX
  8
0
  6
CONTINUOUS
 10
6.727600
 20
3.843840
  0
VERTEX
  8
0
  6
CONTINUOUS
 10
6.621560
 20
3.746160
  0
VERTEX
  8
0
  6
CONTINUOUS
 10
6.530040
 20
3.649800
  0
VERTEX
  8
0
  6
CONTINUOUS
 10
6.450840
 20
3.554760
  0
VERTEX
  8
0
  6
CONTINUOUS
 10
6.324560
 20
3.369080
  0
VERTEX
  8
0
  6
CONTINUOUS
 10
6.229960
 20
3.187800
  0
VERTEX
  8
0
  6
CONTINUOUS
 10
6.156040
 20
3.010040
  0
VERTEX
  8
0
  6
CONTINUOUS
 10
6.122600
 20
2.922480
  0
VERTEX
  8
0
  6
CONTINUOUS
 10
6.105880
 20
2.878920
  0
VERTEX
  8
0
  6
CONTINUOUS
 10
6.089600
 20
2.835360
  0
VERTEX
  8
0
  6
CONTINUOUS
 10
6.018760
 20
2.662440
  0
VERTEX
  8
0
  6
CONTINUOUS
 10
5.931200
 20
2.490840
  0
VERTEX
  8
0
  6
CONTINUOUS
 10
5.833960
 20
2.329360
  0
VERTEX
  8
0
  6
CONTINUOUS
 10
5.739800
 20
2.185920
  0
VERTEX
  8
0
  6
CONTINUOUS
 10
5.647840
 20
2.058320
  0
VERTEX
  8
0
  6
CONTINUOUS
 10
5.555440
 20
1.943480
  0
VERTEX
  8
0
  6
CONTINUOUS
 10
5.362720
 20
1.742400
  0
VERTEX
  8
0
  6
CONTINUOUS
 10
5.147560
 20
1.562880
  0
VERTEX
  8
0
  6
CONTINUOUS
 10
5.154160
 20
0.951280
  0
VERTEX
  8
0
  6
CONTINUOUS
 10
4.667080
 20
0.939840
  0
VERTEX
  8
0
  6
CONTINUOUS
 10
4.674560
 20
1.630200
  0
VERTEX
  8
0
  6
CONTINUOUS
 10
6.325880
 20
4.564120
  0
VERTEX
  8
0
  6
CONTINUOUS
 10
6.851240
 20
4.554440
  0
VERTEX
  8
0
  6
CONTINUOUS
 10
6.849480
 20
3.943280
  0
SEQEND
  8
0
  0
TEXT
  8
0
 10
6.407720
 20
0.835120
 40
0.138031
  1
BA  818
 41
1.000000
  7
SN0
 71
     0
 72
     5
 11
6.998622
 21
0.835120
  0
TEXT
  8
0
 10
6.205760
 20
0.643720
 40
0.138031
  1
3/4" x 4-3/16"
 41
1.000000
  7
SN0
 71
     0
 72
     5
 11
7.200586
 21
0.643720
  0
POLYLINE
  8
0
  6
CONTINUOUS
 66
     1
 40
0.014080
 41
0.014080
  0
VERTEX
  8
0
  6
CONTINUOUS
 10
3.689840
 20
5.495600
  0
VERTEX
  8
0
  6
CONTINUOUS
 10
3.800720
 20
5.451600
  0
VERTEX
  8
0
  6
CONTINUOUS
 10
3.905880
 20
5.415080
  0
VERTEX
  8
0
  6
CONTINUOUS
 10
3.973640
 20
5.394400
  0
VERTEX
  8
0
  6
CONTINUOUS
 10
4.070880
 20
5.368880
  0
VERTEX
  8
0
  6
CONTINUOUS
 10
4.164160
 20
5.349080
  0
VERTEX
  8
0
  6
CONTINUOUS
 10
4.253040
 20
5.335000
  0
VERTEX
  8
0
  6
CONTINUOUS
 10
4.338840
 20
5.326200
  0
VERTEX
  8
0
  6
CONTINUOUS
 10
4.393840
 20
5.322240
  0
VERTEX
  8
0
  6
CONTINUOUS
 10
4.500320
 20
5.320040
  0
VERTEX
  8
0
  6
CONTINUOUS
 10
4.602400
 20
5.323560
  0
VERTEX
  8
0
  6
CONTINUOUS
 10
4.700960
 20
5.331920
  0
VERTEX
  8
0
  6
CONTINUOUS
 10
4.796440
 20
5.343360
  0
VERTEX
  8
0
  6
CONTINUOUS
 10
5.120280
 20
5.390440
  0
VERTEX
  8
0
  6
CONTINUOUS
 10
5.213560
 20
5.401000
  0
VERTEX
  8
0
  6
CONTINUOUS
 10
5.308160
 20
5.407600
  0
VERTEX
  8
0
  6
CONTINUOUS
 10
5.405840
 20
5.408920
  0
VERTEX
  8
0
  6
CONTINUOUS
 10
5.548840
 20
5.405400
  0
VERTEX
  8
0
  6
CONTINUOUS
 10
5.681720
 20
5.398360
  0
VERTEX
  8
0
  6
CONTINUOUS
 10
5.805800
 20
5.388240
  0
VERTEX
  8
0
  6
CONTINUOUS
 10
5.921960
 20
5.374160
  0
VERTEX
  8
0
  6
CONTINUOUS
 10
6.031960
 20
5.357000
  0
VERTEX
  8
0
  6
CONTINUOUS
 10
6.137120
 20
5.335440
  0
VERTEX
  8
0
  6
CONTINUOUS
 10
6.204880
 20
5.319160
  0
VERTEX
  8
0
  6
CONTINUOUS
 10
6.271320
 20
5.301120
  0
VERTEX
  8
0
  6
CONTINUOUS
 10
6.402440
 20
5.259320
  0
VERTEX
  8
0
  6
CONTINUOUS
 10
6.467560
 20
5.235560
  0
VERTEX
  8
0
  6
CONTINUOUS
 10
6.599120
 20
5.181880
  0
VERTEX
  8
0
  6
CONTINUOUS
 10
7.128440
 20
5.487680
  0
VERTEX
  8
0
  6
CONTINUOUS
 10
7.377920
 20
5.069240
  0
VERTEX
  8
0
  6
CONTINUOUS
 10
6.772480
 20
4.737040
  0
VERTEX
  8
0
  6
CONTINUOUS
 10
3.406040
 20
4.735280
  0
VERTEX
  8
0
  6
CONTINUOUS
 10
3.156560
 20
5.197280
  0
VERTEX
  8
0
  6
CONTINUOUS
 10
3.689840
 20
5.495600
  0
SEQEND
  8
0
  0
ENDSEC
  0
EOF
