  0
SECTION
  2
HEADER
  9
$ACADVER
  1
AC1006
  9
$EXTMIN
 10
4.968480
 20
0.390720
  9
$EXTMAX
 10
6.899200
 20
1.777160
  9
$LTSCALE
 40
0.044000
  9
$PDMODE
 70
    35
  9
$PDSIZE
 40
0.035200
  0
ENDSEC
  0
SECTION
  2
TABLES
  0
TABLE
  2
LTYPE
 70
     9
  0
LTYPE
  2
CONTINUOUS
 70
    64
  3
Solid line
 72
    65
 73
     0
 40
0.000000
  0
LTYPE
  2
DASHED
 70
    64
  3
__ __ __ __ __ __ __ __ __ __ __ __ __ __ __
 72
    65
 73
     2
 40
0.000330
 49
0.000220
 49
-0.000110
  0
LTYPE
  2
HIDDEN
 70
    64
  3
 _ _ _ _ _ _ _ _ _ _ _ _ _ _ _ _ _ _ _ _ _ _
 72
    65
 73
     2
 40
0.000165
 49
0.000110
 49
-0.000055
  0
LTYPE
  2
CENTER
 70
    64
  3
____ _ ____ _ ____ _ ____ _ ____ _ ____ _ ____
 72
    65
 73
     4
 40
0.000880
 49
0.000550
 49
-0.000110
 49
0.000110
 49
-0.000110
  0
LTYPE
  2
PHANTOM
 70
    64
  3
_____ _ _ _____ _ _ _____ _ _ _____ _ _ ____
 72
    65
 73
     6
 40
0.001100
 49
0.000550
 49
-0.000110
 49
0.000110
 49
-0.000110
 49
0.000110
 49
-0.000110
  0
LTYPE
  2
DOT
 70
    64
  3
...............................................
 72
    65
 73
     2
 40
0.000110
 49
0.000000
 49
-0.000110
  0
LTYPE
  2
DASHDOT
 70
    64
  3
__ . __ . __ . __ . __ . __ . __ . __ . __ . __
 72
    65
 73
     4
 40
0.000440
 49
0.000220
 49
-0.000110
 49
0.000000
 49
-0.000110
  0
LTYPE
  2
BORDER
 70
    64
  3
__ __ . __ __ . __ __ . __ __ . __ __ . __ __
 72
    65
 73
     6
 40
0.000770
 49
0.000220
 49
-0.000110
 49
0.000220
 49
-0.000110
 49
0.000000
 49
-0.000110
  0
LTYPE
  2
DIVIDE
 70
    64
  3
__ . . __ . . __ . . __ . . __ . . __ . . __
 72
    65
 73
     6
 40
0.000550
 49
0.000220
 49
-0.000110
 49
0.000000
 49
-0.000110
 49
0.000000
 49
-0.000110
  0
LTYPE
  2
DOTDOT
 70
    64
  3
 . .  . .  . .  . .  . .  . . 
 72
    65
 73
     5
 40
0.000242
 49
-0.000110
 49
0.000000
 49
-0.000110
 49
0.000000
 49
-0.000110
  0
ENDTAB
  0
TABLE
  2
STYLE
 70
     2
  0
STYLE
 70
     0
  2
SN0
 40
0.000000
 41
0.000440
 50
0.000000
 71
     0
 42
0.000000
  3
ROMAND
  0
STYLE
 70
    68
  2
SV0
 40
0.000000
 41
0.000440
 50
0.000000
 71
     0
 42
0.000000
  3
ROMAND
  0
ENDTAB
  0
TABLE
  2
LAYER
 70
     3
  0
LAYER
  2
FOREGROUND
 70
    64
 62
     7
  6
CONTINUOUS
  0
LAYER
  2
BACKGROUND
 70
    65
 62
    -7
  6
CONTINUOUS
  0
LAYER
  2
0
 70
    64
 62
     7
  6
CONTINUOUS
  0
ENDTAB
  0
ENDSEC
  0
SECTION
  2
ENTITIES
  0
POLYLINE
  8
FOREGROUND
  6
CONTINUOUS
 66
     1
 40
0.000000
 41
0.000000
  0
VERTEX
  8
FOREGROUND
  6
CONTINUOUS
 10
0.000000
 20
2.167880
  0
VERTEX
  8
FOREGROUND
  6
CONTINUOUS
 10
8.499920
 20
2.167880
  0
VERTEX
  8
FOREGROUND
  6
CONTINUOUS
 10
8.499920
 20
-8.832120
  0
VERTEX
  8
FOREGROUND
  6
CONTINUOUS
 10
0.000000
 20
-8.832120
  0
VERTEX
  8
FOREGROUND
  6
CONTINUOUS
 10
0.000000
 20
2.167880
  0
SEQEND
  8
0
  0
POLYLINE
  8
FOREGROUND
  6
CONTINUOUS
 66
     1
 40
0.000000
 41
0.000000
  0
VERTEX
  8
FOREGROUND
  6
CONTINUOUS
 10
0.000000
 20
2.167880
  0
VERTEX
  8
FOREGROUND
  6
CONTINUOUS
 10
8.499920
 20
2.167880
  0
VERTEX
  8
FOREGROUND
  6
CONTINUOUS
 10
8.499920
 20
-8.832120
  0
VERTEX
  8
FOREGROUND
  6
CONTINUOUS
 10
0.000000
 20
-8.832120
  0
VERTEX
  8
FOREGROUND
  6
CONTINUOUS
 10
0.000000
 20
2.167880
  0
SEQEND
  8
0
  0
SOLID
  8
0
 62
    15
 10
5.262840
 20
1.055120
 11
5.911400
 21
1.424280
 12
5.249640
 22
1.044120
 13
5.897760
 23
1.413280
  0
POLYLINE
  8
0
  6
CONTINUOUS
 66
     1
 40
0.000000
 41
0.000000
  0
VERTEX
  8
0
  6
CONTINUOUS
 10
5.262840
 20
1.055120
  0
VERTEX
  8
0
  6
CONTINUOUS
 10
5.911400
 20
1.424280
  0
VERTEX
  8
0
  6
CONTINUOUS
 10
5.897760
 20
1.413280
  0
VERTEX
  8
0
  6
CONTINUOUS
 10
5.249640
 20
1.044120
  0
VERTEX
  8
0
  6
CONTINUOUS
 10
5.262840
 20
1.055120
  0
SEQEND
  8
0
  0
SOLID
  8
0
 62
    15
 10
5.391320
 20
1.404040
 11
6.039880
 21
1.773200
 12
5.417280
 22
1.396560
 13
6.065400
 23
1.766160
  0
POLYLINE
  8
0
  6
CONTINUOUS
 66
     1
 40
0.000000
 41
0.000000
  0
VERTEX
  8
0
  6
CONTINUOUS
 10
5.391320
 20
1.404040
  0
VERTEX
  8
0
  6
CONTINUOUS
 10
6.039880
 20
1.773200
  0
VERTEX
  8
0
  6
CONTINUOUS
 10
6.065400
 20
1.766160
  0
VERTEX
  8
0
  6
CONTINUOUS
 10
5.417280
 20
1.396560
  0
VERTEX
  8
0
  6
CONTINUOUS
 10
5.391320
 20
1.404040
  0
SEQEND
  8
0
  0
SOLID
  8
0
 62
    15
 10
5.417280
 20
1.396560
 11
6.065400
 21
1.766160
 12
5.438840
 22
1.385120
 13
6.087400
 23
1.754720
  0
POLYLINE
  8
0
  6
CONTINUOUS
 66
     1
 40
0.000000
 41
0.000000
  0
VERTEX
  8
0
  6
CONTINUOUS
 10
5.417280
 20
1.396560
  0
VERTEX
  8
0
  6
CONTINUOUS
 10
6.065400
 20
1.766160
  0
VERTEX
  8
0
  6
CONTINUOUS
 10
6.087400
 20
1.754720
  0
VERTEX
  8
0
  6
CONTINUOUS
 10
5.438840
 20
1.385120
  0
VERTEX
  8
0
  6
CONTINUOUS
 10
5.417280
 20
1.396560
  0
SEQEND
  8
0
  0
SOLID
  8
0
 62
     7
 10
5.438840
 20
1.385120
 11
6.087400
 21
1.754720
 12
5.456440
 22
1.370600
 13
6.105000
 23
1.739760
  0
POLYLINE
  8
0
  6
CONTINUOUS
 66
     1
 40
0.000000
 41
0.000000
  0
VERTEX
  8
0
  6
CONTINUOUS
 10
5.438840
 20
1.385120
  0
VERTEX
  8
0
  6
CONTINUOUS
 10
6.087400
 20
1.754720
  0
VERTEX
  8
0
  6
CONTINUOUS
 10
6.105000
 20
1.739760
  0
VERTEX
  8
0
  6
CONTINUOUS
 10
5.456440
 20
1.370600
  0
VERTEX
  8
0
  6
CONTINUOUS
 10
5.438840
 20
1.385120
  0
SEQEND
  8
0
  0
SOLID
  8
0
 62
     7
 10
5.456440
 20
1.370600
 11
6.105000
 21
1.739760
 12
5.470080
 22
1.353000
 13
6.118640
 23
1.722160
  0
POLYLINE
  8
0
  6
CONTINUOUS
 66
     1
 40
0.000000
 41
0.000000
  0
VERTEX
  8
0
  6
CONTINUOUS
 10
5.456440
 20
1.370600
  0
VERTEX
  8
0
  6
CONTINUOUS
 10
6.105000
 20
1.739760
  0
VERTEX
  8
0
  6
CONTINUOUS
 10
6.118640
 20
1.722160
  0
VERTEX
  8
0
  6
CONTINUOUS
 10
5.470080
 20
1.353000
  0
VERTEX
  8
0
  6
CONTINUOUS
 10
5.456440
 20
1.370600
  0
SEQEND
  8
0
  0
SOLID
  8
0
 62
    15
 10
5.470080
 20
1.353000
 11
6.118640
 21
1.722160
 12
5.479760
 22
1.333200
 13
6.128320
 23
1.702360
  0
POLYLINE
  8
0
  6
CONTINUOUS
 66
     1
 40
0.000000
 41
0.000000
  0
VERTEX
  8
0
  6
CONTINUOUS
 10
5.470080
 20
1.353000
  0
VERTEX
  8
0
  6
CONTINUOUS
 10
6.118640
 20
1.722160
  0
VERTEX
  8
0
  6
CONTINUOUS
 10
6.128320
 20
1.702360
  0
VERTEX
  8
0
  6
CONTINUOUS
 10
5.479760
 20
1.333200
  0
VERTEX
  8
0
  6
CONTINUOUS
 10
5.470080
 20
1.353000
  0
SEQEND
  8
0
  0
SOLID
  8
0
 62
    15
 10
5.479760
 20
1.333200
 11
6.128320
 21
1.702360
 12
5.485480
 22
1.312080
 13
6.134040
 23
1.681680
  0
POLYLINE
  8
0
  6
CONTINUOUS
 66
     1
 40
0.000000
 41
0.000000
  0
VERTEX
  8
0
  6
CONTINUOUS
 10
5.479760
 20
1.333200
  0
VERTEX
  8
0
  6
CONTINUOUS
 10
6.128320
 20
1.702360
  0
VERTEX
  8
0
  6
CONTINUOUS
 10
6.134040
 20
1.681680
  0
VERTEX
  8
0
  6
CONTINUOUS
 10
5.485480
 20
1.312080
  0
VERTEX
  8
0
  6
CONTINUOUS
 10
5.479760
 20
1.333200
  0
SEQEND
  8
0
  0
SOLID
  8
0
 62
    15
 10
5.485480
 20
1.312080
 11
6.134040
 21
1.681680
 12
5.487240
 22
1.290520
 13
6.135800
 23
1.659680
  0
POLYLINE
  8
0
  6
CONTINUOUS
 66
     1
 40
0.000000
 41
0.000000
  0
VERTEX
  8
0
  6
CONTINUOUS
 10
5.485480
 20
1.312080
  0
VERTEX
  8
0
  6
CONTINUOUS
 10
6.134040
 20
1.681680
  0
VERTEX
  8
0
  6
CONTINUOUS
 10
6.135800
 20
1.659680
  0
VERTEX
  8
0
  6
CONTINUOUS
 10
5.487240
 20
1.290520
  0
VERTEX
  8
0
  6
CONTINUOUS
 10
5.485480
 20
1.312080
  0
SEQEND
  8
0
  0
SOLID
  8
0
 62
    15
 10
5.487240
 20
1.290520
 11
6.135800
 21
1.659680
 12
5.485480
 22
1.268960
 13
6.133600
 23
1.638120
  0
POLYLINE
  8
0
  6
CONTINUOUS
 66
     1
 40
0.000000
 41
0.000000
  0
VERTEX
  8
0
  6
CONTINUOUS
 10
5.487240
 20
1.290520
  0
VERTEX
  8
0
  6
CONTINUOUS
 10
6.135800
 20
1.659680
  0
VERTEX
  8
0
  6
CONTINUOUS
 10
6.133600
 20
1.638120
  0
VERTEX
  8
0
  6
CONTINUOUS
 10
5.485480
 20
1.268960
  0
VERTEX
  8
0
  6
CONTINUOUS
 10
5.487240
 20
1.290520
  0
SEQEND
  8
0
  0
SOLID
  8
0
 62
    15
 10
5.485480
 20
1.268960
 11
6.133600
 21
1.638120
 12
5.479320
 22
1.247840
 13
6.127880
 23
1.617000
  0
POLYLINE
  8
0
  6
CONTINUOUS
 66
     1
 40
0.000000
 41
0.000000
  0
VERTEX
  8
0
  6
CONTINUOUS
 10
5.485480
 20
1.268960
  0
VERTEX
  8
0
  6
CONTINUOUS
 10
6.133600
 20
1.638120
  0
VERTEX
  8
0
  6
CONTINUOUS
 10
6.127880
 20
1.617000
  0
VERTEX
  8
0
  6
CONTINUOUS
 10
5.479320
 20
1.247840
  0
VERTEX
  8
0
  6
CONTINUOUS
 10
5.485480
 20
1.268960
  0
SEQEND
  8
0
  0
SOLID
  8
0
 62
    15
 10
5.361840
 20
1.406680
 11
6.009960
 21
1.775840
 12
5.391320
 22
1.404040
 13
6.039880
 23
1.773200
  0
POLYLINE
  8
0
  6
CONTINUOUS
 66
     1
 40
0.000000
 41
0.000000
  0
VERTEX
  8
0
  6
CONTINUOUS
 10
5.361840
 20
1.406680
  0
VERTEX
  8
0
  6
CONTINUOUS
 10
6.009960
 20
1.775840
  0
VERTEX
  8
0
  6
CONTINUOUS
 10
6.039880
 20
1.773200
  0
VERTEX
  8
0
  6
CONTINUOUS
 10
5.391320
 20
1.404040
  0
VERTEX
  8
0
  6
CONTINUOUS
 10
5.361840
 20
1.406680
  0
SEQEND
  8
0
  0
SOLID
  8
0
 62
    15
 10
5.249640
 20
1.044120
 11
5.897760
 21
1.413280
 12
5.239960
 22
1.030480
 13
5.888520
 23
1.400080
  0
POLYLINE
  8
0
  6
CONTINUOUS
 66
     1
 40
0.000000
 41
0.000000
  0
VERTEX
  8
0
  6
CONTINUOUS
 10
5.249640
 20
1.044120
  0
VERTEX
  8
0
  6
CONTINUOUS
 10
5.897760
 20
1.413280
  0
VERTEX
  8
0
  6
CONTINUOUS
 10
5.888520
 20
1.400080
  0
VERTEX
  8
0
  6
CONTINUOUS
 10
5.239960
 20
1.030480
  0
VERTEX
  8
0
  6
CONTINUOUS
 10
5.249640
 20
1.044120
  0
SEQEND
  8
0
  0
SOLID
  8
0
 62
    15
 10
5.239960
 20
1.030480
 11
5.888520
 21
1.400080
 12
5.234680
 22
1.015520
 13
5.883240
 23
1.384680
  0
POLYLINE
  8
0
  6
CONTINUOUS
 66
     1
 40
0.000000
 41
0.000000
  0
VERTEX
  8
0
  6
CONTINUOUS
 10
5.239960
 20
1.030480
  0
VERTEX
  8
0
  6
CONTINUOUS
 10
5.888520
 20
1.400080
  0
VERTEX
  8
0
  6
CONTINUOUS
 10
5.883240
 20
1.384680
  0
VERTEX
  8
0
  6
CONTINUOUS
 10
5.234680
 20
1.015520
  0
VERTEX
  8
0
  6
CONTINUOUS
 10
5.239960
 20
1.030480
  0
SEQEND
  8
0
  0
SOLID
  8
0
 62
    15
 10
5.234680
 20
1.015520
 11
5.883240
 21
1.384680
 12
5.232920
 22
0.997920
 13
5.881480
 23
1.367520
  0
POLYLINE
  8
0
  6
CONTINUOUS
 66
     1
 40
0.000000
 41
0.000000
  0
VERTEX
  8
0
  6
CONTINUOUS
 10
5.234680
 20
1.015520
  0
VERTEX
  8
0
  6
CONTINUOUS
 10
5.883240
 20
1.384680
  0
VERTEX
  8
0
  6
CONTINUOUS
 10
5.881480
 20
1.367520
  0
VERTEX
  8
0
  6
CONTINUOUS
 10
5.232920
 20
0.997920
  0
VERTEX
  8
0
  6
CONTINUOUS
 10
5.234680
 20
1.015520
  0
SEQEND
  8
0
  0
SOLID
  8
0
 62
    15
 10
5.364040
 20
1.173920
 11
6.012600
 21
1.543520
 12
5.364040
 22
1.075800
 13
6.012600
 23
1.444960
  0
POLYLINE
  8
0
  6
CONTINUOUS
 66
     1
 40
0.000000
 41
0.000000
  0
VERTEX
  8
0
  6
CONTINUOUS
 10
5.364040
 20
1.173920
  0
VERTEX
  8
0
  6
CONTINUOUS
 10
6.012600
 20
1.543520
  0
VERTEX
  8
0
  6
CONTINUOUS
 10
6.012600
 20
1.444960
  0
VERTEX
  8
0
  6
CONTINUOUS
 10
5.364040
 20
1.075800
  0
VERTEX
  8
0
  6
CONTINUOUS
 10
5.364040
 20
1.173920
  0
SEQEND
  8
0
  0
SOLID
  8
0
 62
    15
 10
5.456000
 20
1.210440
 11
6.104560
 21
1.579600
 12
5.438840
 22
1.195480
 13
6.086960
 23
1.565080
  0
POLYLINE
  8
0
  6
CONTINUOUS
 66
     1
 40
0.000000
 41
0.000000
  0
VERTEX
  8
0
  6
CONTINUOUS
 10
5.456000
 20
1.210440
  0
VERTEX
  8
0
  6
CONTINUOUS
 10
6.104560
 20
1.579600
  0
VERTEX
  8
0
  6
CONTINUOUS
 10
6.086960
 20
1.565080
  0
VERTEX
  8
0
  6
CONTINUOUS
 10
5.438840
 20
1.195480
  0
VERTEX
  8
0
  6
CONTINUOUS
 10
5.456000
 20
1.210440
  0
SEQEND
  8
0
  0
SOLID
  8
0
 62
    15
 10
5.479320
 20
1.247840
 11
6.127880
 21
1.617000
 12
5.469640
 22
1.228040
 13
6.118200
 23
1.597200
  0
POLYLINE
  8
0
  6
CONTINUOUS
 66
     1
 40
0.000000
 41
0.000000
  0
VERTEX
  8
0
  6
CONTINUOUS
 10
5.479320
 20
1.247840
  0
VERTEX
  8
0
  6
CONTINUOUS
 10
6.127880
 20
1.617000
  0
VERTEX
  8
0
  6
CONTINUOUS
 10
6.118200
 20
1.597200
  0
VERTEX
  8
0
  6
CONTINUOUS
 10
5.469640
 20
1.228040
  0
VERTEX
  8
0
  6
CONTINUOUS
 10
5.479320
 20
1.247840
  0
SEQEND
  8
0
  0
SOLID
  8
0
 62
    15
 10
5.469640
 20
1.228040
 11
6.118200
 21
1.597200
 12
5.456000
 22
1.210440
 13
6.104560
 23
1.579600
  0
POLYLINE
  8
0
  6
CONTINUOUS
 66
     1
 40
0.000000
 41
0.000000
  0
VERTEX
  8
0
  6
CONTINUOUS
 10
5.469640
 20
1.228040
  0
VERTEX
  8
0
  6
CONTINUOUS
 10
6.118200
 20
1.597200
  0
VERTEX
  8
0
  6
CONTINUOUS
 10
6.104560
 20
1.579600
  0
VERTEX
  8
0
  6
CONTINUOUS
 10
5.456000
 20
1.210440
  0
VERTEX
  8
0
  6
CONTINUOUS
 10
5.469640
 20
1.228040
  0
SEQEND
  8
0
  0
SOLID
  8
0
 62
    15
 10
5.232920
 20
0.997920
 11
5.881480
 21
1.367520
 12
5.232920
 22
0.842600
 13
5.881480
 23
1.212200
  0
POLYLINE
  8
0
  6
CONTINUOUS
 66
     1
 40
0.000000
 41
0.000000
  0
VERTEX
  8
0
  6
CONTINUOUS
 10
5.232920
 20
0.997920
  0
VERTEX
  8
0
  6
CONTINUOUS
 10
5.881480
 20
1.367520
  0
VERTEX
  8
0
  6
CONTINUOUS
 10
5.881480
 20
1.212200
  0
VERTEX
  8
0
  6
CONTINUOUS
 10
5.232920
 20
0.842600
  0
VERTEX
  8
0
  6
CONTINUOUS
 10
5.232920
 20
0.997920
  0
SEQEND
  8
0
  0
SOLID
  8
0
 62
    15
 10
4.968920
 20
1.407120
 11
5.617480
 21
1.776280
 12
5.358760
 22
1.407120
 13
6.007320
 23
1.776280
  0
POLYLINE
  8
0
  6
CONTINUOUS
 66
     1
 40
0.000000
 41
0.000000
  0
VERTEX
  8
0
  6
CONTINUOUS
 10
4.968920
 20
1.407120
  0
VERTEX
  8
0
  6
CONTINUOUS
 10
5.617480
 20
1.776280
  0
VERTEX
  8
0
  6
CONTINUOUS
 10
6.007320
 20
1.776280
  0
VERTEX
  8
0
  6
CONTINUOUS
 10
5.358760
 20
1.407120
  0
VERTEX
  8
0
  6
CONTINUOUS
 10
4.968920
 20
1.407120
  0
SEQEND
  8
0
  0
SOLID
  8
0
 62
    15
 10
5.358760
 20
1.407120
 11
6.007320
 21
1.776280
 12
5.361840
 22
1.406680
 13
6.009960
 23
1.775840
  0
POLYLINE
  8
0
  6
CONTINUOUS
 66
     1
 40
0.000000
 41
0.000000
  0
VERTEX
  8
0
  6
CONTINUOUS
 10
5.358760
 20
1.407120
  0
VERTEX
  8
0
  6
CONTINUOUS
 10
6.007320
 20
1.776280
  0
VERTEX
  8
0
  6
CONTINUOUS
 10
6.009960
 20
1.775840
  0
VERTEX
  8
0
  6
CONTINUOUS
 10
5.361840
 20
1.406680
  0
VERTEX
  8
0
  6
CONTINUOUS
 10
5.358760
 20
1.407120
  0
SEQEND
  8
0
  0
POLYLINE
  8
0
  6
CONTINUOUS
 66
     1
 40
0.000000
 41
0.000000
  0
VERTEX
  8
0
  6
CONTINUOUS
 10
5.361840
 20
1.406680
  0
VERTEX
  8
0
  6
CONTINUOUS
 10
5.391320
 20
1.404040
  0
VERTEX
  8
0
  6
CONTINUOUS
 10
5.417280
 20
1.396560
  0
VERTEX
  8
0
  6
CONTINUOUS
 10
5.438840
 20
1.385120
  0
VERTEX
  8
0
  6
CONTINUOUS
 10
5.456440
 20
1.370600
  0
VERTEX
  8
0
  6
CONTINUOUS
 10
5.470080
 20
1.353000
  0
VERTEX
  8
0
  6
CONTINUOUS
 10
5.479760
 20
1.333200
  0
VERTEX
  8
0
  6
CONTINUOUS
 10
5.485480
 20
1.312080
  0
VERTEX
  8
0
  6
CONTINUOUS
 10
5.487240
 20
1.290520
  0
VERTEX
  8
0
  6
CONTINUOUS
 10
5.485480
 20
1.268960
  0
VERTEX
  8
0
  6
CONTINUOUS
 10
5.479320
 20
1.247840
  0
VERTEX
  8
0
  6
CONTINUOUS
 10
5.469640
 20
1.228040
  0
VERTEX
  8
0
  6
CONTINUOUS
 10
5.456000
 20
1.210440
  0
VERTEX
  8
0
  6
CONTINUOUS
 10
5.438840
 20
1.195480
  0
VERTEX
  8
0
  6
CONTINUOUS
 10
5.417720
 20
1.184040
  0
VERTEX
  8
0
  6
CONTINUOUS
 10
5.392640
 20
1.176560
  0
VERTEX
  8
0
  6
CONTINUOUS
 10
5.364040
 20
1.173920
  0
VERTEX
  8
0
  6
CONTINUOUS
 10
5.364040
 20
1.075800
  0
VERTEX
  8
0
  6
CONTINUOUS
 10
5.331040
 20
1.074480
  0
VERTEX
  8
0
  6
CONTINUOUS
 10
5.303760
 20
1.070520
  0
VERTEX
  8
0
  6
CONTINUOUS
 10
5.280880
 20
1.063920
  0
VERTEX
  8
0
  6
CONTINUOUS
 10
5.262840
 20
1.055120
  0
VERTEX
  8
0
  6
CONTINUOUS
 10
5.249640
 20
1.044120
  0
VERTEX
  8
0
  6
CONTINUOUS
 10
5.239960
 20
1.030480
  0
VERTEX
  8
0
  6
CONTINUOUS
 10
5.234680
 20
1.015520
  0
VERTEX
  8
0
  6
CONTINUOUS
 10
5.232920
 20
0.997920
  0
VERTEX
  8
0
  6
CONTINUOUS
 10
5.232920
 20
0.842600
  0
VERTEX
  8
0
  6
CONTINUOUS
 10
4.968920
 20
0.842600
  0
VERTEX
  8
0
  6
CONTINUOUS
 10
4.968920
 20
1.407120
  0
VERTEX
  8
0
  6
CONTINUOUS
 10
5.358760
 20
1.407120
  0
VERTEX
  8
0
  6
CONTINUOUS
 10
5.361840
 20
1.406680
  0
SEQEND
  8
0
  0
TEXT
  8
0
 10
5.256240
 20
0.625680
 40
0.138140
  1
BA  817
 41
1.000000
  7
SN0
 71
     0
 72
     5
 11
5.846171
 21
0.625680
  0
TEXT
  8
0
 10
5.128200
 20
0.433840
 40
0.138140
  1
1/2" x 7/16"
 41
1.000000
  7
SN0
 71
     0
 72
     5
 11
5.973180
 21
0.433840
  0
POLYLINE
  8
0
  6
CONTINUOUS
 66
     1
 40
0.014080
 41
0.014080
  0
VERTEX
  8
0
  6
CONTINUOUS
 10
6.766320
 20
1.744600
  0
VERTEX
  8
0
  6
CONTINUOUS
 10
6.781720
 20
1.744160
  0
VERTEX
  8
0
  6
CONTINUOUS
 10
6.809440
 20
1.738880
  0
VERTEX
  8
0
  6
CONTINUOUS
 10
6.833200
 20
1.729640
  0
VERTEX
  8
0
  6
CONTINUOUS
 10
6.853000
 20
1.716440
  0
VERTEX
  8
0
  6
CONTINUOUS
 10
6.868400
 20
1.699720
  0
VERTEX
  8
0
  6
CONTINUOUS
 10
6.880280
 20
1.681240
  0
VERTEX
  8
0
  6
CONTINUOUS
 10
6.887760
 20
1.660560
  0
VERTEX
  8
0
  6
CONTINUOUS
 10
6.891720
 20
1.639440
  0
VERTEX
  8
0
  6
CONTINUOUS
 10
6.891720
 20
1.617440
  0
VERTEX
  8
0
  6
CONTINUOUS
 10
6.887760
 20
1.595880
  0
VERTEX
  8
0
  6
CONTINUOUS
 10
6.879840
 20
1.575640
  0
VERTEX
  8
0
  6
CONTINUOUS
 10
6.868400
 20
1.556720
  0
VERTEX
  8
0
  6
CONTINUOUS
 10
6.852560
 20
1.540440
  0
VERTEX
  8
0
  6
CONTINUOUS
 10
6.833640
 20
1.527240
  0
VERTEX
  8
0
  6
CONTINUOUS
 10
6.810320
 20
1.517560
  0
VERTEX
  8
0
  6
CONTINUOUS
 10
6.783920
 20
1.512720
  0
VERTEX
  8
0
  6
CONTINUOUS
 10
6.768960
 20
1.511840
  0
VERTEX
  8
0
  6
CONTINUOUS
 10
6.768960
 20
1.413720
  0
VERTEX
  8
0
  6
CONTINUOUS
 10
6.735960
 20
1.412400
  0
VERTEX
  8
0
  6
CONTINUOUS
 10
6.708240
 20
1.408440
  0
VERTEX
  8
0
  6
CONTINUOUS
 10
6.676120
 20
1.397880
  0
VERTEX
  8
0
  6
CONTINUOUS
 10
6.660280
 20
1.387760
  0
VERTEX
  8
0
  6
CONTINUOUS
 10
6.649280
 20
1.375440
  0
VERTEX
  8
0
  6
CONTINUOUS
 10
6.641800
 20
1.360920
  0
VERTEX
  8
0
  6
CONTINUOUS
 10
6.638280
 20
1.344640
  0
VERTEX
  8
0
  6
CONTINUOUS
 10
6.637840
 20
1.180520
  0
VERTEX
  8
0
  6
CONTINUOUS
 10
6.373840
 20
1.180520
  0
VERTEX
  8
0
  6
CONTINUOUS
 10
6.373840
 20
1.745040
  0
VERTEX
  8
0
  6
CONTINUOUS
 10
6.766320
 20
1.744600
  0
SEQEND
  8
0
  0
ENDSEC
  0
EOF
