  0
SECTION
  2
HEADER
  9
$ACADVER
  1
AC1006
  9
$EXTMIN
 10
4.114880
 20
0.418000
  9
$EXTMAX
 10
6.983240
 20
1.882320
  9
$LTSCALE
 40
0.044000
  9
$PDMODE
 70
    35
  9
$PDSIZE
 40
0.035200
  0
ENDSEC
  0
SECTION
  2
TABLES
  0
TABLE
  2
LTYPE
 70
     9
  0
LTYPE
  2
CONTINUOUS
 70
    64
  3
Solid line
 72
    65
 73
     0
 40
0.000000
  0
LTYPE
  2
DASHED
 70
    64
  3
__ __ __ __ __ __ __ __ __ __ __ __ __ __ __
 72
    65
 73
     2
 40
0.000330
 49
0.000220
 49
-0.000110
  0
LTYPE
  2
HIDDEN
 70
    64
  3
 _ _ _ _ _ _ _ _ _ _ _ _ _ _ _ _ _ _ _ _ _ _
 72
    65
 73
     2
 40
0.000165
 49
0.000110
 49
-0.000055
  0
LTYPE
  2
CENTER
 70
    64
  3
____ _ ____ _ ____ _ ____ _ ____ _ ____ _ ____
 72
    65
 73
     4
 40
0.000880
 49
0.000550
 49
-0.000110
 49
0.000110
 49
-0.000110
  0
LTYPE
  2
PHANTOM
 70
    64
  3
_____ _ _ _____ _ _ _____ _ _ _____ _ _ ____
 72
    65
 73
     6
 40
0.001100
 49
0.000550
 49
-0.000110
 49
0.000110
 49
-0.000110
 49
0.000110
 49
-0.000110
  0
LTYPE
  2
DOT
 70
    64
  3
...............................................
 72
    65
 73
     2
 40
0.000110
 49
0.000000
 49
-0.000110
  0
LTYPE
  2
DASHDOT
 70
    64
  3
__ . __ . __ . __ . __ . __ . __ . __ . __ . __
 72
    65
 73
     4
 40
0.000440
 49
0.000220
 49
-0.000110
 49
0.000000
 49
-0.000110
  0
LTYPE
  2
BORDER
 70
    64
  3
__ __ . __ __ . __ __ . __ __ . __ __ . __ __
 72
    65
 73
     6
 40
0.000770
 49
0.000220
 49
-0.000110
 49
0.000220
 49
-0.000110
 49
0.000000
 49
-0.000110
  0
LTYPE
  2
DIVIDE
 70
    64
  3
__ . . __ . . __ . . __ . . __ . . __ . . __
 72
    65
 73
     6
 40
0.000550
 49
0.000220
 49
-0.000110
 49
0.000000
 49
-0.000110
 49
0.000000
 49
-0.000110
  0
LTYPE
  2
DOTDOT
 70
    64
  3
 . .  . .  . .  . .  . .  . . 
 72
    65
 73
     5
 40
0.000242
 49
-0.000110
 49
0.000000
 49
-0.000110
 49
0.000000
 49
-0.000110
  0
ENDTAB
  0
TABLE
  2
STYLE
 70
     2
  0
STYLE
 70
     0
  2
SN0
 40
0.000000
 41
0.000440
 50
0.000000
 71
     0
 42
0.000000
  3
ROMAND
  0
STYLE
 70
    68
  2
SV0
 40
0.000000
 41
0.000440
 50
0.000000
 71
     0
 42
0.000000
  3
ROMAND
  0
ENDTAB
  0
TABLE
  2
LAYER
 70
     3
  0
LAYER
  2
FOREGROUND
 70
    64
 62
     7
  6
CONTINUOUS
  0
LAYER
  2
BACKGROUND
 70
    65
 62
    -7
  6
CONTINUOUS
  0
LAYER
  2
0
 70
    64
 62
     7
  6
CONTINUOUS
  0
ENDTAB
  0
ENDSEC
  0
SECTION
  2
ENTITIES
  0
POLYLINE
  8
FOREGROUND
  6
CONTINUOUS
 66
     1
 40
0.000000
 41
0.000000
  0
VERTEX
  8
FOREGROUND
  6
CONTINUOUS
 10
0.000000
 20
2.300320
  0
VERTEX
  8
FOREGROUND
  6
CONTINUOUS
 10
8.499920
 20
2.300320
  0
VERTEX
  8
FOREGROUND
  6
CONTINUOUS
 10
8.499920
 20
-8.699680
  0
VERTEX
  8
FOREGROUND
  6
CONTINUOUS
 10
0.000000
 20
-8.699680
  0
VERTEX
  8
FOREGROUND
  6
CONTINUOUS
 10
0.000000
 20
2.300320
  0
SEQEND
  8
0
  0
POLYLINE
  8
FOREGROUND
  6
CONTINUOUS
 66
     1
 40
0.000000
 41
0.000000
  0
VERTEX
  8
FOREGROUND
  6
CONTINUOUS
 10
0.000000
 20
2.300320
  0
VERTEX
  8
FOREGROUND
  6
CONTINUOUS
 10
8.499920
 20
2.300320
  0
VERTEX
  8
FOREGROUND
  6
CONTINUOUS
 10
8.499920
 20
-8.699680
  0
VERTEX
  8
FOREGROUND
  6
CONTINUOUS
 10
0.000000
 20
-8.699680
  0
VERTEX
  8
FOREGROUND
  6
CONTINUOUS
 10
0.000000
 20
2.300320
  0
SEQEND
  8
0
  0
SOLID
  8
0
 62
    15
 10
4.497240
 20
0.752840
 11
5.145800
 21
1.130360
 12
4.442680
 22
0.717200
 13
5.091240
 23
1.094720
  0
POLYLINE
  8
0
  6
CONTINUOUS
 66
     1
 40
0.000000
 41
0.000000
  0
VERTEX
  8
0
  6
CONTINUOUS
 10
4.497240
 20
0.752840
  0
VERTEX
  8
0
  6
CONTINUOUS
 10
5.145800
 20
1.130360
  0
VERTEX
  8
0
  6
CONTINUOUS
 10
5.091240
 20
1.094720
  0
VERTEX
  8
0
  6
CONTINUOUS
 10
4.442680
 20
0.717200
  0
VERTEX
  8
0
  6
CONTINUOUS
 10
4.497240
 20
0.752840
  0
SEQEND
  8
0
  0
SOLID
  8
0
 62
    15
 10
4.709760
 20
1.498200
 11
5.358320
 21
1.875720
 12
4.758600
 22
1.482800
 13
5.407160
 23
1.860320
  0
POLYLINE
  8
0
  6
CONTINUOUS
 66
     1
 40
0.000000
 41
0.000000
  0
VERTEX
  8
0
  6
CONTINUOUS
 10
4.709760
 20
1.498200
  0
VERTEX
  8
0
  6
CONTINUOUS
 10
5.358320
 20
1.875720
  0
VERTEX
  8
0
  6
CONTINUOUS
 10
5.407160
 20
1.860320
  0
VERTEX
  8
0
  6
CONTINUOUS
 10
4.758600
 20
1.482800
  0
VERTEX
  8
0
  6
CONTINUOUS
 10
4.709760
 20
1.498200
  0
SEQEND
  8
0
  0
SOLID
  8
0
 62
    15
 10
4.758600
 20
1.482800
 11
5.407160
 21
1.860320
 12
4.803040
 22
1.459040
 13
5.451600
 23
1.836560
  0
POLYLINE
  8
0
  6
CONTINUOUS
 66
     1
 40
0.000000
 41
0.000000
  0
VERTEX
  8
0
  6
CONTINUOUS
 10
4.758600
 20
1.482800
  0
VERTEX
  8
0
  6
CONTINUOUS
 10
5.407160
 20
1.860320
  0
VERTEX
  8
0
  6
CONTINUOUS
 10
5.451600
 20
1.836560
  0
VERTEX
  8
0
  6
CONTINUOUS
 10
4.803040
 20
1.459040
  0
VERTEX
  8
0
  6
CONTINUOUS
 10
4.758600
 20
1.482800
  0
SEQEND
  8
0
  0
SOLID
  8
0
 62
    15
 10
4.803040
 20
1.459040
 11
5.451600
 21
1.836560
 12
4.841760
 22
1.426920
 13
5.490320
 23
1.804440
  0
POLYLINE
  8
0
  6
CONTINUOUS
 66
     1
 40
0.000000
 41
0.000000
  0
VERTEX
  8
0
  6
CONTINUOUS
 10
4.803040
 20
1.459040
  0
VERTEX
  8
0
  6
CONTINUOUS
 10
5.451600
 20
1.836560
  0
VERTEX
  8
0
  6
CONTINUOUS
 10
5.490320
 20
1.804440
  0
VERTEX
  8
0
  6
CONTINUOUS
 10
4.841760
 20
1.426920
  0
VERTEX
  8
0
  6
CONTINUOUS
 10
4.803040
 20
1.459040
  0
SEQEND
  8
0
  0
SOLID
  8
0
 62
     7
 10
4.841760
 20
1.426920
 11
5.490320
 21
1.804440
 12
4.873440
 22
1.388200
 13
5.522000
 23
1.765720
  0
POLYLINE
  8
0
  6
CONTINUOUS
 66
     1
 40
0.000000
 41
0.000000
  0
VERTEX
  8
0
  6
CONTINUOUS
 10
4.841760
 20
1.426920
  0
VERTEX
  8
0
  6
CONTINUOUS
 10
5.490320
 20
1.804440
  0
VERTEX
  8
0
  6
CONTINUOUS
 10
5.522000
 20
1.765720
  0
VERTEX
  8
0
  6
CONTINUOUS
 10
4.873440
 20
1.388200
  0
VERTEX
  8
0
  6
CONTINUOUS
 10
4.841760
 20
1.426920
  0
SEQEND
  8
0
  0
SOLID
  8
0
 62
     7
 10
4.873440
 20
1.388200
 11
5.522000
 21
1.765720
 12
4.897640
 22
1.344200
 13
5.546200
 23
1.721720
  0
POLYLINE
  8
0
  6
CONTINUOUS
 66
     1
 40
0.000000
 41
0.000000
  0
VERTEX
  8
0
  6
CONTINUOUS
 10
4.873440
 20
1.388200
  0
VERTEX
  8
0
  6
CONTINUOUS
 10
5.522000
 20
1.765720
  0
VERTEX
  8
0
  6
CONTINUOUS
 10
5.546200
 20
1.721720
  0
VERTEX
  8
0
  6
CONTINUOUS
 10
4.897640
 20
1.344200
  0
VERTEX
  8
0
  6
CONTINUOUS
 10
4.873440
 20
1.388200
  0
SEQEND
  8
0
  0
SOLID
  8
0
 62
     7
 10
4.897640
 20
1.344200
 11
5.546200
 21
1.721720
 12
4.913040
 22
1.294920
 13
5.561160
 23
1.672440
  0
POLYLINE
  8
0
  6
CONTINUOUS
 66
     1
 40
0.000000
 41
0.000000
  0
VERTEX
  8
0
  6
CONTINUOUS
 10
4.897640
 20
1.344200
  0
VERTEX
  8
0
  6
CONTINUOUS
 10
5.546200
 20
1.721720
  0
VERTEX
  8
0
  6
CONTINUOUS
 10
5.561160
 20
1.672440
  0
VERTEX
  8
0
  6
CONTINUOUS
 10
4.913040
 20
1.294920
  0
VERTEX
  8
0
  6
CONTINUOUS
 10
4.897640
 20
1.344200
  0
SEQEND
  8
0
  0
SOLID
  8
0
 62
     7
 10
4.913040
 20
1.294920
 11
5.561160
 21
1.672440
 12
4.918320
 22
1.242560
 13
5.566880
 23
1.620080
  0
POLYLINE
  8
0
  6
CONTINUOUS
 66
     1
 40
0.000000
 41
0.000000
  0
VERTEX
  8
0
  6
CONTINUOUS
 10
4.913040
 20
1.294920
  0
VERTEX
  8
0
  6
CONTINUOUS
 10
5.561160
 20
1.672440
  0
VERTEX
  8
0
  6
CONTINUOUS
 10
5.566880
 20
1.620080
  0
VERTEX
  8
0
  6
CONTINUOUS
 10
4.918320
 20
1.242560
  0
VERTEX
  8
0
  6
CONTINUOUS
 10
4.913040
 20
1.294920
  0
SEQEND
  8
0
  0
SOLID
  8
0
 62
    15
 10
4.918320
 20
1.242560
 11
5.566880
 21
1.620080
 12
4.913040
 22
1.189760
 13
5.561160
 23
1.567280
  0
POLYLINE
  8
0
  6
CONTINUOUS
 66
     1
 40
0.000000
 41
0.000000
  0
VERTEX
  8
0
  6
CONTINUOUS
 10
4.918320
 20
1.242560
  0
VERTEX
  8
0
  6
CONTINUOUS
 10
5.566880
 20
1.620080
  0
VERTEX
  8
0
  6
CONTINUOUS
 10
5.561160
 20
1.567280
  0
VERTEX
  8
0
  6
CONTINUOUS
 10
4.913040
 20
1.189760
  0
VERTEX
  8
0
  6
CONTINUOUS
 10
4.918320
 20
1.242560
  0
SEQEND
  8
0
  0
SOLID
  8
0
 62
    15
 10
4.913040
 20
1.189760
 11
5.561160
 21
1.567280
 12
4.897640
 22
1.140920
 13
5.546200
 23
1.518440
  0
POLYLINE
  8
0
  6
CONTINUOUS
 66
     1
 40
0.000000
 41
0.000000
  0
VERTEX
  8
0
  6
CONTINUOUS
 10
4.913040
 20
1.189760
  0
VERTEX
  8
0
  6
CONTINUOUS
 10
5.561160
 20
1.567280
  0
VERTEX
  8
0
  6
CONTINUOUS
 10
5.546200
 20
1.518440
  0
VERTEX
  8
0
  6
CONTINUOUS
 10
4.897640
 20
1.140920
  0
VERTEX
  8
0
  6
CONTINUOUS
 10
4.913040
 20
1.189760
  0
SEQEND
  8
0
  0
SOLID
  8
0
 62
    15
 10
4.442680
 20
0.717200
 11
5.091240
 21
1.094720
 12
4.392960
 22
0.670560
 13
5.041520
 23
1.048080
  0
POLYLINE
  8
0
  6
CONTINUOUS
 66
     1
 40
0.000000
 41
0.000000
  0
VERTEX
  8
0
  6
CONTINUOUS
 10
4.442680
 20
0.717200
  0
VERTEX
  8
0
  6
CONTINUOUS
 10
5.091240
 20
1.094720
  0
VERTEX
  8
0
  6
CONTINUOUS
 10
5.041520
 20
1.048080
  0
VERTEX
  8
0
  6
CONTINUOUS
 10
4.392960
 20
0.670560
  0
VERTEX
  8
0
  6
CONTINUOUS
 10
4.442680
 20
0.717200
  0
SEQEND
  8
0
  0
SOLID
  8
0
 62
    15
 10
4.392960
 20
0.670560
 11
5.041520
 21
1.048080
 12
4.371840
 22
0.642400
 13
5.020400
 23
1.019920
  0
POLYLINE
  8
0
  6
CONTINUOUS
 66
     1
 40
0.000000
 41
0.000000
  0
VERTEX
  8
0
  6
CONTINUOUS
 10
4.392960
 20
0.670560
  0
VERTEX
  8
0
  6
CONTINUOUS
 10
5.041520
 20
1.048080
  0
VERTEX
  8
0
  6
CONTINUOUS
 10
5.020400
 20
1.019920
  0
VERTEX
  8
0
  6
CONTINUOUS
 10
4.371840
 20
0.642400
  0
VERTEX
  8
0
  6
CONTINUOUS
 10
4.392960
 20
0.670560
  0
SEQEND
  8
0
  0
SOLID
  8
0
 62
    15
 10
4.656960
 20
1.503480
 11
5.305520
 21
1.881000
 12
4.709760
 22
1.498200
 13
5.358320
 23
1.875720
  0
POLYLINE
  8
0
  6
CONTINUOUS
 66
     1
 40
0.000000
 41
0.000000
  0
VERTEX
  8
0
  6
CONTINUOUS
 10
4.656960
 20
1.503480
  0
VERTEX
  8
0
  6
CONTINUOUS
 10
5.305520
 20
1.881000
  0
VERTEX
  8
0
  6
CONTINUOUS
 10
5.358320
 20
1.875720
  0
VERTEX
  8
0
  6
CONTINUOUS
 10
4.709760
 20
1.498200
  0
VERTEX
  8
0
  6
CONTINUOUS
 10
4.656960
 20
1.503480
  0
SEQEND
  8
0
  0
SOLID
  8
0
 62
    15
 10
4.371840
 20
0.642400
 11
5.020400
 21
1.019920
 12
4.352920
 22
0.611600
 13
5.001480
 23
0.989120
  0
POLYLINE
  8
0
  6
CONTINUOUS
 66
     1
 40
0.000000
 41
0.000000
  0
VERTEX
  8
0
  6
CONTINUOUS
 10
4.371840
 20
0.642400
  0
VERTEX
  8
0
  6
CONTINUOUS
 10
5.020400
 20
1.019920
  0
VERTEX
  8
0
  6
CONTINUOUS
 10
5.001480
 20
0.989120
  0
VERTEX
  8
0
  6
CONTINUOUS
 10
4.352920
 20
0.611600
  0
VERTEX
  8
0
  6
CONTINUOUS
 10
4.371840
 20
0.642400
  0
SEQEND
  8
0
  0
SOLID
  8
0
 62
     7
 10
4.656960
 20
0.981640
 11
5.305520
 21
1.359160
 12
4.656960
 22
0.797280
 13
5.305520
 23
1.174800
  0
POLYLINE
  8
0
  6
CONTINUOUS
 66
     1
 40
0.000000
 41
0.000000
  0
VERTEX
  8
0
  6
CONTINUOUS
 10
4.656960
 20
0.981640
  0
VERTEX
  8
0
  6
CONTINUOUS
 10
5.305520
 20
1.359160
  0
VERTEX
  8
0
  6
CONTINUOUS
 10
5.305520
 20
1.174800
  0
VERTEX
  8
0
  6
CONTINUOUS
 10
4.656960
 20
0.797280
  0
VERTEX
  8
0
  6
CONTINUOUS
 10
4.656960
 20
0.981640
  0
SEQEND
  8
0
  0
SOLID
  8
0
 62
    15
 10
4.873440
 20
1.096480
 11
5.522000
 21
1.474000
 12
4.841760
 22
1.057760
 13
5.490320
 23
1.435280
  0
POLYLINE
  8
0
  6
CONTINUOUS
 66
     1
 40
0.000000
 41
0.000000
  0
VERTEX
  8
0
  6
CONTINUOUS
 10
4.873440
 20
1.096480
  0
VERTEX
  8
0
  6
CONTINUOUS
 10
5.522000
 20
1.474000
  0
VERTEX
  8
0
  6
CONTINUOUS
 10
5.490320
 20
1.435280
  0
VERTEX
  8
0
  6
CONTINUOUS
 10
4.841760
 20
1.057760
  0
VERTEX
  8
0
  6
CONTINUOUS
 10
4.873440
 20
1.096480
  0
SEQEND
  8
0
  0
SOLID
  8
0
 62
    15
 10
4.841760
 20
1.057760
 11
5.490320
 21
1.435280
 12
4.803040
 22
1.026080
 13
5.451600
 23
1.403600
  0
POLYLINE
  8
0
  6
CONTINUOUS
 66
     1
 40
0.000000
 41
0.000000
  0
VERTEX
  8
0
  6
CONTINUOUS
 10
4.841760
 20
1.057760
  0
VERTEX
  8
0
  6
CONTINUOUS
 10
5.490320
 20
1.435280
  0
VERTEX
  8
0
  6
CONTINUOUS
 10
5.451600
 20
1.403600
  0
VERTEX
  8
0
  6
CONTINUOUS
 10
4.803040
 20
1.026080
  0
VERTEX
  8
0
  6
CONTINUOUS
 10
4.841760
 20
1.057760
  0
SEQEND
  8
0
  0
SOLID
  8
0
 62
    15
 10
4.897640
 20
1.140920
 11
5.546200
 21
1.518440
 12
4.873440
 22
1.096480
 13
5.522000
 23
1.474000
  0
POLYLINE
  8
0
  6
CONTINUOUS
 66
     1
 40
0.000000
 41
0.000000
  0
VERTEX
  8
0
  6
CONTINUOUS
 10
4.897640
 20
1.140920
  0
VERTEX
  8
0
  6
CONTINUOUS
 10
5.546200
 20
1.518440
  0
VERTEX
  8
0
  6
CONTINUOUS
 10
5.522000
 20
1.474000
  0
VERTEX
  8
0
  6
CONTINUOUS
 10
4.873440
 20
1.096480
  0
VERTEX
  8
0
  6
CONTINUOUS
 10
4.897640
 20
1.140920
  0
SEQEND
  8
0
  0
SOLID
  8
0
 62
    15
 10
4.352920
 20
0.611600
 11
5.001480
 21
0.989120
 12
4.337520
 22
0.577720
 13
4.986080
 23
0.955240
  0
POLYLINE
  8
0
  6
CONTINUOUS
 66
     1
 40
0.000000
 41
0.000000
  0
VERTEX
  8
0
  6
CONTINUOUS
 10
4.352920
 20
0.611600
  0
VERTEX
  8
0
  6
CONTINUOUS
 10
5.001480
 20
0.989120
  0
VERTEX
  8
0
  6
CONTINUOUS
 10
4.986080
 20
0.955240
  0
VERTEX
  8
0
  6
CONTINUOUS
 10
4.337520
 20
0.577720
  0
VERTEX
  8
0
  6
CONTINUOUS
 10
4.352920
 20
0.611600
  0
SEQEND
  8
0
  0
SOLID
  8
0
 62
    15
 10
4.337520
 20
0.577720
 11
4.986080
 21
0.955240
 12
4.325640
 22
0.540760
 13
4.974200
 23
0.918280
  0
POLYLINE
  8
0
  6
CONTINUOUS
 66
     1
 40
0.000000
 41
0.000000
  0
VERTEX
  8
0
  6
CONTINUOUS
 10
4.337520
 20
0.577720
  0
VERTEX
  8
0
  6
CONTINUOUS
 10
4.986080
 20
0.955240
  0
VERTEX
  8
0
  6
CONTINUOUS
 10
4.974200
 20
0.918280
  0
VERTEX
  8
0
  6
CONTINUOUS
 10
4.325640
 20
0.540760
  0
VERTEX
  8
0
  6
CONTINUOUS
 10
4.337520
 20
0.577720
  0
SEQEND
  8
0
  0
SOLID
  8
0
 62
     7
 10
4.325640
 20
0.540760
 11
4.974200
 21
0.918280
 12
4.317720
 22
0.500720
 13
4.966280
 23
0.878240
  0
POLYLINE
  8
0
  6
CONTINUOUS
 66
     1
 40
0.000000
 41
0.000000
  0
VERTEX
  8
0
  6
CONTINUOUS
 10
4.325640
 20
0.540760
  0
VERTEX
  8
0
  6
CONTINUOUS
 10
4.974200
 20
0.918280
  0
VERTEX
  8
0
  6
CONTINUOUS
 10
4.966280
 20
0.878240
  0
VERTEX
  8
0
  6
CONTINUOUS
 10
4.317720
 20
0.500720
  0
VERTEX
  8
0
  6
CONTINUOUS
 10
4.325640
 20
0.540760
  0
SEQEND
  8
0
  0
SOLID
  8
0
 62
     7
 10
4.317720
 20
0.500720
 11
4.966280
 21
0.878240
 12
4.314640
 22
0.457160
 13
4.963200
 23
0.834680
  0
POLYLINE
  8
0
  6
CONTINUOUS
 66
     1
 40
0.000000
 41
0.000000
  0
VERTEX
  8
0
  6
CONTINUOUS
 10
4.317720
 20
0.500720
  0
VERTEX
  8
0
  6
CONTINUOUS
 10
4.966280
 20
0.878240
  0
VERTEX
  8
0
  6
CONTINUOUS
 10
4.963200
 20
0.834680
  0
VERTEX
  8
0
  6
CONTINUOUS
 10
4.314640
 20
0.457160
  0
VERTEX
  8
0
  6
CONTINUOUS
 10
4.317720
 20
0.500720
  0
SEQEND
  8
0
  0
SOLID
  8
0
 62
    15
 10
4.115760
 20
1.504360
 11
4.764320
 21
1.881880
 12
4.654320
 22
1.504360
 13
5.302880
 23
1.881880
  0
POLYLINE
  8
0
  6
CONTINUOUS
 66
     1
 40
0.000000
 41
0.000000
  0
VERTEX
  8
0
  6
CONTINUOUS
 10
4.115760
 20
1.504360
  0
VERTEX
  8
0
  6
CONTINUOUS
 10
4.764320
 20
1.881880
  0
VERTEX
  8
0
  6
CONTINUOUS
 10
5.302880
 20
1.881880
  0
VERTEX
  8
0
  6
CONTINUOUS
 10
4.654320
 20
1.504360
  0
VERTEX
  8
0
  6
CONTINUOUS
 10
4.115760
 20
1.504360
  0
SEQEND
  8
0
  0
SOLID
  8
0
 62
    15
 10
4.654320
 20
1.504360
 11
5.302880
 21
1.881880
 12
4.656960
 22
1.503480
 13
5.305520
 23
1.881000
  0
POLYLINE
  8
0
  6
CONTINUOUS
 66
     1
 40
0.000000
 41
0.000000
  0
VERTEX
  8
0
  6
CONTINUOUS
 10
4.654320
 20
1.504360
  0
VERTEX
  8
0
  6
CONTINUOUS
 10
5.302880
 20
1.881880
  0
VERTEX
  8
0
  6
CONTINUOUS
 10
5.305520
 20
1.881000
  0
VERTEX
  8
0
  6
CONTINUOUS
 10
4.656960
 20
1.503480
  0
VERTEX
  8
0
  6
CONTINUOUS
 10
4.654320
 20
1.504360
  0
SEQEND
  8
0
  0
POLYLINE
  8
0
  6
CONTINUOUS
 66
     1
 40
0.000000
 41
0.000000
  0
VERTEX
  8
0
  6
CONTINUOUS
 10
4.656960
 20
1.503480
  0
VERTEX
  8
0
  6
CONTINUOUS
 10
4.709760
 20
1.498200
  0
VERTEX
  8
0
  6
CONTINUOUS
 10
4.758600
 20
1.482800
  0
VERTEX
  8
0
  6
CONTINUOUS
 10
4.803040
 20
1.459040
  0
VERTEX
  8
0
  6
CONTINUOUS
 10
4.841760
 20
1.426920
  0
VERTEX
  8
0
  6
CONTINUOUS
 10
4.873440
 20
1.388200
  0
VERTEX
  8
0
  6
CONTINUOUS
 10
4.897640
 20
1.344200
  0
VERTEX
  8
0
  6
CONTINUOUS
 10
4.913040
 20
1.294920
  0
VERTEX
  8
0
  6
CONTINUOUS
 10
4.918320
 20
1.242560
  0
VERTEX
  8
0
  6
CONTINUOUS
 10
4.913040
 20
1.189760
  0
VERTEX
  8
0
  6
CONTINUOUS
 10
4.897640
 20
1.140920
  0
VERTEX
  8
0
  6
CONTINUOUS
 10
4.873440
 20
1.096480
  0
VERTEX
  8
0
  6
CONTINUOUS
 10
4.841760
 20
1.057760
  0
VERTEX
  8
0
  6
CONTINUOUS
 10
4.803040
 20
1.026080
  0
VERTEX
  8
0
  6
CONTINUOUS
 10
4.758600
 20
1.001880
  0
VERTEX
  8
0
  6
CONTINUOUS
 10
4.709760
 20
0.986920
  0
VERTEX
  8
0
  6
CONTINUOUS
 10
4.656960
 20
0.981640
  0
VERTEX
  8
0
  6
CONTINUOUS
 10
4.656960
 20
0.797280
  0
VERTEX
  8
0
  6
CONTINUOUS
 10
4.608120
 20
0.792440
  0
VERTEX
  8
0
  6
CONTINUOUS
 10
4.553560
 20
0.777920
  0
VERTEX
  8
0
  6
CONTINUOUS
 10
4.497240
 20
0.752840
  0
VERTEX
  8
0
  6
CONTINUOUS
 10
4.442680
 20
0.717200
  0
VERTEX
  8
0
  6
CONTINUOUS
 10
4.392960
 20
0.670560
  0
VERTEX
  8
0
  6
CONTINUOUS
 10
4.371840
 20
0.642400
  0
VERTEX
  8
0
  6
CONTINUOUS
 10
4.352920
 20
0.611600
  0
VERTEX
  8
0
  6
CONTINUOUS
 10
4.337520
 20
0.577720
  0
VERTEX
  8
0
  6
CONTINUOUS
 10
4.325640
 20
0.540760
  0
VERTEX
  8
0
  6
CONTINUOUS
 10
4.317720
 20
0.500720
  0
VERTEX
  8
0
  6
CONTINUOUS
 10
4.314640
 20
0.457160
  0
VERTEX
  8
0
  6
CONTINUOUS
 10
4.115760
 20
0.457160
  0
VERTEX
  8
0
  6
CONTINUOUS
 10
4.115760
 20
1.504360
  0
VERTEX
  8
0
  6
CONTINUOUS
 10
4.654320
 20
1.504360
  0
VERTEX
  8
0
  6
CONTINUOUS
 10
4.656960
 20
1.503480
  0
SEQEND
  8
0
  0
TEXT
  8
0
 10
5.071000
 20
0.652960
 40
0.138176
  1
BA  815
 41
1.000000
  7
SN0
 71
     0
 72
     5
 11
5.661022
 21
0.652960
  0
TEXT
  8
0
 10
4.776640
 20
0.461120
 40
0.138176
  1
13/16" x 1-1/16"
 41
1.000000
  7
SN0
 71
     0
 72
     5
 11
5.953672
 21
0.461120
  0
POLYLINE
  8
0
  6
CONTINUOUS
 66
     1
 40
0.014080
 41
0.014080
  0
VERTEX
  8
0
  6
CONTINUOUS
 10
6.712200
 20
1.799160
  0
VERTEX
  8
0
  6
CONTINUOUS
 10
6.173640
 20
1.799160
  0
VERTEX
  8
0
  6
CONTINUOUS
 10
6.173640
 20
0.751960
  0
VERTEX
  8
0
  6
CONTINUOUS
 10
6.372520
 20
0.751960
  0
VERTEX
  8
0
  6
CONTINUOUS
 10
6.375600
 20
0.795520
  0
VERTEX
  8
0
  6
CONTINUOUS
 10
6.383520
 20
0.835560
  0
VERTEX
  8
0
  6
CONTINUOUS
 10
6.395400
 20
0.872520
  0
VERTEX
  8
0
  6
CONTINUOUS
 10
6.410800
 20
0.906400
  0
VERTEX
  8
0
  6
CONTINUOUS
 10
6.429720
 20
0.937200
  0
VERTEX
  8
0
  6
CONTINUOUS
 10
6.462720
 20
0.978120
  0
VERTEX
  8
0
  6
CONTINUOUS
 10
6.487360
 20
1.001440
  0
VERTEX
  8
0
  6
CONTINUOUS
 10
6.527400
 20
1.030920
  0
VERTEX
  8
0
  6
CONTINUOUS
 10
6.569200
 20
1.054680
  0
VERTEX
  8
0
  6
CONTINUOUS
 10
6.611880
 20
1.072280
  0
VERTEX
  8
0
  6
CONTINUOUS
 10
6.653240
 20
1.084160
  0
VERTEX
  8
0
  6
CONTINUOUS
 10
6.679200
 20
1.089440
  0
VERTEX
  8
0
  6
CONTINUOUS
 10
6.715280
 20
1.092080
  0
VERTEX
  8
0
  6
CONTINUOUS
 10
6.715280
 20
1.276440
  0
VERTEX
  8
0
  6
CONTINUOUS
 10
6.742120
 20
1.277760
  0
VERTEX
  8
0
  6
CONTINUOUS
 10
6.780400
 20
1.284800
  0
VERTEX
  8
0
  6
CONTINUOUS
 10
6.816920
 20
1.297120
  0
VERTEX
  8
0
  6
CONTINUOUS
 10
6.839360
 20
1.307680
  0
VERTEX
  8
0
  6
CONTINUOUS
 10
6.860920
 20
1.320880
  0
VERTEX
  8
0
  6
CONTINUOUS
 10
6.881160
 20
1.335840
  0
VERTEX
  8
0
  6
CONTINUOUS
 10
6.899640
 20
1.352560
  0
VERTEX
  8
0
  6
CONTINUOUS
 10
6.931760
 20
1.391280
  0
VERTEX
  8
0
  6
CONTINUOUS
 10
6.950240
 20
1.424280
  0
VERTEX
  8
0
  6
CONTINUOUS
 10
6.964320
 20
1.459480
  0
VERTEX
  8
0
  6
CONTINUOUS
 10
6.970920
 20
1.484560
  0
VERTEX
  8
0
  6
CONTINUOUS
 10
6.974880
 20
1.510520
  0
VERTEX
  8
0
  6
CONTINUOUS
 10
6.976200
 20
1.537360
  0
VERTEX
  8
0
  6
CONTINUOUS
 10
6.974880
 20
1.564200
  0
VERTEX
  8
0
  6
CONTINUOUS
 10
6.967840
 20
1.602480
  0
VERTEX
  8
0
  6
CONTINUOUS
 10
6.955520
 20
1.639000
  0
VERTEX
  8
0
  6
CONTINUOUS
 10
6.944520
 20
1.661440
  0
VERTEX
  8
0
  6
CONTINUOUS
 10
6.931760
 20
1.683000
  0
VERTEX
  8
0
  6
CONTINUOUS
 10
6.916360
 20
1.703240
  0
VERTEX
  8
0
  6
CONTINUOUS
 10
6.899640
 20
1.721720
  0
VERTEX
  8
0
  6
CONTINUOUS
 10
6.881160
 20
1.738440
  0
VERTEX
  8
0
  6
CONTINUOUS
 10
6.860920
 20
1.753840
  0
VERTEX
  8
0
  6
CONTINUOUS
 10
6.828360
 20
1.772320
  0
VERTEX
  8
0
  6
CONTINUOUS
 10
6.792720
 20
1.786400
  0
VERTEX
  8
0
  6
CONTINUOUS
 10
6.754880
 20
1.795200
  0
VERTEX
  8
0
  6
CONTINUOUS
 10
6.712200
 20
1.799160
  0
SEQEND
  8
0
  0
ENDSEC
  0
EOF
