  0
SECTION
  2
HEADER
  9
$ACADVER
  1
AC1006
  9
$EXTMIN
 10
2.956800
 20
0.455840
  9
$EXTMAX
 10
6.676120
 20
2.342120
  9
$LTSCALE
 40
0.044000
  9
$PDMODE
 70
    35
  9
$PDSIZE
 40
0.035200
  0
ENDSEC
  0
SECTION
  2
TABLES
  0
TABLE
  2
LTYPE
 70
     9
  0
LTYPE
  2
CONTINUOUS
 70
    64
  3
Solid line
 72
    65
 73
     0
 40
0.000000
  0
LTYPE
  2
DASHED
 70
    64
  3
__ __ __ __ __ __ __ __ __ __ __ __ __ __ __
 72
    65
 73
     2
 40
0.000330
 49
0.000220
 49
-0.000110
  0
LTYPE
  2
HIDDEN
 70
    64
  3
 _ _ _ _ _ _ _ _ _ _ _ _ _ _ _ _ _ _ _ _ _ _
 72
    65
 73
     2
 40
0.000165
 49
0.000110
 49
-0.000055
  0
LTYPE
  2
CENTER
 70
    64
  3
____ _ ____ _ ____ _ ____ _ ____ _ ____ _ ____
 72
    65
 73
     4
 40
0.000880
 49
0.000550
 49
-0.000110
 49
0.000110
 49
-0.000110
  0
LTYPE
  2
PHANTOM
 70
    64
  3
_____ _ _ _____ _ _ _____ _ _ _____ _ _ ____
 72
    65
 73
     6
 40
0.001100
 49
0.000550
 49
-0.000110
 49
0.000110
 49
-0.000110
 49
0.000110
 49
-0.000110
  0
LTYPE
  2
DOT
 70
    64
  3
...............................................
 72
    65
 73
     2
 40
0.000110
 49
0.000000
 49
-0.000110
  0
LTYPE
  2
DASHDOT
 70
    64
  3
__ . __ . __ . __ . __ . __ . __ . __ . __ . __
 72
    65
 73
     4
 40
0.000440
 49
0.000220
 49
-0.000110
 49
0.000000
 49
-0.000110
  0
LTYPE
  2
BORDER
 70
    64
  3
__ __ . __ __ . __ __ . __ __ . __ __ . __ __
 72
    65
 73
     6
 40
0.000770
 49
0.000220
 49
-0.000110
 49
0.000220
 49
-0.000110
 49
0.000000
 49
-0.000110
  0
LTYPE
  2
DIVIDE
 70
    64
  3
__ . . __ . . __ . . __ . . __ . . __ . . __
 72
    65
 73
     6
 40
0.000550
 49
0.000220
 49
-0.000110
 49
0.000000
 49
-0.000110
 49
0.000000
 49
-0.000110
  0
LTYPE
  2
DOTDOT
 70
    64
  3
 . .  . .  . .  . .  . .  . . 
 72
    65
 73
     5
 40
0.000242
 49
-0.000110
 49
0.000000
 49
-0.000110
 49
0.000000
 49
-0.000110
  0
ENDTAB
  0
TABLE
  2
STYLE
 70
     2
  0
STYLE
 70
     0
  2
SN0
 40
0.000000
 41
0.000440
 50
0.000000
 71
     0
 42
0.000000
  3
ROMAND
  0
STYLE
 70
    68
  2
SV0
 40
0.000000
 41
0.000440
 50
0.000000
 71
     0
 42
0.000000
  3
ROMAND
  0
ENDTAB
  0
TABLE
  2
LAYER
 70
     3
  0
LAYER
  2
FOREGROUND
 70
    64
 62
     7
  6
CONTINUOUS
  0
LAYER
  2
BACKGROUND
 70
    65
 62
    -7
  6
CONTINUOUS
  0
LAYER
  2
0
 70
    64
 62
     7
  6
CONTINUOUS
  0
ENDTAB
  0
ENDSEC
  0
SECTION
  2
ENTITIES
  0
POLYLINE
  8
FOREGROUND
  6
CONTINUOUS
 66
     1
 40
0.000000
 41
0.000000
  0
VERTEX
  8
FOREGROUND
  6
CONTINUOUS
 10
0.000000
 20
2.797960
  0
VERTEX
  8
FOREGROUND
  6
CONTINUOUS
 10
8.499920
 20
2.797960
  0
VERTEX
  8
FOREGROUND
  6
CONTINUOUS
 10
8.499920
 20
-8.202040
  0
VERTEX
  8
FOREGROUND
  6
CONTINUOUS
 10
0.000000
 20
-8.202040
  0
VERTEX
  8
FOREGROUND
  6
CONTINUOUS
 10
0.000000
 20
2.797960
  0
SEQEND
  8
0
  0
POLYLINE
  8
FOREGROUND
  6
CONTINUOUS
 66
     1
 40
0.000000
 41
0.000000
  0
VERTEX
  8
FOREGROUND
  6
CONTINUOUS
 10
0.000000
 20
2.797960
  0
VERTEX
  8
FOREGROUND
  6
CONTINUOUS
 10
8.499920
 20
2.797960
  0
VERTEX
  8
FOREGROUND
  6
CONTINUOUS
 10
8.499920
 20
-8.202040
  0
VERTEX
  8
FOREGROUND
  6
CONTINUOUS
 10
0.000000
 20
-8.202040
  0
VERTEX
  8
FOREGROUND
  6
CONTINUOUS
 10
0.000000
 20
2.797960
  0
SEQEND
  8
0
  0
SOLID
  8
0
 62
    15
 10
4.341920
 20
1.145320
 11
4.344560
 21
1.890240
 12
4.347200
 22
1.167320
 13
4.349840
 23
1.912240
  0
POLYLINE
  8
0
  6
CONTINUOUS
 66
     1
 40
0.000000
 41
0.000000
  0
VERTEX
  8
0
  6
CONTINUOUS
 10
4.341920
 20
1.145320
  0
VERTEX
  8
0
  6
CONTINUOUS
 10
4.344560
 20
1.890240
  0
VERTEX
  8
0
  6
CONTINUOUS
 10
4.349840
 20
1.912240
  0
VERTEX
  8
0
  6
CONTINUOUS
 10
4.347200
 20
1.167320
  0
VERTEX
  8
0
  6
CONTINUOUS
 10
4.341920
 20
1.145320
  0
SEQEND
  8
0
  0
SOLID
  8
0
 62
    15
 10
2.995080
 20
1.496440
 11
2.997720
 21
2.241360
 12
3.003000
 22
1.526800
 13
3.005200
 23
2.271720
  0
POLYLINE
  8
0
  6
CONTINUOUS
 66
     1
 40
0.000000
 41
0.000000
  0
VERTEX
  8
0
  6
CONTINUOUS
 10
2.995080
 20
1.496440
  0
VERTEX
  8
0
  6
CONTINUOUS
 10
2.997720
 20
2.241360
  0
VERTEX
  8
0
  6
CONTINUOUS
 10
3.005200
 20
2.271720
  0
VERTEX
  8
0
  6
CONTINUOUS
 10
3.003000
 20
1.526800
  0
VERTEX
  8
0
  6
CONTINUOUS
 10
2.995080
 20
1.496440
  0
SEQEND
  8
0
  0
SOLID
  8
0
 62
    15
 10
3.003000
 20
1.526800
 11
3.005200
 21
2.271720
 12
3.014880
 22
1.551880
 13
3.017520
 23
2.296360
  0
POLYLINE
  8
0
  6
CONTINUOUS
 66
     1
 40
0.000000
 41
0.000000
  0
VERTEX
  8
0
  6
CONTINUOUS
 10
3.003000
 20
1.526800
  0
VERTEX
  8
0
  6
CONTINUOUS
 10
3.005200
 20
2.271720
  0
VERTEX
  8
0
  6
CONTINUOUS
 10
3.017520
 20
2.296360
  0
VERTEX
  8
0
  6
CONTINUOUS
 10
3.014880
 20
1.551880
  0
VERTEX
  8
0
  6
CONTINUOUS
 10
3.003000
 20
1.526800
  0
SEQEND
  8
0
  0
SOLID
  8
0
 62
    15
 10
3.014880
 20
1.551880
 11
3.017520
 21
2.296360
 12
3.031160
 22
1.571240
 13
3.033360
 23
2.315720
  0
POLYLINE
  8
0
  6
CONTINUOUS
 66
     1
 40
0.000000
 41
0.000000
  0
VERTEX
  8
0
  6
CONTINUOUS
 10
3.014880
 20
1.551880
  0
VERTEX
  8
0
  6
CONTINUOUS
 10
3.017520
 20
2.296360
  0
VERTEX
  8
0
  6
CONTINUOUS
 10
3.033360
 20
2.315720
  0
VERTEX
  8
0
  6
CONTINUOUS
 10
3.031160
 20
1.571240
  0
VERTEX
  8
0
  6
CONTINUOUS
 10
3.014880
 20
1.551880
  0
SEQEND
  8
0
  0
SOLID
  8
0
 62
    15
 10
3.031160
 20
1.571240
 11
3.033360
 21
2.315720
 12
3.050520
 22
1.585320
 13
3.053160
 23
2.329800
  0
POLYLINE
  8
0
  6
CONTINUOUS
 66
     1
 40
0.000000
 41
0.000000
  0
VERTEX
  8
0
  6
CONTINUOUS
 10
3.031160
 20
1.571240
  0
VERTEX
  8
0
  6
CONTINUOUS
 10
3.033360
 20
2.315720
  0
VERTEX
  8
0
  6
CONTINUOUS
 10
3.053160
 20
2.329800
  0
VERTEX
  8
0
  6
CONTINUOUS
 10
3.050520
 20
1.585320
  0
VERTEX
  8
0
  6
CONTINUOUS
 10
3.031160
 20
1.571240
  0
SEQEND
  8
0
  0
SOLID
  8
0
 62
    15
 10
3.050520
 20
1.585320
 11
3.053160
 21
2.329800
 12
3.072960
 22
1.593680
 13
3.075600
 23
2.338600
  0
POLYLINE
  8
0
  6
CONTINUOUS
 66
     1
 40
0.000000
 41
0.000000
  0
VERTEX
  8
0
  6
CONTINUOUS
 10
3.050520
 20
1.585320
  0
VERTEX
  8
0
  6
CONTINUOUS
 10
3.053160
 20
2.329800
  0
VERTEX
  8
0
  6
CONTINUOUS
 10
3.075600
 20
2.338600
  0
VERTEX
  8
0
  6
CONTINUOUS
 10
3.072960
 20
1.593680
  0
VERTEX
  8
0
  6
CONTINUOUS
 10
3.050520
 20
1.585320
  0
SEQEND
  8
0
  0
SOLID
  8
0
 62
    15
 10
3.072960
 20
1.593680
 11
3.075600
 21
2.338600
 12
3.097600
 22
1.596760
 13
3.100240
 23
2.341680
  0
POLYLINE
  8
0
  6
CONTINUOUS
 66
     1
 40
0.000000
 41
0.000000
  0
VERTEX
  8
0
  6
CONTINUOUS
 10
3.072960
 20
1.593680
  0
VERTEX
  8
0
  6
CONTINUOUS
 10
3.075600
 20
2.338600
  0
VERTEX
  8
0
  6
CONTINUOUS
 10
3.100240
 20
2.341680
  0
VERTEX
  8
0
  6
CONTINUOUS
 10
3.097600
 20
1.596760
  0
VERTEX
  8
0
  6
CONTINUOUS
 10
3.072960
 20
1.593680
  0
SEQEND
  8
0
  0
SOLID
  8
0
 62
    15
 10
3.097600
 20
1.596760
 11
3.100240
 21
2.341680
 12
3.124440
 22
1.594560
 13
3.127080
 23
2.339480
  0
POLYLINE
  8
0
  6
CONTINUOUS
 66
     1
 40
0.000000
 41
0.000000
  0
VERTEX
  8
0
  6
CONTINUOUS
 10
3.097600
 20
1.596760
  0
VERTEX
  8
0
  6
CONTINUOUS
 10
3.100240
 20
2.341680
  0
VERTEX
  8
0
  6
CONTINUOUS
 10
3.127080
 20
2.339480
  0
VERTEX
  8
0
  6
CONTINUOUS
 10
3.124440
 20
1.594560
  0
VERTEX
  8
0
  6
CONTINUOUS
 10
3.097600
 20
1.596760
  0
SEQEND
  8
0
  0
SOLID
  8
0
 62
    15
 10
3.124440
 20
1.594560
 11
3.127080
 21
2.339480
 12
3.152600
 22
1.587520
 13
3.155240
 23
2.332000
  0
POLYLINE
  8
0
  6
CONTINUOUS
 66
     1
 40
0.000000
 41
0.000000
  0
VERTEX
  8
0
  6
CONTINUOUS
 10
3.124440
 20
1.594560
  0
VERTEX
  8
0
  6
CONTINUOUS
 10
3.127080
 20
2.339480
  0
VERTEX
  8
0
  6
CONTINUOUS
 10
3.155240
 20
2.332000
  0
VERTEX
  8
0
  6
CONTINUOUS
 10
3.152600
 20
1.587520
  0
VERTEX
  8
0
  6
CONTINUOUS
 10
3.124440
 20
1.594560
  0
SEQEND
  8
0
  0
SOLID
  8
0
 62
    15
 10
3.152600
 20
1.587520
 11
3.155240
 21
2.332000
 12
3.182080
 22
1.574760
 13
3.184280
 23
2.319240
  0
POLYLINE
  8
0
  6
CONTINUOUS
 66
     1
 40
0.000000
 41
0.000000
  0
VERTEX
  8
0
  6
CONTINUOUS
 10
3.152600
 20
1.587520
  0
VERTEX
  8
0
  6
CONTINUOUS
 10
3.155240
 20
2.332000
  0
VERTEX
  8
0
  6
CONTINUOUS
 10
3.184280
 20
2.319240
  0
VERTEX
  8
0
  6
CONTINUOUS
 10
3.182080
 20
1.574760
  0
VERTEX
  8
0
  6
CONTINUOUS
 10
3.152600
 20
1.587520
  0
SEQEND
  8
0
  0
SOLID
  8
0
 62
    15
 10
3.182080
 20
1.574760
 11
3.184280
 21
2.319240
 12
3.211560
 22
1.556720
 13
3.214200
 23
2.301640
  0
POLYLINE
  8
0
  6
CONTINUOUS
 66
     1
 40
0.000000
 41
0.000000
  0
VERTEX
  8
0
  6
CONTINUOUS
 10
3.182080
 20
1.574760
  0
VERTEX
  8
0
  6
CONTINUOUS
 10
3.184280
 20
2.319240
  0
VERTEX
  8
0
  6
CONTINUOUS
 10
3.214200
 20
2.301640
  0
VERTEX
  8
0
  6
CONTINUOUS
 10
3.211560
 20
1.556720
  0
VERTEX
  8
0
  6
CONTINUOUS
 10
3.182080
 20
1.574760
  0
SEQEND
  8
0
  0
SOLID
  8
0
 62
    15
 10
3.211560
 20
1.556720
 11
3.214200
 21
2.301640
 12
3.241480
 22
1.533400
 13
3.244120
 23
2.278320
  0
POLYLINE
  8
0
  6
CONTINUOUS
 66
     1
 40
0.000000
 41
0.000000
  0
VERTEX
  8
0
  6
CONTINUOUS
 10
3.211560
 20
1.556720
  0
VERTEX
  8
0
  6
CONTINUOUS
 10
3.214200
 20
2.301640
  0
VERTEX
  8
0
  6
CONTINUOUS
 10
3.244120
 20
2.278320
  0
VERTEX
  8
0
  6
CONTINUOUS
 10
3.241480
 20
1.533400
  0
VERTEX
  8
0
  6
CONTINUOUS
 10
3.211560
 20
1.556720
  0
SEQEND
  8
0
  0
SOLID
  8
0
 62
    15
 10
3.241480
 20
1.533400
 11
3.244120
 21
2.278320
 12
3.270960
 22
1.505240
 13
3.273160
 23
2.250160
  0
POLYLINE
  8
0
  6
CONTINUOUS
 66
     1
 40
0.000000
 41
0.000000
  0
VERTEX
  8
0
  6
CONTINUOUS
 10
3.241480
 20
1.533400
  0
VERTEX
  8
0
  6
CONTINUOUS
 10
3.244120
 20
2.278320
  0
VERTEX
  8
0
  6
CONTINUOUS
 10
3.273160
 20
2.250160
  0
VERTEX
  8
0
  6
CONTINUOUS
 10
3.270960
 20
1.505240
  0
VERTEX
  8
0
  6
CONTINUOUS
 10
3.241480
 20
1.533400
  0
SEQEND
  8
0
  0
SOLID
  8
0
 62
    15
 10
3.270960
 20
1.505240
 11
3.273160
 21
2.250160
 12
3.299120
 22
1.471800
 13
3.301760
 23
2.216720
  0
POLYLINE
  8
0
  6
CONTINUOUS
 66
     1
 40
0.000000
 41
0.000000
  0
VERTEX
  8
0
  6
CONTINUOUS
 10
3.270960
 20
1.505240
  0
VERTEX
  8
0
  6
CONTINUOUS
 10
3.273160
 20
2.250160
  0
VERTEX
  8
0
  6
CONTINUOUS
 10
3.301760
 20
2.216720
  0
VERTEX
  8
0
  6
CONTINUOUS
 10
3.299120
 20
1.471800
  0
VERTEX
  8
0
  6
CONTINUOUS
 10
3.270960
 20
1.505240
  0
SEQEND
  8
0
  0
SOLID
  8
0
 62
    15
 10
3.299120
 20
1.471800
 11
3.301760
 21
2.216720
 12
3.325960
 22
1.433520
 13
3.328600
 23
2.178000
  0
POLYLINE
  8
0
  6
CONTINUOUS
 66
     1
 40
0.000000
 41
0.000000
  0
VERTEX
  8
0
  6
CONTINUOUS
 10
3.299120
 20
1.471800
  0
VERTEX
  8
0
  6
CONTINUOUS
 10
3.301760
 20
2.216720
  0
VERTEX
  8
0
  6
CONTINUOUS
 10
3.328600
 20
2.178000
  0
VERTEX
  8
0
  6
CONTINUOUS
 10
3.325960
 20
1.433520
  0
VERTEX
  8
0
  6
CONTINUOUS
 10
3.299120
 20
1.471800
  0
SEQEND
  8
0
  0
SOLID
  8
0
 62
    15
 10
3.325960
 20
1.433520
 11
3.328600
 21
2.178000
 12
3.351040
 22
1.389520
 13
3.353680
 23
2.134440
  0
POLYLINE
  8
0
  6
CONTINUOUS
 66
     1
 40
0.000000
 41
0.000000
  0
VERTEX
  8
0
  6
CONTINUOUS
 10
3.325960
 20
1.433520
  0
VERTEX
  8
0
  6
CONTINUOUS
 10
3.328600
 20
2.178000
  0
VERTEX
  8
0
  6
CONTINUOUS
 10
3.353680
 20
2.134440
  0
VERTEX
  8
0
  6
CONTINUOUS
 10
3.351040
 20
1.389520
  0
VERTEX
  8
0
  6
CONTINUOUS
 10
3.325960
 20
1.433520
  0
SEQEND
  8
0
  0
SOLID
  8
0
 62
    15
 10
3.351040
 20
1.389520
 11
3.353680
 21
2.134440
 12
4.341920
 22
1.145320
 13
4.344560
 23
1.890240
  0
POLYLINE
  8
0
  6
CONTINUOUS
 66
     1
 40
0.000000
 41
0.000000
  0
VERTEX
  8
0
  6
CONTINUOUS
 10
3.351040
 20
1.389520
  0
VERTEX
  8
0
  6
CONTINUOUS
 10
3.353680
 20
2.134440
  0
VERTEX
  8
0
  6
CONTINUOUS
 10
4.344560
 20
1.890240
  0
VERTEX
  8
0
  6
CONTINUOUS
 10
4.341920
 20
1.145320
  0
VERTEX
  8
0
  6
CONTINUOUS
 10
3.351040
 20
1.389520
  0
SEQEND
  8
0
  0
SOLID
  8
0
 62
    15
 10
2.992000
 20
1.460800
 11
2.994640
 21
2.205280
 12
2.995080
 22
1.496440
 13
2.997720
 23
2.241360
  0
POLYLINE
  8
0
  6
CONTINUOUS
 66
     1
 40
0.000000
 41
0.000000
  0
VERTEX
  8
0
  6
CONTINUOUS
 10
2.992000
 20
1.460800
  0
VERTEX
  8
0
  6
CONTINUOUS
 10
2.994640
 20
2.205280
  0
VERTEX
  8
0
  6
CONTINUOUS
 10
2.997720
 20
2.241360
  0
VERTEX
  8
0
  6
CONTINUOUS
 10
2.995080
 20
1.496440
  0
VERTEX
  8
0
  6
CONTINUOUS
 10
2.992000
 20
1.460800
  0
SEQEND
  8
0
  0
SOLID
  8
0
 62
    15
 10
4.347200
 20
1.167320
 11
4.349840
 21
1.912240
 12
4.355120
 22
1.186680
 13
4.357760
 23
1.931600
  0
POLYLINE
  8
0
  6
CONTINUOUS
 66
     1
 40
0.000000
 41
0.000000
  0
VERTEX
  8
0
  6
CONTINUOUS
 10
4.347200
 20
1.167320
  0
VERTEX
  8
0
  6
CONTINUOUS
 10
4.349840
 20
1.912240
  0
VERTEX
  8
0
  6
CONTINUOUS
 10
4.357760
 20
1.931600
  0
VERTEX
  8
0
  6
CONTINUOUS
 10
4.355120
 20
1.186680
  0
VERTEX
  8
0
  6
CONTINUOUS
 10
4.347200
 20
1.167320
  0
SEQEND
  8
0
  0
SOLID
  8
0
 62
    15
 10
4.355120
 20
1.186680
 11
4.357760
 21
1.931600
 12
4.365240
 22
1.203840
 13
4.367880
 23
1.948320
  0
POLYLINE
  8
0
  6
CONTINUOUS
 66
     1
 40
0.000000
 41
0.000000
  0
VERTEX
  8
0
  6
CONTINUOUS
 10
4.355120
 20
1.186680
  0
VERTEX
  8
0
  6
CONTINUOUS
 10
4.357760
 20
1.931600
  0
VERTEX
  8
0
  6
CONTINUOUS
 10
4.367880
 20
1.948320
  0
VERTEX
  8
0
  6
CONTINUOUS
 10
4.365240
 20
1.203840
  0
VERTEX
  8
0
  6
CONTINUOUS
 10
4.355120
 20
1.186680
  0
SEQEND
  8
0
  0
SOLID
  8
0
 62
    15
 10
4.365240
 20
1.203840
 11
4.367880
 21
1.948320
 12
4.377120
 22
1.217920
 13
4.379760
 23
1.962400
  0
POLYLINE
  8
0
  6
CONTINUOUS
 66
     1
 40
0.000000
 41
0.000000
  0
VERTEX
  8
0
  6
CONTINUOUS
 10
4.365240
 20
1.203840
  0
VERTEX
  8
0
  6
CONTINUOUS
 10
4.367880
 20
1.948320
  0
VERTEX
  8
0
  6
CONTINUOUS
 10
4.379760
 20
1.962400
  0
VERTEX
  8
0
  6
CONTINUOUS
 10
4.377120
 20
1.217920
  0
VERTEX
  8
0
  6
CONTINUOUS
 10
4.365240
 20
1.203840
  0
SEQEND
  8
0
  0
SOLID
  8
0
 62
    15
 10
4.377120
 20
1.217920
 11
4.379760
 21
1.962400
 12
4.390760
 22
1.228920
 13
4.393400
 23
1.973840
  0
POLYLINE
  8
0
  6
CONTINUOUS
 66
     1
 40
0.000000
 41
0.000000
  0
VERTEX
  8
0
  6
CONTINUOUS
 10
4.377120
 20
1.217920
  0
VERTEX
  8
0
  6
CONTINUOUS
 10
4.379760
 20
1.962400
  0
VERTEX
  8
0
  6
CONTINUOUS
 10
4.393400
 20
1.973840
  0
VERTEX
  8
0
  6
CONTINUOUS
 10
4.390760
 20
1.228920
  0
VERTEX
  8
0
  6
CONTINUOUS
 10
4.377120
 20
1.217920
  0
SEQEND
  8
0
  0
SOLID
  8
0
 62
    15
 10
4.390760
 20
1.228920
 11
4.393400
 21
1.973840
 12
4.406160
 22
1.237280
 13
4.408360
 23
1.982200
  0
POLYLINE
  8
0
  6
CONTINUOUS
 66
     1
 40
0.000000
 41
0.000000
  0
VERTEX
  8
0
  6
CONTINUOUS
 10
4.390760
 20
1.228920
  0
VERTEX
  8
0
  6
CONTINUOUS
 10
4.393400
 20
1.973840
  0
VERTEX
  8
0
  6
CONTINUOUS
 10
4.408360
 20
1.982200
  0
VERTEX
  8
0
  6
CONTINUOUS
 10
4.406160
 20
1.237280
  0
VERTEX
  8
0
  6
CONTINUOUS
 10
4.390760
 20
1.228920
  0
SEQEND
  8
0
  0
SOLID
  8
0
 62
    15
 10
4.406160
 20
1.237280
 11
4.408360
 21
1.982200
 12
4.422000
 22
1.242560
 13
4.424200
 23
1.987040
  0
POLYLINE
  8
0
  6
CONTINUOUS
 66
     1
 40
0.000000
 41
0.000000
  0
VERTEX
  8
0
  6
CONTINUOUS
 10
4.406160
 20
1.237280
  0
VERTEX
  8
0
  6
CONTINUOUS
 10
4.408360
 20
1.982200
  0
VERTEX
  8
0
  6
CONTINUOUS
 10
4.424200
 20
1.987040
  0
VERTEX
  8
0
  6
CONTINUOUS
 10
4.422000
 20
1.242560
  0
VERTEX
  8
0
  6
CONTINUOUS
 10
4.406160
 20
1.237280
  0
SEQEND
  8
0
  0
SOLID
  8
0
 62
    15
 10
4.422000
 20
1.242560
 11
4.424200
 21
1.987040
 12
4.438720
 22
1.244320
 13
4.440920
 23
1.989240
  0
POLYLINE
  8
0
  6
CONTINUOUS
 66
     1
 40
0.000000
 41
0.000000
  0
VERTEX
  8
0
  6
CONTINUOUS
 10
4.422000
 20
1.242560
  0
VERTEX
  8
0
  6
CONTINUOUS
 10
4.424200
 20
1.987040
  0
VERTEX
  8
0
  6
CONTINUOUS
 10
4.440920
 20
1.989240
  0
VERTEX
  8
0
  6
CONTINUOUS
 10
4.438720
 20
1.244320
  0
VERTEX
  8
0
  6
CONTINUOUS
 10
4.422000
 20
1.242560
  0
SEQEND
  8
0
  0
SOLID
  8
0
 62
    15
 10
4.438720
 20
1.244320
 11
4.440920
 21
1.989240
 12
4.472600
 22
1.238600
 13
4.475240
 23
1.983520
  0
POLYLINE
  8
0
  6
CONTINUOUS
 66
     1
 40
0.000000
 41
0.000000
  0
VERTEX
  8
0
  6
CONTINUOUS
 10
4.438720
 20
1.244320
  0
VERTEX
  8
0
  6
CONTINUOUS
 10
4.440920
 20
1.989240
  0
VERTEX
  8
0
  6
CONTINUOUS
 10
4.475240
 20
1.983520
  0
VERTEX
  8
0
  6
CONTINUOUS
 10
4.472600
 20
1.238600
  0
VERTEX
  8
0
  6
CONTINUOUS
 10
4.438720
 20
1.244320
  0
SEQEND
  8
0
  0
SOLID
  8
0
 62
    15
 10
4.472600
 20
1.238600
 11
4.475240
 21
1.983520
 12
4.489320
 22
1.230680
 13
4.491960
 23
1.975160
  0
POLYLINE
  8
0
  6
CONTINUOUS
 66
     1
 40
0.000000
 41
0.000000
  0
VERTEX
  8
0
  6
CONTINUOUS
 10
4.472600
 20
1.238600
  0
VERTEX
  8
0
  6
CONTINUOUS
 10
4.475240
 20
1.983520
  0
VERTEX
  8
0
  6
CONTINUOUS
 10
4.491960
 20
1.975160
  0
VERTEX
  8
0
  6
CONTINUOUS
 10
4.489320
 20
1.230680
  0
VERTEX
  8
0
  6
CONTINUOUS
 10
4.472600
 20
1.238600
  0
SEQEND
  8
0
  0
SOLID
  8
0
 62
    15
 10
4.489320
 20
1.230680
 11
4.491960
 21
1.975160
 12
4.505600
 22
1.218800
 13
4.507800
 23
1.963720
  0
POLYLINE
  8
0
  6
CONTINUOUS
 66
     1
 40
0.000000
 41
0.000000
  0
VERTEX
  8
0
  6
CONTINUOUS
 10
4.489320
 20
1.230680
  0
VERTEX
  8
0
  6
CONTINUOUS
 10
4.491960
 20
1.975160
  0
VERTEX
  8
0
  6
CONTINUOUS
 10
4.507800
 20
1.963720
  0
VERTEX
  8
0
  6
CONTINUOUS
 10
4.505600
 20
1.218800
  0
VERTEX
  8
0
  6
CONTINUOUS
 10
4.489320
 20
1.230680
  0
SEQEND
  8
0
  0
SOLID
  8
0
 62
    15
 10
4.505600
 20
1.218800
 11
4.507800
 21
1.963720
 12
4.520560
 22
1.203840
 13
4.523200
 23
1.948320
  0
POLYLINE
  8
0
  6
CONTINUOUS
 66
     1
 40
0.000000
 41
0.000000
  0
VERTEX
  8
0
  6
CONTINUOUS
 10
4.505600
 20
1.218800
  0
VERTEX
  8
0
  6
CONTINUOUS
 10
4.507800
 20
1.963720
  0
VERTEX
  8
0
  6
CONTINUOUS
 10
4.523200
 20
1.948320
  0
VERTEX
  8
0
  6
CONTINUOUS
 10
4.520560
 20
1.203840
  0
VERTEX
  8
0
  6
CONTINUOUS
 10
4.505600
 20
1.218800
  0
SEQEND
  8
0
  0
SOLID
  8
0
 62
    15
 10
4.520560
 20
1.203840
 11
4.523200
 21
1.948320
 12
4.534640
 22
1.184480
 13
4.537280
 23
1.929400
  0
POLYLINE
  8
0
  6
CONTINUOUS
 66
     1
 40
0.000000
 41
0.000000
  0
VERTEX
  8
0
  6
CONTINUOUS
 10
4.520560
 20
1.203840
  0
VERTEX
  8
0
  6
CONTINUOUS
 10
4.523200
 20
1.948320
  0
VERTEX
  8
0
  6
CONTINUOUS
 10
4.537280
 20
1.929400
  0
VERTEX
  8
0
  6
CONTINUOUS
 10
4.534640
 20
1.184480
  0
VERTEX
  8
0
  6
CONTINUOUS
 10
4.520560
 20
1.203840
  0
SEQEND
  8
0
  0
SOLID
  8
0
 62
    15
 10
4.534640
 20
1.184480
 11
4.537280
 21
1.929400
 12
4.547400
 22
1.161600
 13
4.549600
 23
1.906080
  0
POLYLINE
  8
0
  6
CONTINUOUS
 66
     1
 40
0.000000
 41
0.000000
  0
VERTEX
  8
0
  6
CONTINUOUS
 10
4.534640
 20
1.184480
  0
VERTEX
  8
0
  6
CONTINUOUS
 10
4.537280
 20
1.929400
  0
VERTEX
  8
0
  6
CONTINUOUS
 10
4.549600
 20
1.906080
  0
VERTEX
  8
0
  6
CONTINUOUS
 10
4.547400
 20
1.161600
  0
VERTEX
  8
0
  6
CONTINUOUS
 10
4.534640
 20
1.184480
  0
SEQEND
  8
0
  0
SOLID
  8
0
 62
    15
 10
4.547400
 20
1.161600
 11
4.549600
 21
1.906080
 12
4.557960
 22
1.134320
 13
4.560160
 23
1.879240
  0
POLYLINE
  8
0
  6
CONTINUOUS
 66
     1
 40
0.000000
 41
0.000000
  0
VERTEX
  8
0
  6
CONTINUOUS
 10
4.547400
 20
1.161600
  0
VERTEX
  8
0
  6
CONTINUOUS
 10
4.549600
 20
1.906080
  0
VERTEX
  8
0
  6
CONTINUOUS
 10
4.560160
 20
1.879240
  0
VERTEX
  8
0
  6
CONTINUOUS
 10
4.557960
 20
1.134320
  0
VERTEX
  8
0
  6
CONTINUOUS
 10
4.547400
 20
1.161600
  0
SEQEND
  8
0
  0
SOLID
  8
0
 62
    15
 10
4.714600
 20
1.151040
 11
4.717240
 21
1.895520
 12
4.714600
 22
0.904640
 13
4.717240
 23
1.649560
  0
POLYLINE
  8
0
  6
CONTINUOUS
 66
     1
 40
0.000000
 41
0.000000
  0
VERTEX
  8
0
  6
CONTINUOUS
 10
4.714600
 20
1.151040
  0
VERTEX
  8
0
  6
CONTINUOUS
 10
4.717240
 20
1.895520
  0
VERTEX
  8
0
  6
CONTINUOUS
 10
4.717240
 20
1.649560
  0
VERTEX
  8
0
  6
CONTINUOUS
 10
4.714600
 20
0.904640
  0
VERTEX
  8
0
  6
CONTINUOUS
 10
4.714600
 20
1.151040
  0
SEQEND
  8
0
  0
SOLID
  8
0
 62
    15
 10
4.557960
 20
1.134320
 11
4.560160
 21
1.879240
 12
4.714600
 22
1.151040
 13
4.717240
 23
1.895520
  0
POLYLINE
  8
0
  6
CONTINUOUS
 66
     1
 40
0.000000
 41
0.000000
  0
VERTEX
  8
0
  6
CONTINUOUS
 10
4.557960
 20
1.134320
  0
VERTEX
  8
0
  6
CONTINUOUS
 10
4.560160
 20
1.879240
  0
VERTEX
  8
0
  6
CONTINUOUS
 10
4.717240
 20
1.895520
  0
VERTEX
  8
0
  6
CONTINUOUS
 10
4.714600
 20
1.151040
  0
VERTEX
  8
0
  6
CONTINUOUS
 10
4.557960
 20
1.134320
  0
SEQEND
  8
0
  0
SOLID
  8
0
 62
    15
 10
2.957240
 20
1.460800
 11
2.959880
 21
2.205280
 12
2.992000
 22
1.460800
 13
2.994640
 23
2.205280
  0
POLYLINE
  8
0
  6
CONTINUOUS
 66
     1
 40
0.000000
 41
0.000000
  0
VERTEX
  8
0
  6
CONTINUOUS
 10
2.957240
 20
1.460800
  0
VERTEX
  8
0
  6
CONTINUOUS
 10
2.959880
 20
2.205280
  0
VERTEX
  8
0
  6
CONTINUOUS
 10
2.994640
 20
2.205280
  0
VERTEX
  8
0
  6
CONTINUOUS
 10
2.992000
 20
1.460800
  0
VERTEX
  8
0
  6
CONTINUOUS
 10
2.957240
 20
1.460800
  0
SEQEND
  8
0
  0
POLYLINE
  8
0
  6
CONTINUOUS
 66
     1
 40
0.000000
 41
0.000000
  0
VERTEX
  8
0
  6
CONTINUOUS
 10
2.992000
 20
1.460800
  0
VERTEX
  8
0
  6
CONTINUOUS
 10
2.995080
 20
1.496440
  0
VERTEX
  8
0
  6
CONTINUOUS
 10
3.003000
 20
1.526800
  0
VERTEX
  8
0
  6
CONTINUOUS
 10
3.014880
 20
1.551880
  0
VERTEX
  8
0
  6
CONTINUOUS
 10
3.031160
 20
1.571240
  0
VERTEX
  8
0
  6
CONTINUOUS
 10
3.050520
 20
1.585320
  0
VERTEX
  8
0
  6
CONTINUOUS
 10
3.072960
 20
1.593680
  0
VERTEX
  8
0
  6
CONTINUOUS
 10
3.097600
 20
1.596760
  0
VERTEX
  8
0
  6
CONTINUOUS
 10
3.124440
 20
1.594560
  0
VERTEX
  8
0
  6
CONTINUOUS
 10
3.152600
 20
1.587520
  0
VERTEX
  8
0
  6
CONTINUOUS
 10
3.182080
 20
1.574760
  0
VERTEX
  8
0
  6
CONTINUOUS
 10
3.211560
 20
1.556720
  0
VERTEX
  8
0
  6
CONTINUOUS
 10
3.241480
 20
1.533400
  0
VERTEX
  8
0
  6
CONTINUOUS
 10
3.270960
 20
1.505240
  0
VERTEX
  8
0
  6
CONTINUOUS
 10
3.299120
 20
1.471800
  0
VERTEX
  8
0
  6
CONTINUOUS
 10
3.325960
 20
1.433520
  0
VERTEX
  8
0
  6
CONTINUOUS
 10
3.351040
 20
1.389520
  0
VERTEX
  8
0
  6
CONTINUOUS
 10
4.341920
 20
1.145320
  0
VERTEX
  8
0
  6
CONTINUOUS
 10
4.347200
 20
1.167320
  0
VERTEX
  8
0
  6
CONTINUOUS
 10
4.355120
 20
1.186680
  0
VERTEX
  8
0
  6
CONTINUOUS
 10
4.365240
 20
1.203840
  0
VERTEX
  8
0
  6
CONTINUOUS
 10
4.377120
 20
1.217920
  0
VERTEX
  8
0
  6
CONTINUOUS
 10
4.390760
 20
1.228920
  0
VERTEX
  8
0
  6
CONTINUOUS
 10
4.406160
 20
1.237280
  0
VERTEX
  8
0
  6
CONTINUOUS
 10
4.422000
 20
1.242560
  0
VERTEX
  8
0
  6
CONTINUOUS
 10
4.438720
 20
1.244320
  0
VERTEX
  8
0
  6
CONTINUOUS
 10
4.472600
 20
1.238600
  0
VERTEX
  8
0
  6
CONTINUOUS
 10
4.489320
 20
1.230680
  0
VERTEX
  8
0
  6
CONTINUOUS
 10
4.505600
 20
1.218800
  0
VERTEX
  8
0
  6
CONTINUOUS
 10
4.520560
 20
1.203840
  0
VERTEX
  8
0
  6
CONTINUOUS
 10
4.534640
 20
1.184480
  0
VERTEX
  8
0
  6
CONTINUOUS
 10
4.547400
 20
1.161600
  0
VERTEX
  8
0
  6
CONTINUOUS
 10
4.557960
 20
1.134320
  0
VERTEX
  8
0
  6
CONTINUOUS
 10
4.714600
 20
1.151040
  0
VERTEX
  8
0
  6
CONTINUOUS
 10
4.714600
 20
0.904640
  0
VERTEX
  8
0
  6
CONTINUOUS
 10
2.957240
 20
0.904640
  0
VERTEX
  8
0
  6
CONTINUOUS
 10
2.957240
 20
1.460800
  0
VERTEX
  8
0
  6
CONTINUOUS
 10
2.992000
 20
1.460800
  0
SEQEND
  8
0
  0
TEXT
  8
0
 10
3.542440
 20
0.690800
 40
0.138085
  1
BA  814
 41
1.000000
  7
SN0
 71
     0
 72
     5
 11
4.132696
 21
0.690800
  0
TEXT
  8
0
 10
3.317160
 20
0.498960
 40
0.138085
  1
11/16" x1-3/4"
 41
1.000000
  7
SN0
 71
     0
 72
     5
 11
4.356524
 21
0.498960
  0
POLYLINE
  8
0
  6
CONTINUOUS
 66
     1
 40
0.014080
 41
0.014080
  0
VERTEX
  8
0
  6
CONTINUOUS
 10
4.946480
 20
2.099240
  0
VERTEX
  8
0
  6
CONTINUOUS
 10
4.947360
 20
2.117720
  0
VERTEX
  8
0
  6
CONTINUOUS
 10
4.952640
 20
2.150720
  0
VERTEX
  8
0
  6
CONTINUOUS
 10
4.957040
 20
2.165240
  0
VERTEX
  8
0
  6
CONTINUOUS
 10
4.969360
 20
2.190320
  0
VERTEX
  8
0
  6
CONTINUOUS
 10
4.985200
 20
2.209680
  0
VERTEX
  8
0
  6
CONTINUOUS
 10
5.005000
 20
2.223760
  0
VERTEX
  8
0
  6
CONTINUOUS
 10
5.027000
 20
2.232120
  0
VERTEX
  8
0
  6
CONTINUOUS
 10
5.052080
 20
2.235200
  0
VERTEX
  8
0
  6
CONTINUOUS
 10
5.078920
 20
2.233000
  0
VERTEX
  8
0
  6
CONTINUOUS
 10
5.093000
 20
2.230360
  0
VERTEX
  8
0
  6
CONTINUOUS
 10
5.121600
 20
2.220240
  0
VERTEX
  8
0
  6
CONTINUOUS
 10
5.151080
 20
2.204840
  0
VERTEX
  8
0
  6
CONTINUOUS
 10
5.181000
 20
2.184160
  0
VERTEX
  8
0
  6
CONTINUOUS
 10
5.210480
 20
2.158640
  0
VERTEX
  8
0
  6
CONTINUOUS
 10
5.253600
 20
2.110240
  0
VERTEX
  8
0
  6
CONTINUOUS
 10
5.280440
 20
2.071520
  0
VERTEX
  8
0
  6
CONTINUOUS
 10
5.305520
 20
2.027960
  0
VERTEX
  8
0
  6
CONTINUOUS
 10
6.296400
 20
1.783760
  0
VERTEX
  8
0
  6
CONTINUOUS
 10
6.301680
 20
1.805760
  0
VERTEX
  8
0
  6
CONTINUOUS
 10
6.309600
 20
1.825120
  0
VERTEX
  8
0
  6
CONTINUOUS
 10
6.319720
 20
1.842280
  0
VERTEX
  8
0
  6
CONTINUOUS
 10
6.338200
 20
1.862080
  0
VERTEX
  8
0
  6
CONTINUOUS
 10
6.352720
 20
1.872200
  0
VERTEX
  8
0
  6
CONTINUOUS
 10
6.376040
 20
1.881000
  0
VERTEX
  8
0
  6
CONTINUOUS
 10
6.392760
 20
1.883200
  0
VERTEX
  8
0
  6
CONTINUOUS
 10
6.409920
 20
1.881880
  0
VERTEX
  8
0
  6
CONTINUOUS
 10
6.426640
 20
1.877040
  0
VERTEX
  8
0
  6
CONTINUOUS
 10
6.443360
 20
1.869120
  0
VERTEX
  8
0
  6
CONTINUOUS
 10
6.459640
 20
1.857240
  0
VERTEX
  8
0
  6
CONTINUOUS
 10
6.475040
 20
1.842280
  0
VERTEX
  8
0
  6
CONTINUOUS
 10
6.489120
 20
1.822920
  0
VERTEX
  8
0
  6
CONTINUOUS
 10
6.507160
 20
1.786840
  0
VERTEX
  8
0
  6
CONTINUOUS
 10
6.512000
 20
1.772760
  0
VERTEX
  8
0
  6
CONTINUOUS
 10
6.669080
 20
1.789480
  0
VERTEX
  8
0
  6
CONTINUOUS
 10
6.669080
 20
1.543520
  0
VERTEX
  8
0
  6
CONTINUOUS
 10
4.911720
 20
1.543520
  0
VERTEX
  8
0
  6
CONTINUOUS
 10
4.911720
 20
2.099240
  0
VERTEX
  8
0
  6
CONTINUOUS
 10
4.946480
 20
2.099240
  0
SEQEND
  8
0
  0
ENDSEC
  0
EOF
