  0
SECTION
  2
HEADER
  9
$ACADVER
  1
AC1006
  9
$EXTMIN
 10
3.314080
 20
0.568920
  9
$EXTMAX
 10
6.527840
 20
2.453880
  9
$LTSCALE
 40
0.044000
  9
$PDMODE
 70
    35
  9
$PDSIZE
 40
0.035200
  0
ENDSEC
  0
SECTION
  2
TABLES
  0
TABLE
  2
LTYPE
 70
     9
  0
LTYPE
  2
CONTINUOUS
 70
    64
  3
Solid line
 72
    65
 73
     0
 40
0.000000
  0
LTYPE
  2
DASHED
 70
    64
  3
__ __ __ __ __ __ __ __ __ __ __ __ __ __ __
 72
    65
 73
     2
 40
0.000330
 49
0.000220
 49
-0.000110
  0
LTYPE
  2
HIDDEN
 70
    64
  3
 _ _ _ _ _ _ _ _ _ _ _ _ _ _ _ _ _ _ _ _ _ _
 72
    65
 73
     2
 40
0.000165
 49
0.000110
 49
-0.000055
  0
LTYPE
  2
CENTER
 70
    64
  3
____ _ ____ _ ____ _ ____ _ ____ _ ____ _ ____
 72
    65
 73
     4
 40
0.000880
 49
0.000550
 49
-0.000110
 49
0.000110
 49
-0.000110
  0
LTYPE
  2
PHANTOM
 70
    64
  3
_____ _ _ _____ _ _ _____ _ _ _____ _ _ ____
 72
    65
 73
     6
 40
0.001100
 49
0.000550
 49
-0.000110
 49
0.000110
 49
-0.000110
 49
0.000110
 49
-0.000110
  0
LTYPE
  2
DOT
 70
    64
  3
...............................................
 72
    65
 73
     2
 40
0.000110
 49
0.000000
 49
-0.000110
  0
LTYPE
  2
DASHDOT
 70
    64
  3
__ . __ . __ . __ . __ . __ . __ . __ . __ . __
 72
    65
 73
     4
 40
0.000440
 49
0.000220
 49
-0.000110
 49
0.000000
 49
-0.000110
  0
LTYPE
  2
BORDER
 70
    64
  3
__ __ . __ __ . __ __ . __ __ . __ __ . __ __
 72
    65
 73
     6
 40
0.000770
 49
0.000220
 49
-0.000110
 49
0.000220
 49
-0.000110
 49
0.000000
 49
-0.000110
  0
LTYPE
  2
DIVIDE
 70
    64
  3
__ . . __ . . __ . . __ . . __ . . __ . . __
 72
    65
 73
     6
 40
0.000550
 49
0.000220
 49
-0.000110
 49
0.000000
 49
-0.000110
 49
0.000000
 49
-0.000110
  0
LTYPE
  2
DOTDOT
 70
    64
  3
 . .  . .  . .  . .  . .  . . 
 72
    65
 73
     5
 40
0.000242
 49
-0.000110
 49
0.000000
 49
-0.000110
 49
0.000000
 49
-0.000110
  0
ENDTAB
  0
TABLE
  2
STYLE
 70
     2
  0
STYLE
 70
     0
  2
SN0
 40
0.000000
 41
0.000440
 50
0.000000
 71
     0
 42
0.000000
  3
ROMAND
  0
STYLE
 70
    68
  2
SV0
 40
0.000000
 41
0.000440
 50
0.000000
 71
     0
 42
0.000000
  3
ROMAND
  0
ENDTAB
  0
TABLE
  2
LAYER
 70
     3
  0
LAYER
  2
FOREGROUND
 70
    64
 62
     7
  6
CONTINUOUS
  0
LAYER
  2
BACKGROUND
 70
    65
 62
    -7
  6
CONTINUOUS
  0
LAYER
  2
0
 70
    64
 62
     7
  6
CONTINUOUS
  0
ENDTAB
  0
ENDSEC
  0
SECTION
  2
ENTITIES
  0
POLYLINE
  8
FOREGROUND
  6
CONTINUOUS
 66
     1
 40
0.000000
 41
0.000000
  0
VERTEX
  8
FOREGROUND
  6
CONTINUOUS
 10
0.000000
 20
3.022800
  0
VERTEX
  8
FOREGROUND
  6
CONTINUOUS
 10
8.499920
 20
3.022800
  0
VERTEX
  8
FOREGROUND
  6
CONTINUOUS
 10
8.499920
 20
-7.977200
  0
VERTEX
  8
FOREGROUND
  6
CONTINUOUS
 10
0.000000
 20
-7.977200
  0
VERTEX
  8
FOREGROUND
  6
CONTINUOUS
 10
0.000000
 20
3.022800
  0
SEQEND
  8
0
  0
POLYLINE
  8
FOREGROUND
  6
CONTINUOUS
 66
     1
 40
0.000000
 41
0.000000
  0
VERTEX
  8
FOREGROUND
  6
CONTINUOUS
 10
0.000000
 20
3.022800
  0
VERTEX
  8
FOREGROUND
  6
CONTINUOUS
 10
8.499920
 20
3.022800
  0
VERTEX
  8
FOREGROUND
  6
CONTINUOUS
 10
8.499920
 20
-7.977200
  0
VERTEX
  8
FOREGROUND
  6
CONTINUOUS
 10
0.000000
 20
-7.977200
  0
VERTEX
  8
FOREGROUND
  6
CONTINUOUS
 10
0.000000
 20
3.022800
  0
SEQEND
  8
0
  0
SOLID
  8
0
 62
    15
 10
3.951200
 20
1.648240
 11
4.601520
 21
2.012560
 12
3.908520
 22
1.618760
 13
4.558840
 23
1.983080
  0
POLYLINE
  8
0
  6
CONTINUOUS
 66
     1
 40
0.000000
 41
0.000000
  0
VERTEX
  8
0
  6
CONTINUOUS
 10
3.951200
 20
1.648240
  0
VERTEX
  8
0
  6
CONTINUOUS
 10
4.601520
 20
2.012560
  0
VERTEX
  8
0
  6
CONTINUOUS
 10
4.558840
 20
1.983080
  0
VERTEX
  8
0
  6
CONTINUOUS
 10
3.908520
 20
1.618760
  0
VERTEX
  8
0
  6
CONTINUOUS
 10
3.951200
 20
1.648240
  0
SEQEND
  8
0
  0
SOLID
  8
0
 62
    15
 10
4.229720
 20
2.085160
 11
4.880040
 21
2.449480
 12
4.256120
 22
2.075920
 13
4.906440
 23
2.440240
  0
POLYLINE
  8
0
  6
CONTINUOUS
 66
     1
 40
0.000000
 41
0.000000
  0
VERTEX
  8
0
  6
CONTINUOUS
 10
4.229720
 20
2.085160
  0
VERTEX
  8
0
  6
CONTINUOUS
 10
4.880040
 20
2.449480
  0
VERTEX
  8
0
  6
CONTINUOUS
 10
4.906440
 20
2.440240
  0
VERTEX
  8
0
  6
CONTINUOUS
 10
4.256120
 20
2.075920
  0
VERTEX
  8
0
  6
CONTINUOUS
 10
4.229720
 20
2.085160
  0
SEQEND
  8
0
  0
SOLID
  8
0
 62
    15
 10
4.256120
 20
2.075920
 11
4.906440
 21
2.440240
 12
4.279000
 22
2.061840
 13
4.929320
 23
2.426160
  0
POLYLINE
  8
0
  6
CONTINUOUS
 66
     1
 40
0.000000
 41
0.000000
  0
VERTEX
  8
0
  6
CONTINUOUS
 10
4.256120
 20
2.075920
  0
VERTEX
  8
0
  6
CONTINUOUS
 10
4.906440
 20
2.440240
  0
VERTEX
  8
0
  6
CONTINUOUS
 10
4.929320
 20
2.426160
  0
VERTEX
  8
0
  6
CONTINUOUS
 10
4.279000
 20
2.061840
  0
VERTEX
  8
0
  6
CONTINUOUS
 10
4.256120
 20
2.075920
  0
SEQEND
  8
0
  0
SOLID
  8
0
 62
    15
 10
4.279000
 20
2.061840
 11
4.929320
 21
2.426160
 12
4.297040
 22
2.043360
 13
4.947360
 23
2.407680
  0
POLYLINE
  8
0
  6
CONTINUOUS
 66
     1
 40
0.000000
 41
0.000000
  0
VERTEX
  8
0
  6
CONTINUOUS
 10
4.279000
 20
2.061840
  0
VERTEX
  8
0
  6
CONTINUOUS
 10
4.929320
 20
2.426160
  0
VERTEX
  8
0
  6
CONTINUOUS
 10
4.947360
 20
2.407680
  0
VERTEX
  8
0
  6
CONTINUOUS
 10
4.297040
 20
2.043360
  0
VERTEX
  8
0
  6
CONTINUOUS
 10
4.279000
 20
2.061840
  0
SEQEND
  8
0
  0
SOLID
  8
0
 62
    15
 10
4.297040
 20
2.043360
 11
4.947360
 21
2.407680
 12
4.311120
 22
2.021360
 13
4.961440
 23
2.385680
  0
POLYLINE
  8
0
  6
CONTINUOUS
 66
     1
 40
0.000000
 41
0.000000
  0
VERTEX
  8
0
  6
CONTINUOUS
 10
4.297040
 20
2.043360
  0
VERTEX
  8
0
  6
CONTINUOUS
 10
4.947360
 20
2.407680
  0
VERTEX
  8
0
  6
CONTINUOUS
 10
4.961440
 20
2.385680
  0
VERTEX
  8
0
  6
CONTINUOUS
 10
4.311120
 20
2.021360
  0
VERTEX
  8
0
  6
CONTINUOUS
 10
4.297040
 20
2.043360
  0
SEQEND
  8
0
  0
SOLID
  8
0
 62
    15
 10
4.311120
 20
2.021360
 11
4.961440
 21
2.385680
 12
4.321240
 22
1.997160
 13
4.971560
 23
2.361480
  0
POLYLINE
  8
0
  6
CONTINUOUS
 66
     1
 40
0.000000
 41
0.000000
  0
VERTEX
  8
0
  6
CONTINUOUS
 10
4.311120
 20
2.021360
  0
VERTEX
  8
0
  6
CONTINUOUS
 10
4.961440
 20
2.385680
  0
VERTEX
  8
0
  6
CONTINUOUS
 10
4.971560
 20
2.361480
  0
VERTEX
  8
0
  6
CONTINUOUS
 10
4.321240
 20
1.997160
  0
VERTEX
  8
0
  6
CONTINUOUS
 10
4.311120
 20
2.021360
  0
SEQEND
  8
0
  0
SOLID
  8
0
 62
    15
 10
4.321240
 20
1.997160
 11
4.971560
 21
2.361480
 12
4.328280
 22
1.944360
 13
4.978600
 23
2.308680
  0
POLYLINE
  8
0
  6
CONTINUOUS
 66
     1
 40
0.000000
 41
0.000000
  0
VERTEX
  8
0
  6
CONTINUOUS
 10
4.321240
 20
1.997160
  0
VERTEX
  8
0
  6
CONTINUOUS
 10
4.971560
 20
2.361480
  0
VERTEX
  8
0
  6
CONTINUOUS
 10
4.978600
 20
2.308680
  0
VERTEX
  8
0
  6
CONTINUOUS
 10
4.328280
 20
1.944360
  0
VERTEX
  8
0
  6
CONTINUOUS
 10
4.321240
 20
1.997160
  0
SEQEND
  8
0
  0
SOLID
  8
0
 62
    15
 10
4.328280
 20
1.944360
 11
4.978600
 21
2.308680
 12
4.318160
 22
1.891560
 13
4.968480
 23
2.255880
  0
POLYLINE
  8
0
  6
CONTINUOUS
 66
     1
 40
0.000000
 41
0.000000
  0
VERTEX
  8
0
  6
CONTINUOUS
 10
4.328280
 20
1.944360
  0
VERTEX
  8
0
  6
CONTINUOUS
 10
4.978600
 20
2.308680
  0
VERTEX
  8
0
  6
CONTINUOUS
 10
4.968480
 20
2.255880
  0
VERTEX
  8
0
  6
CONTINUOUS
 10
4.318160
 20
1.891560
  0
VERTEX
  8
0
  6
CONTINUOUS
 10
4.328280
 20
1.944360
  0
SEQEND
  8
0
  0
SOLID
  8
0
 62
    15
 10
3.908520
 20
1.618760
 11
4.558840
 21
1.983080
 12
3.866280
 22
1.584440
 13
4.516600
 23
1.948760
  0
POLYLINE
  8
0
  6
CONTINUOUS
 66
     1
 40
0.000000
 41
0.000000
  0
VERTEX
  8
0
  6
CONTINUOUS
 10
3.908520
 20
1.618760
  0
VERTEX
  8
0
  6
CONTINUOUS
 10
4.558840
 20
1.983080
  0
VERTEX
  8
0
  6
CONTINUOUS
 10
4.516600
 20
1.948760
  0
VERTEX
  8
0
  6
CONTINUOUS
 10
3.866280
 20
1.584440
  0
VERTEX
  8
0
  6
CONTINUOUS
 10
3.908520
 20
1.618760
  0
SEQEND
  8
0
  0
SOLID
  8
0
 62
    15
 10
3.866280
 20
1.584440
 11
4.516600
 21
1.948760
 12
3.825800
 22
1.544840
 13
4.476120
 23
1.909160
  0
POLYLINE
  8
0
  6
CONTINUOUS
 66
     1
 40
0.000000
 41
0.000000
  0
VERTEX
  8
0
  6
CONTINUOUS
 10
3.866280
 20
1.584440
  0
VERTEX
  8
0
  6
CONTINUOUS
 10
4.516600
 20
1.948760
  0
VERTEX
  8
0
  6
CONTINUOUS
 10
4.476120
 20
1.909160
  0
VERTEX
  8
0
  6
CONTINUOUS
 10
3.825800
 20
1.544840
  0
VERTEX
  8
0
  6
CONTINUOUS
 10
3.866280
 20
1.584440
  0
SEQEND
  8
0
  0
SOLID
  8
0
 62
    15
 10
3.825800
 20
1.544840
 11
4.476120
 21
1.909160
 12
3.787960
 22
1.500400
 13
4.438280
 23
1.864720
  0
POLYLINE
  8
0
  6
CONTINUOUS
 66
     1
 40
0.000000
 41
0.000000
  0
VERTEX
  8
0
  6
CONTINUOUS
 10
3.825800
 20
1.544840
  0
VERTEX
  8
0
  6
CONTINUOUS
 10
4.476120
 20
1.909160
  0
VERTEX
  8
0
  6
CONTINUOUS
 10
4.438280
 20
1.864720
  0
VERTEX
  8
0
  6
CONTINUOUS
 10
3.787960
 20
1.500400
  0
VERTEX
  8
0
  6
CONTINUOUS
 10
3.825800
 20
1.544840
  0
SEQEND
  8
0
  0
SOLID
  8
0
 62
    15
 10
4.182200
 20
1.800480
 11
4.832520
 21
2.164800
 12
4.182200
 22
1.740200
 13
4.832520
 23
2.104520
  0
POLYLINE
  8
0
  6
CONTINUOUS
 66
     1
 40
0.000000
 41
0.000000
  0
VERTEX
  8
0
  6
CONTINUOUS
 10
4.182200
 20
1.800480
  0
VERTEX
  8
0
  6
CONTINUOUS
 10
4.832520
 20
2.164800
  0
VERTEX
  8
0
  6
CONTINUOUS
 10
4.832520
 20
2.104520
  0
VERTEX
  8
0
  6
CONTINUOUS
 10
4.182200
 20
1.740200
  0
VERTEX
  8
0
  6
CONTINUOUS
 10
4.182200
 20
1.800480
  0
SEQEND
  8
0
  0
SOLID
  8
0
 62
    15
 10
4.198920
 20
2.088240
 11
4.849240
 21
2.452560
 12
4.229720
 22
2.085160
 13
4.880040
 23
2.449480
  0
POLYLINE
  8
0
  6
CONTINUOUS
 66
     1
 40
0.000000
 41
0.000000
  0
VERTEX
  8
0
  6
CONTINUOUS
 10
4.198920
 20
2.088240
  0
VERTEX
  8
0
  6
CONTINUOUS
 10
4.849240
 20
2.452560
  0
VERTEX
  8
0
  6
CONTINUOUS
 10
4.880040
 20
2.449480
  0
VERTEX
  8
0
  6
CONTINUOUS
 10
4.229720
 20
2.085160
  0
VERTEX
  8
0
  6
CONTINUOUS
 10
4.198920
 20
2.088240
  0
SEQEND
  8
0
  0
SOLID
  8
0
 62
    15
 10
4.318160
 20
1.891560
 11
4.968480
 21
2.255880
 12
4.306280
 22
1.867360
 13
4.956600
 23
2.231680
  0
POLYLINE
  8
0
  6
CONTINUOUS
 66
     1
 40
0.000000
 41
0.000000
  0
VERTEX
  8
0
  6
CONTINUOUS
 10
4.318160
 20
1.891560
  0
VERTEX
  8
0
  6
CONTINUOUS
 10
4.968480
 20
2.255880
  0
VERTEX
  8
0
  6
CONTINUOUS
 10
4.956600
 20
2.231680
  0
VERTEX
  8
0
  6
CONTINUOUS
 10
4.306280
 20
1.867360
  0
VERTEX
  8
0
  6
CONTINUOUS
 10
4.318160
 20
1.891560
  0
SEQEND
  8
0
  0
SOLID
  8
0
 62
    15
 10
4.306280
 20
1.867360
 11
4.956600
 21
2.231680
 12
4.290440
 22
1.845360
 13
4.940760
 23
2.209680
  0
POLYLINE
  8
0
  6
CONTINUOUS
 66
     1
 40
0.000000
 41
0.000000
  0
VERTEX
  8
0
  6
CONTINUOUS
 10
4.306280
 20
1.867360
  0
VERTEX
  8
0
  6
CONTINUOUS
 10
4.956600
 20
2.231680
  0
VERTEX
  8
0
  6
CONTINUOUS
 10
4.940760
 20
2.209680
  0
VERTEX
  8
0
  6
CONTINUOUS
 10
4.290440
 20
1.845360
  0
VERTEX
  8
0
  6
CONTINUOUS
 10
4.306280
 20
1.867360
  0
SEQEND
  8
0
  0
SOLID
  8
0
 62
    15
 10
4.290440
 20
1.845360
 11
4.940760
 21
2.209680
 12
4.270200
 22
1.826880
 13
4.920520
 23
2.191200
  0
POLYLINE
  8
0
  6
CONTINUOUS
 66
     1
 40
0.000000
 41
0.000000
  0
VERTEX
  8
0
  6
CONTINUOUS
 10
4.290440
 20
1.845360
  0
VERTEX
  8
0
  6
CONTINUOUS
 10
4.940760
 20
2.209680
  0
VERTEX
  8
0
  6
CONTINUOUS
 10
4.920520
 20
2.191200
  0
VERTEX
  8
0
  6
CONTINUOUS
 10
4.270200
 20
1.826880
  0
VERTEX
  8
0
  6
CONTINUOUS
 10
4.290440
 20
1.845360
  0
SEQEND
  8
0
  0
SOLID
  8
0
 62
    15
 10
4.270200
 20
1.826880
 11
4.920520
 21
2.191200
 12
4.245120
 22
1.812800
 13
4.895440
 23
2.177120
  0
POLYLINE
  8
0
  6
CONTINUOUS
 66
     1
 40
0.000000
 41
0.000000
  0
VERTEX
  8
0
  6
CONTINUOUS
 10
4.270200
 20
1.826880
  0
VERTEX
  8
0
  6
CONTINUOUS
 10
4.920520
 20
2.191200
  0
VERTEX
  8
0
  6
CONTINUOUS
 10
4.895440
 20
2.177120
  0
VERTEX
  8
0
  6
CONTINUOUS
 10
4.245120
 20
1.812800
  0
VERTEX
  8
0
  6
CONTINUOUS
 10
4.270200
 20
1.826880
  0
SEQEND
  8
0
  0
SOLID
  8
0
 62
    15
 10
3.787960
 20
1.500400
 11
4.438280
 21
1.864720
 12
3.753200
 22
1.450240
 13
4.403520
 23
1.814560
  0
POLYLINE
  8
0
  6
CONTINUOUS
 66
     1
 40
0.000000
 41
0.000000
  0
VERTEX
  8
0
  6
CONTINUOUS
 10
3.787960
 20
1.500400
  0
VERTEX
  8
0
  6
CONTINUOUS
 10
4.438280
 20
1.864720
  0
VERTEX
  8
0
  6
CONTINUOUS
 10
4.403520
 20
1.814560
  0
VERTEX
  8
0
  6
CONTINUOUS
 10
3.753200
 20
1.450240
  0
VERTEX
  8
0
  6
CONTINUOUS
 10
3.787960
 20
1.500400
  0
SEQEND
  8
0
  0
SOLID
  8
0
 62
    15
 10
3.753200
 20
1.450240
 11
4.403520
 21
1.814560
 12
3.722840
 22
1.394360
 13
4.373160
 23
1.759120
  0
POLYLINE
  8
0
  6
CONTINUOUS
 66
     1
 40
0.000000
 41
0.000000
  0
VERTEX
  8
0
  6
CONTINUOUS
 10
3.753200
 20
1.450240
  0
VERTEX
  8
0
  6
CONTINUOUS
 10
4.403520
 20
1.814560
  0
VERTEX
  8
0
  6
CONTINUOUS
 10
4.373160
 20
1.759120
  0
VERTEX
  8
0
  6
CONTINUOUS
 10
3.722840
 20
1.394360
  0
VERTEX
  8
0
  6
CONTINUOUS
 10
3.753200
 20
1.450240
  0
SEQEND
  8
0
  0
SOLID
  8
0
 62
    15
 10
3.722840
 20
1.394360
 11
4.373160
 21
1.759120
 12
3.696880
 22
1.332760
 13
4.347200
 23
1.697080
  0
POLYLINE
  8
0
  6
CONTINUOUS
 66
     1
 40
0.000000
 41
0.000000
  0
VERTEX
  8
0
  6
CONTINUOUS
 10
3.722840
 20
1.394360
  0
VERTEX
  8
0
  6
CONTINUOUS
 10
4.373160
 20
1.759120
  0
VERTEX
  8
0
  6
CONTINUOUS
 10
4.347200
 20
1.697080
  0
VERTEX
  8
0
  6
CONTINUOUS
 10
3.696880
 20
1.332760
  0
VERTEX
  8
0
  6
CONTINUOUS
 10
3.722840
 20
1.394360
  0
SEQEND
  8
0
  0
SOLID
  8
0
 62
    15
 10
3.696880
 20
1.332760
 11
4.347200
 21
1.697080
 12
3.676640
 22
1.264560
 13
4.326960
 23
1.628880
  0
POLYLINE
  8
0
  6
CONTINUOUS
 66
     1
 40
0.000000
 41
0.000000
  0
VERTEX
  8
0
  6
CONTINUOUS
 10
3.696880
 20
1.332760
  0
VERTEX
  8
0
  6
CONTINUOUS
 10
4.347200
 20
1.697080
  0
VERTEX
  8
0
  6
CONTINUOUS
 10
4.326960
 20
1.628880
  0
VERTEX
  8
0
  6
CONTINUOUS
 10
3.676640
 20
1.264560
  0
VERTEX
  8
0
  6
CONTINUOUS
 10
3.696880
 20
1.332760
  0
SEQEND
  8
0
  0
SOLID
  8
0
 62
    15
 10
3.676640
 20
1.264560
 11
4.326960
 21
1.628880
 12
3.663000
 22
1.189760
 13
4.313320
 23
1.554080
  0
POLYLINE
  8
0
  6
CONTINUOUS
 66
     1
 40
0.000000
 41
0.000000
  0
VERTEX
  8
0
  6
CONTINUOUS
 10
3.676640
 20
1.264560
  0
VERTEX
  8
0
  6
CONTINUOUS
 10
4.326960
 20
1.628880
  0
VERTEX
  8
0
  6
CONTINUOUS
 10
4.313320
 20
1.554080
  0
VERTEX
  8
0
  6
CONTINUOUS
 10
3.663000
 20
1.189760
  0
VERTEX
  8
0
  6
CONTINUOUS
 10
3.676640
 20
1.264560
  0
SEQEND
  8
0
  0
SOLID
  8
0
 62
    15
 10
3.663000
 20
1.189760
 11
4.313320
 21
1.554080
 12
3.656400
 22
1.107920
 13
4.306720
 23
1.472240
  0
POLYLINE
  8
0
  6
CONTINUOUS
 66
     1
 40
0.000000
 41
0.000000
  0
VERTEX
  8
0
  6
CONTINUOUS
 10
3.663000
 20
1.189760
  0
VERTEX
  8
0
  6
CONTINUOUS
 10
4.313320
 20
1.554080
  0
VERTEX
  8
0
  6
CONTINUOUS
 10
4.306720
 20
1.472240
  0
VERTEX
  8
0
  6
CONTINUOUS
 10
3.656400
 20
1.107920
  0
VERTEX
  8
0
  6
CONTINUOUS
 10
3.663000
 20
1.189760
  0
SEQEND
  8
0
  0
SOLID
  8
0
 62
    15
 10
3.314520
 20
2.089120
 11
3.964840
 21
2.453440
 12
4.197600
 22
2.089120
 13
4.847920
 23
2.453440
  0
POLYLINE
  8
0
  6
CONTINUOUS
 66
     1
 40
0.000000
 41
0.000000
  0
VERTEX
  8
0
  6
CONTINUOUS
 10
3.314520
 20
2.089120
  0
VERTEX
  8
0
  6
CONTINUOUS
 10
3.964840
 20
2.453440
  0
VERTEX
  8
0
  6
CONTINUOUS
 10
4.847920
 20
2.453440
  0
VERTEX
  8
0
  6
CONTINUOUS
 10
4.197600
 20
2.089120
  0
VERTEX
  8
0
  6
CONTINUOUS
 10
3.314520
 20
2.089120
  0
SEQEND
  8
0
  0
SOLID
  8
0
 62
    15
 10
4.197600
 20
2.089120
 11
4.847920
 21
2.453440
 12
4.198920
 22
2.088240
 13
4.849240
 23
2.452560
  0
POLYLINE
  8
0
  6
CONTINUOUS
 66
     1
 40
0.000000
 41
0.000000
  0
VERTEX
  8
0
  6
CONTINUOUS
 10
4.197600
 20
2.089120
  0
VERTEX
  8
0
  6
CONTINUOUS
 10
4.847920
 20
2.453440
  0
VERTEX
  8
0
  6
CONTINUOUS
 10
4.849240
 20
2.452560
  0
VERTEX
  8
0
  6
CONTINUOUS
 10
4.198920
 20
2.088240
  0
VERTEX
  8
0
  6
CONTINUOUS
 10
4.197600
 20
2.089120
  0
SEQEND
  8
0
  0
POLYLINE
  8
0
  6
CONTINUOUS
 66
     1
 40
0.000000
 41
0.000000
  0
VERTEX
  8
0
  6
CONTINUOUS
 10
4.198920
 20
2.088240
  0
VERTEX
  8
0
  6
CONTINUOUS
 10
4.229720
 20
2.085160
  0
VERTEX
  8
0
  6
CONTINUOUS
 10
4.256120
 20
2.075920
  0
VERTEX
  8
0
  6
CONTINUOUS
 10
4.279000
 20
2.061840
  0
VERTEX
  8
0
  6
CONTINUOUS
 10
4.297040
 20
2.043360
  0
VERTEX
  8
0
  6
CONTINUOUS
 10
4.311120
 20
2.021360
  0
VERTEX
  8
0
  6
CONTINUOUS
 10
4.321240
 20
1.997160
  0
VERTEX
  8
0
  6
CONTINUOUS
 10
4.328280
 20
1.944360
  0
VERTEX
  8
0
  6
CONTINUOUS
 10
4.318160
 20
1.891560
  0
VERTEX
  8
0
  6
CONTINUOUS
 10
4.306280
 20
1.867360
  0
VERTEX
  8
0
  6
CONTINUOUS
 10
4.290440
 20
1.845360
  0
VERTEX
  8
0
  6
CONTINUOUS
 10
4.270200
 20
1.826880
  0
VERTEX
  8
0
  6
CONTINUOUS
 10
4.245120
 20
1.812800
  0
VERTEX
  8
0
  6
CONTINUOUS
 10
4.216080
 20
1.803560
  0
VERTEX
  8
0
  6
CONTINUOUS
 10
4.182200
 20
1.800480
  0
VERTEX
  8
0
  6
CONTINUOUS
 10
4.182200
 20
1.740200
  0
VERTEX
  8
0
  6
CONTINUOUS
 10
4.150960
 20
1.733600
  0
VERTEX
  8
0
  6
CONTINUOUS
 10
4.115320
 20
1.723920
  0
VERTEX
  8
0
  6
CONTINUOUS
 10
4.036560
 20
1.694000
  0
VERTEX
  8
0
  6
CONTINUOUS
 10
3.951200
 20
1.648240
  0
VERTEX
  8
0
  6
CONTINUOUS
 10
3.908520
 20
1.618760
  0
VERTEX
  8
0
  6
CONTINUOUS
 10
3.866280
 20
1.584440
  0
VERTEX
  8
0
  6
CONTINUOUS
 10
3.825800
 20
1.544840
  0
VERTEX
  8
0
  6
CONTINUOUS
 10
3.787960
 20
1.500400
  0
VERTEX
  8
0
  6
CONTINUOUS
 10
3.753200
 20
1.450240
  0
VERTEX
  8
0
  6
CONTINUOUS
 10
3.722840
 20
1.394360
  0
VERTEX
  8
0
  6
CONTINUOUS
 10
3.696880
 20
1.332760
  0
VERTEX
  8
0
  6
CONTINUOUS
 10
3.676640
 20
1.264560
  0
VERTEX
  8
0
  6
CONTINUOUS
 10
3.663000
 20
1.189760
  0
VERTEX
  8
0
  6
CONTINUOUS
 10
3.656400
 20
1.107920
  0
VERTEX
  8
0
  6
CONTINUOUS
 10
3.314520
 20
1.107920
  0
VERTEX
  8
0
  6
CONTINUOUS
 10
3.314520
 20
2.089120
  0
VERTEX
  8
0
  6
CONTINUOUS
 10
4.197600
 20
2.089120
  0
VERTEX
  8
0
  6
CONTINUOUS
 10
4.198920
 20
2.088240
  0
SEQEND
  8
0
  0
TEXT
  8
0
 10
3.851760
 20
0.805200
 40
0.138170
  1
BA  813
 41
1.000000
  7
SN0
 71
     0
 72
     5
 11
4.442128
 21
0.805200
  0
TEXT
  8
0
 10
3.908080
 20
0.613360
 40
0.138170
  1
1" x 1"
 41
1.000000
  7
SN0
 71
     0
 72
     5
 11
4.385323
 21
0.613360
  0
POLYLINE
  8
0
  6
CONTINUOUS
 66
     1
 40
0.014080
 41
0.014080
  0
VERTEX
  8
0
  6
CONTINUOUS
 10
6.255040
 20
2.429680
  0
VERTEX
  8
0
  6
CONTINUOUS
 10
6.285840
 20
2.426600
  0
VERTEX
  8
0
  6
CONTINUOUS
 10
6.312680
 20
2.417360
  0
VERTEX
  8
0
  6
CONTINUOUS
 10
6.335120
 20
2.403280
  0
VERTEX
  8
0
  6
CONTINUOUS
 10
6.353160
 20
2.384800
  0
VERTEX
  8
0
  6
CONTINUOUS
 10
6.361080
 20
2.374240
  0
VERTEX
  8
0
  6
CONTINUOUS
 10
6.372960
 20
2.350920
  0
VERTEX
  8
0
  6
CONTINUOUS
 10
6.380440
 20
2.325840
  0
VERTEX
  8
0
  6
CONTINUOUS
 10
6.383080
 20
2.312640
  0
VERTEX
  8
0
  6
CONTINUOUS
 10
6.384400
 20
2.285800
  0
VERTEX
  8
0
  6
CONTINUOUS
 10
6.381320
 20
2.258960
  0
VERTEX
  8
0
  6
CONTINUOUS
 10
6.374280
 20
2.233000
  0
VERTEX
  8
0
  6
CONTINUOUS
 10
6.362400
 20
2.208800
  0
VERTEX
  8
0
  6
CONTINUOUS
 10
6.346560
 20
2.186800
  0
VERTEX
  8
0
  6
CONTINUOUS
 10
6.326320
 20
2.168320
  0
VERTEX
  8
0
  6
CONTINUOUS
 10
6.301240
 20
2.154240
  0
VERTEX
  8
0
  6
CONTINUOUS
 10
6.272200
 20
2.145000
  0
VERTEX
  8
0
  6
CONTINUOUS
 10
6.255920
 20
2.142800
  0
VERTEX
  8
0
  6
CONTINUOUS
 10
6.238320
 20
2.141920
  0
VERTEX
  8
0
  6
CONTINUOUS
 10
6.238320
 20
2.081640
  0
VERTEX
  8
0
  6
CONTINUOUS
 10
6.189480
 20
2.070640
  0
VERTEX
  8
0
  6
CONTINUOUS
 10
6.133160
 20
2.052160
  0
VERTEX
  8
0
  6
CONTINUOUS
 10
6.092240
 20
2.035440
  0
VERTEX
  8
0
  6
CONTINUOUS
 10
6.050000
 20
2.014760
  0
VERTEX
  8
0
  6
CONTINUOUS
 10
6.007320
 20
1.989680
  0
VERTEX
  8
0
  6
CONTINUOUS
 10
5.964200
 20
1.960200
  0
VERTEX
  8
0
  6
CONTINUOUS
 10
5.922400
 20
1.925880
  0
VERTEX
  8
0
  6
CONTINUOUS
 10
5.881920
 20
1.886280
  0
VERTEX
  8
0
  6
CONTINUOUS
 10
5.844080
 20
1.841840
  0
VERTEX
  8
0
  6
CONTINUOUS
 10
5.826040
 20
1.817640
  0
VERTEX
  8
0
  6
CONTINUOUS
 10
5.793480
 20
1.764400
  0
VERTEX
  8
0
  6
CONTINUOUS
 10
5.778520
 20
1.735800
  0
VERTEX
  8
0
  6
CONTINUOUS
 10
5.753000
 20
1.674200
  0
VERTEX
  8
0
  6
CONTINUOUS
 10
5.742000
 20
1.640760
  0
VERTEX
  8
0
  6
CONTINUOUS
 10
5.732760
 20
1.606000
  0
VERTEX
  8
0
  6
CONTINUOUS
 10
5.724840
 20
1.569040
  0
VERTEX
  8
0
  6
CONTINUOUS
 10
5.719120
 20
1.531200
  0
VERTEX
  8
0
  6
CONTINUOUS
 10
5.713400
 20
1.470480
  0
VERTEX
  8
0
  6
CONTINUOUS
 10
5.712520
 20
1.449360
  0
VERTEX
  8
0
  6
CONTINUOUS
 10
5.370640
 20
1.449360
  0
VERTEX
  8
0
  6
CONTINUOUS
 10
5.370640
 20
2.430560
  0
VERTEX
  8
0
  6
CONTINUOUS
 10
6.253720
 20
2.430560
  0
VERTEX
  8
0
  6
CONTINUOUS
 10
6.255040
 20
2.429680
  0
SEQEND
  8
0
  0
TEXT
  8
0
 10
5.907000
 20
1.725680
 40
0.138170
  1
BA  813
 41
1.000000
  7
SN0
 71
     0
 72
     5
 11
6.497368
 21
1.725680
  0
TEXT
  8
0
 10
5.963320
 20
1.534280
 40
0.138170
  1
1" x 1"
 41
1.000000
  7
SN0
 71
     0
 72
     5
 11
6.440563
 21
1.534280
  0
ENDSEC
  0
EOF
