  0
SECTION
  2
HEADER
  9
$ACADVER
  1
AC1006
  9
$EXTMIN
 10
2.191200
 20
0.440440
  9
$EXTMAX
 10
7.208960
 20
3.284160
  9
$LTSCALE
 40
0.044000
  9
$PDMODE
 70
    35
  9
$PDSIZE
 40
0.035200
  0
ENDSEC
  0
SECTION
  2
TABLES
  0
TABLE
  2
LTYPE
 70
     9
  0
LTYPE
  2
CONTINUOUS
 70
    64
  3
Solid line
 72
    65
 73
     0
 40
0.000000
  0
LTYPE
  2
DASHED
 70
    64
  3
__ __ __ __ __ __ __ __ __ __ __ __ __ __ __
 72
    65
 73
     2
 40
0.000330
 49
0.000220
 49
-0.000110
  0
LTYPE
  2
HIDDEN
 70
    64
  3
 _ _ _ _ _ _ _ _ _ _ _ _ _ _ _ _ _ _ _ _ _ _
 72
    65
 73
     2
 40
0.000165
 49
0.000110
 49
-0.000055
  0
LTYPE
  2
CENTER
 70
    64
  3
____ _ ____ _ ____ _ ____ _ ____ _ ____ _ ____
 72
    65
 73
     4
 40
0.000880
 49
0.000550
 49
-0.000110
 49
0.000110
 49
-0.000110
  0
LTYPE
  2
PHANTOM
 70
    64
  3
_____ _ _ _____ _ _ _____ _ _ _____ _ _ ____
 72
    65
 73
     6
 40
0.001100
 49
0.000550
 49
-0.000110
 49
0.000110
 49
-0.000110
 49
0.000110
 49
-0.000110
  0
LTYPE
  2
DOT
 70
    64
  3
...............................................
 72
    65
 73
     2
 40
0.000110
 49
0.000000
 49
-0.000110
  0
LTYPE
  2
DASHDOT
 70
    64
  3
__ . __ . __ . __ . __ . __ . __ . __ . __ . __
 72
    65
 73
     4
 40
0.000440
 49
0.000220
 49
-0.000110
 49
0.000000
 49
-0.000110
  0
LTYPE
  2
BORDER
 70
    64
  3
__ __ . __ __ . __ __ . __ __ . __ __ . __ __
 72
    65
 73
     6
 40
0.000770
 49
0.000220
 49
-0.000110
 49
0.000220
 49
-0.000110
 49
0.000000
 49
-0.000110
  0
LTYPE
  2
DIVIDE
 70
    64
  3
__ . . __ . . __ . . __ . . __ . . __ . . __
 72
    65
 73
     6
 40
0.000550
 49
0.000220
 49
-0.000110
 49
0.000000
 49
-0.000110
 49
0.000000
 49
-0.000110
  0
LTYPE
  2
DOTDOT
 70
    64
  3
 . .  . .  . .  . .  . .  . . 
 72
    65
 73
     5
 40
0.000242
 49
-0.000110
 49
0.000000
 49
-0.000110
 49
0.000000
 49
-0.000110
  0
ENDTAB
  0
TABLE
  2
STYLE
 70
     2
  0
STYLE
 70
     0
  2
SN0
 40
0.000000
 41
0.000440
 50
0.000000
 71
     0
 42
0.000000
  3
ROMAND
  0
STYLE
 70
    68
  2
SV0
 40
0.000000
 41
0.000440
 50
0.000000
 71
     0
 42
0.000000
  3
ROMAND
  0
ENDTAB
  0
TABLE
  2
LAYER
 70
     3
  0
LAYER
  2
FOREGROUND
 70
    64
 62
     7
  6
CONTINUOUS
  0
LAYER
  2
BACKGROUND
 70
    65
 62
    -7
  6
CONTINUOUS
  0
LAYER
  2
0
 70
    64
 62
     7
  6
CONTINUOUS
  0
ENDTAB
  0
ENDSEC
  0
SECTION
  2
ENTITIES
  0
POLYLINE
  8
FOREGROUND
  6
CONTINUOUS
 66
     1
 40
0.000000
 41
0.000000
  0
VERTEX
  8
FOREGROUND
  6
CONTINUOUS
 10
0.000000
 20
3.724600
  0
VERTEX
  8
FOREGROUND
  6
CONTINUOUS
 10
8.499920
 20
3.724600
  0
VERTEX
  8
FOREGROUND
  6
CONTINUOUS
 10
8.499920
 20
-7.275400
  0
VERTEX
  8
FOREGROUND
  6
CONTINUOUS
 10
0.000000
 20
-7.275400
  0
VERTEX
  8
FOREGROUND
  6
CONTINUOUS
 10
0.000000
 20
3.724600
  0
SEQEND
  8
0
  0
POLYLINE
  8
FOREGROUND
  6
CONTINUOUS
 66
     1
 40
0.000000
 41
0.000000
  0
VERTEX
  8
FOREGROUND
  6
CONTINUOUS
 10
0.000000
 20
3.724600
  0
VERTEX
  8
FOREGROUND
  6
CONTINUOUS
 10
8.499920
 20
3.724600
  0
VERTEX
  8
FOREGROUND
  6
CONTINUOUS
 10
8.499920
 20
-7.275400
  0
VERTEX
  8
FOREGROUND
  6
CONTINUOUS
 10
0.000000
 20
-7.275400
  0
VERTEX
  8
FOREGROUND
  6
CONTINUOUS
 10
0.000000
 20
3.724600
  0
SEQEND
  8
0
  0
SOLID
  8
0
 62
    15
 10
3.072520
 20
1.542640
 11
3.729880
 21
1.172600
 12
2.958120
 22
1.520640
 13
3.615480
 23
1.150600
  0
POLYLINE
  8
0
  6
CONTINUOUS
 66
     1
 40
0.000000
 41
0.000000
  0
VERTEX
  8
0
  6
CONTINUOUS
 10
3.072520
 20
1.542640
  0
VERTEX
  8
0
  6
CONTINUOUS
 10
3.729880
 20
1.172600
  0
VERTEX
  8
0
  6
CONTINUOUS
 10
3.615480
 20
1.150600
  0
VERTEX
  8
0
  6
CONTINUOUS
 10
2.958120
 20
1.520640
  0
VERTEX
  8
0
  6
CONTINUOUS
 10
3.072520
 20
1.542640
  0
SEQEND
  8
0
  0
SOLID
  8
0
 62
    15
 10
4.136000
 20
2.658920
 11
4.793360
 21
2.288880
 12
4.051960
 22
2.624160
 13
4.709320
 23
2.253680
  0
POLYLINE
  8
0
  6
CONTINUOUS
 66
     1
 40
0.000000
 41
0.000000
  0
VERTEX
  8
0
  6
CONTINUOUS
 10
4.136000
 20
2.658920
  0
VERTEX
  8
0
  6
CONTINUOUS
 10
4.793360
 20
2.288880
  0
VERTEX
  8
0
  6
CONTINUOUS
 10
4.709320
 20
2.253680
  0
VERTEX
  8
0
  6
CONTINUOUS
 10
4.051960
 20
2.624160
  0
VERTEX
  8
0
  6
CONTINUOUS
 10
4.136000
 20
2.658920
  0
SEQEND
  8
0
  0
SOLID
  8
0
 62
    15
 10
4.051960
 20
2.624160
 11
4.709320
 21
2.253680
 12
3.962200
 22
2.570480
 13
4.619560
 23
2.200440
  0
POLYLINE
  8
0
  6
CONTINUOUS
 66
     1
 40
0.000000
 41
0.000000
  0
VERTEX
  8
0
  6
CONTINUOUS
 10
4.051960
 20
2.624160
  0
VERTEX
  8
0
  6
CONTINUOUS
 10
4.709320
 20
2.253680
  0
VERTEX
  8
0
  6
CONTINUOUS
 10
4.619560
 20
2.200440
  0
VERTEX
  8
0
  6
CONTINUOUS
 10
3.962200
 20
2.570480
  0
VERTEX
  8
0
  6
CONTINUOUS
 10
4.051960
 20
2.624160
  0
SEQEND
  8
0
  0
SOLID
  8
0
 62
    15
 10
3.962200
 20
2.570480
 11
4.619560
 21
2.200440
 12
3.872000
 22
2.500080
 13
4.529360
 23
2.129600
  0
POLYLINE
  8
0
  6
CONTINUOUS
 66
     1
 40
0.000000
 41
0.000000
  0
VERTEX
  8
0
  6
CONTINUOUS
 10
3.962200
 20
2.570480
  0
VERTEX
  8
0
  6
CONTINUOUS
 10
4.619560
 20
2.200440
  0
VERTEX
  8
0
  6
CONTINUOUS
 10
4.529360
 20
2.129600
  0
VERTEX
  8
0
  6
CONTINUOUS
 10
3.872000
 20
2.500080
  0
VERTEX
  8
0
  6
CONTINUOUS
 10
3.962200
 20
2.570480
  0
SEQEND
  8
0
  0
SOLID
  8
0
 62
    15
 10
3.872000
 20
2.500080
 11
4.529360
 21
2.129600
 12
3.787080
 22
2.413840
 13
4.444440
 23
2.043360
  0
POLYLINE
  8
0
  6
CONTINUOUS
 66
     1
 40
0.000000
 41
0.000000
  0
VERTEX
  8
0
  6
CONTINUOUS
 10
3.872000
 20
2.500080
  0
VERTEX
  8
0
  6
CONTINUOUS
 10
4.529360
 20
2.129600
  0
VERTEX
  8
0
  6
CONTINUOUS
 10
4.444440
 20
2.043360
  0
VERTEX
  8
0
  6
CONTINUOUS
 10
3.787080
 20
2.413840
  0
VERTEX
  8
0
  6
CONTINUOUS
 10
3.872000
 20
2.500080
  0
SEQEND
  8
0
  0
SOLID
  8
0
 62
    15
 10
3.787080
 20
2.413840
 11
4.444440
 21
2.043360
 12
3.712280
 22
2.313080
 13
4.369640
 23
1.943040
  0
POLYLINE
  8
0
  6
CONTINUOUS
 66
     1
 40
0.000000
 41
0.000000
  0
VERTEX
  8
0
  6
CONTINUOUS
 10
3.787080
 20
2.413840
  0
VERTEX
  8
0
  6
CONTINUOUS
 10
4.444440
 20
2.043360
  0
VERTEX
  8
0
  6
CONTINUOUS
 10
4.369640
 20
1.943040
  0
VERTEX
  8
0
  6
CONTINUOUS
 10
3.712280
 20
2.313080
  0
VERTEX
  8
0
  6
CONTINUOUS
 10
3.787080
 20
2.413840
  0
SEQEND
  8
0
  0
SOLID
  8
0
 62
    15
 10
3.712280
 20
2.313080
 11
4.369640
 21
1.943040
 12
3.652880
 22
2.200000
 13
4.310240
 23
1.829960
  0
POLYLINE
  8
0
  6
CONTINUOUS
 66
     1
 40
0.000000
 41
0.000000
  0
VERTEX
  8
0
  6
CONTINUOUS
 10
3.712280
 20
2.313080
  0
VERTEX
  8
0
  6
CONTINUOUS
 10
4.369640
 20
1.943040
  0
VERTEX
  8
0
  6
CONTINUOUS
 10
4.310240
 20
1.829960
  0
VERTEX
  8
0
  6
CONTINUOUS
 10
3.652880
 20
2.200000
  0
VERTEX
  8
0
  6
CONTINUOUS
 10
3.712280
 20
2.313080
  0
SEQEND
  8
0
  0
SOLID
  8
0
 62
    15
 10
3.652880
 20
2.200000
 11
4.310240
 21
1.829960
 12
3.614160
 22
2.075920
 13
4.271520
 23
1.705880
  0
POLYLINE
  8
0
  6
CONTINUOUS
 66
     1
 40
0.000000
 41
0.000000
  0
VERTEX
  8
0
  6
CONTINUOUS
 10
3.652880
 20
2.200000
  0
VERTEX
  8
0
  6
CONTINUOUS
 10
4.310240
 20
1.829960
  0
VERTEX
  8
0
  6
CONTINUOUS
 10
4.271520
 20
1.705880
  0
VERTEX
  8
0
  6
CONTINUOUS
 10
3.614160
 20
2.075920
  0
VERTEX
  8
0
  6
CONTINUOUS
 10
3.652880
 20
2.200000
  0
SEQEND
  8
0
  0
SOLID
  8
0
 62
    15
 10
3.614160
 20
2.075920
 11
4.271520
 21
1.705880
 12
3.571920
 22
1.951400
 13
4.229280
 23
1.580920
  0
POLYLINE
  8
0
  6
CONTINUOUS
 66
     1
 40
0.000000
 41
0.000000
  0
VERTEX
  8
0
  6
CONTINUOUS
 10
3.614160
 20
2.075920
  0
VERTEX
  8
0
  6
CONTINUOUS
 10
4.271520
 20
1.705880
  0
VERTEX
  8
0
  6
CONTINUOUS
 10
4.229280
 20
1.580920
  0
VERTEX
  8
0
  6
CONTINUOUS
 10
3.571920
 20
1.951400
  0
VERTEX
  8
0
  6
CONTINUOUS
 10
3.614160
 20
2.075920
  0
SEQEND
  8
0
  0
SOLID
  8
0
 62
    15
 10
3.571920
 20
1.951400
 11
4.229280
 21
1.580920
 12
3.501960
 22
1.837880
 13
4.159320
 23
1.467400
  0
POLYLINE
  8
0
  6
CONTINUOUS
 66
     1
 40
0.000000
 41
0.000000
  0
VERTEX
  8
0
  6
CONTINUOUS
 10
3.571920
 20
1.951400
  0
VERTEX
  8
0
  6
CONTINUOUS
 10
4.229280
 20
1.580920
  0
VERTEX
  8
0
  6
CONTINUOUS
 10
4.159320
 20
1.467400
  0
VERTEX
  8
0
  6
CONTINUOUS
 10
3.501960
 20
1.837880
  0
VERTEX
  8
0
  6
CONTINUOUS
 10
3.571920
 20
1.951400
  0
SEQEND
  8
0
  0
SOLID
  8
0
 62
    15
 10
3.501960
 20
1.837880
 11
4.159320
 21
1.467400
 12
3.411320
 22
1.737560
 13
4.068680
 23
1.367520
  0
POLYLINE
  8
0
  6
CONTINUOUS
 66
     1
 40
0.000000
 41
0.000000
  0
VERTEX
  8
0
  6
CONTINUOUS
 10
3.501960
 20
1.837880
  0
VERTEX
  8
0
  6
CONTINUOUS
 10
4.159320
 20
1.467400
  0
VERTEX
  8
0
  6
CONTINUOUS
 10
4.068680
 20
1.367520
  0
VERTEX
  8
0
  6
CONTINUOUS
 10
3.411320
 20
1.737560
  0
VERTEX
  8
0
  6
CONTINUOUS
 10
3.501960
 20
1.837880
  0
SEQEND
  8
0
  0
SOLID
  8
0
 62
    15
 10
3.411320
 20
1.737560
 11
4.068680
 21
1.367520
 12
3.305280
 22
1.653520
 13
3.962640
 23
1.283480
  0
POLYLINE
  8
0
  6
CONTINUOUS
 66
     1
 40
0.000000
 41
0.000000
  0
VERTEX
  8
0
  6
CONTINUOUS
 10
3.411320
 20
1.737560
  0
VERTEX
  8
0
  6
CONTINUOUS
 10
4.068680
 20
1.367520
  0
VERTEX
  8
0
  6
CONTINUOUS
 10
3.962640
 20
1.283480
  0
VERTEX
  8
0
  6
CONTINUOUS
 10
3.305280
 20
1.653520
  0
VERTEX
  8
0
  6
CONTINUOUS
 10
3.411320
 20
1.737560
  0
SEQEND
  8
0
  0
SOLID
  8
0
 62
    15
 10
3.305280
 20
1.653520
 11
3.962640
 21
1.283480
 12
3.190440
 22
1.587960
 13
3.847800
 23
1.217480
  0
POLYLINE
  8
0
  6
CONTINUOUS
 66
     1
 40
0.000000
 41
0.000000
  0
VERTEX
  8
0
  6
CONTINUOUS
 10
3.305280
 20
1.653520
  0
VERTEX
  8
0
  6
CONTINUOUS
 10
3.962640
 20
1.283480
  0
VERTEX
  8
0
  6
CONTINUOUS
 10
3.847800
 20
1.217480
  0
VERTEX
  8
0
  6
CONTINUOUS
 10
3.190440
 20
1.587960
  0
VERTEX
  8
0
  6
CONTINUOUS
 10
3.305280
 20
1.653520
  0
SEQEND
  8
0
  0
SOLID
  8
0
 62
    15
 10
3.190440
 20
1.587960
 11
3.847800
 21
1.217480
 12
3.072520
 22
1.542640
 13
3.729880
 23
1.172600
  0
POLYLINE
  8
0
  6
CONTINUOUS
 66
     1
 40
0.000000
 41
0.000000
  0
VERTEX
  8
0
  6
CONTINUOUS
 10
3.190440
 20
1.587960
  0
VERTEX
  8
0
  6
CONTINUOUS
 10
3.847800
 20
1.217480
  0
VERTEX
  8
0
  6
CONTINUOUS
 10
3.729880
 20
1.172600
  0
VERTEX
  8
0
  6
CONTINUOUS
 10
3.072520
 20
1.542640
  0
VERTEX
  8
0
  6
CONTINUOUS
 10
3.190440
 20
1.587960
  0
SEQEND
  8
0
  0
SOLID
  8
0
 62
    15
 10
4.209480
 20
2.673440
 11
4.866840
 21
2.303400
 12
4.136000
 22
2.658920
 13
4.793360
 23
2.288880
  0
POLYLINE
  8
0
  6
CONTINUOUS
 66
     1
 40
0.000000
 41
0.000000
  0
VERTEX
  8
0
  6
CONTINUOUS
 10
4.209480
 20
2.673440
  0
VERTEX
  8
0
  6
CONTINUOUS
 10
4.866840
 20
2.303400
  0
VERTEX
  8
0
  6
CONTINUOUS
 10
4.793360
 20
2.288880
  0
VERTEX
  8
0
  6
CONTINUOUS
 10
4.136000
 20
2.658920
  0
VERTEX
  8
0
  6
CONTINUOUS
 10
4.209480
 20
2.673440
  0
SEQEND
  8
0
  0
SOLID
  8
0
 62
    15
 10
2.958120
 20
1.520640
 11
3.615480
 21
1.150600
 12
2.852520
 22
1.523720
 13
3.509880
 23
1.153680
  0
POLYLINE
  8
0
  6
CONTINUOUS
 66
     1
 40
0.000000
 41
0.000000
  0
VERTEX
  8
0
  6
CONTINUOUS
 10
2.958120
 20
1.520640
  0
VERTEX
  8
0
  6
CONTINUOUS
 10
3.615480
 20
1.150600
  0
VERTEX
  8
0
  6
CONTINUOUS
 10
3.509880
 20
1.153680
  0
VERTEX
  8
0
  6
CONTINUOUS
 10
2.852520
 20
1.523720
  0
VERTEX
  8
0
  6
CONTINUOUS
 10
2.958120
 20
1.520640
  0
SEQEND
  8
0
  0
SOLID
  8
0
 62
    15
 10
2.852520
 20
1.523720
 11
3.509880
 21
1.153680
 12
2.839320
 22
1.305920
 13
3.496680
 23
0.935440
  0
POLYLINE
  8
0
  6
CONTINUOUS
 66
     1
 40
0.000000
 41
0.000000
  0
VERTEX
  8
0
  6
CONTINUOUS
 10
2.852520
 20
1.523720
  0
VERTEX
  8
0
  6
CONTINUOUS
 10
3.509880
 20
1.153680
  0
VERTEX
  8
0
  6
CONTINUOUS
 10
3.496680
 20
0.935440
  0
VERTEX
  8
0
  6
CONTINUOUS
 10
2.839320
 20
1.305920
  0
VERTEX
  8
0
  6
CONTINUOUS
 10
2.852520
 20
1.523720
  0
SEQEND
  8
0
  0
SOLID
  8
0
 62
    15
 10
2.839320
 20
1.305920
 11
3.496680
 21
0.935440
 12
2.775960
 22
1.309440
 13
3.433320
 23
0.939400
  0
POLYLINE
  8
0
  6
CONTINUOUS
 66
     1
 40
0.000000
 41
0.000000
  0
VERTEX
  8
0
  6
CONTINUOUS
 10
2.839320
 20
1.305920
  0
VERTEX
  8
0
  6
CONTINUOUS
 10
3.496680
 20
0.935440
  0
VERTEX
  8
0
  6
CONTINUOUS
 10
3.433320
 20
0.939400
  0
VERTEX
  8
0
  6
CONTINUOUS
 10
2.775960
 20
1.309440
  0
VERTEX
  8
0
  6
CONTINUOUS
 10
2.839320
 20
1.305920
  0
SEQEND
  8
0
  0
SOLID
  8
0
 62
    15
 10
2.775960
 20
1.309440
 11
3.433320
 21
0.939400
 12
2.703800
 22
1.294480
 13
3.361160
 23
0.924440
  0
POLYLINE
  8
0
  6
CONTINUOUS
 66
     1
 40
0.000000
 41
0.000000
  0
VERTEX
  8
0
  6
CONTINUOUS
 10
2.775960
 20
1.309440
  0
VERTEX
  8
0
  6
CONTINUOUS
 10
3.433320
 20
0.939400
  0
VERTEX
  8
0
  6
CONTINUOUS
 10
3.361160
 20
0.924440
  0
VERTEX
  8
0
  6
CONTINUOUS
 10
2.703800
 20
1.294480
  0
VERTEX
  8
0
  6
CONTINUOUS
 10
2.775960
 20
1.309440
  0
SEQEND
  8
0
  0
SOLID
  8
0
 62
    15
 10
2.703800
 20
1.294480
 11
3.361160
 21
0.924440
 12
2.627240
 22
1.261040
 13
3.284600
 23
0.891000
  0
POLYLINE
  8
0
  6
CONTINUOUS
 66
     1
 40
0.000000
 41
0.000000
  0
VERTEX
  8
0
  6
CONTINUOUS
 10
2.703800
 20
1.294480
  0
VERTEX
  8
0
  6
CONTINUOUS
 10
3.361160
 20
0.924440
  0
VERTEX
  8
0
  6
CONTINUOUS
 10
3.284600
 20
0.891000
  0
VERTEX
  8
0
  6
CONTINUOUS
 10
2.627240
 20
1.261040
  0
VERTEX
  8
0
  6
CONTINUOUS
 10
2.703800
 20
1.294480
  0
SEQEND
  8
0
  0
SOLID
  8
0
 62
    15
 10
2.627240
 20
1.261040
 11
3.284600
 21
0.891000
 12
2.551120
 22
1.209560
 13
3.208480
 23
0.839520
  0
POLYLINE
  8
0
  6
CONTINUOUS
 66
     1
 40
0.000000
 41
0.000000
  0
VERTEX
  8
0
  6
CONTINUOUS
 10
2.627240
 20
1.261040
  0
VERTEX
  8
0
  6
CONTINUOUS
 10
3.284600
 20
0.891000
  0
VERTEX
  8
0
  6
CONTINUOUS
 10
3.208480
 20
0.839520
  0
VERTEX
  8
0
  6
CONTINUOUS
 10
2.551120
 20
1.209560
  0
VERTEX
  8
0
  6
CONTINUOUS
 10
2.627240
 20
1.261040
  0
SEQEND
  8
0
  0
SOLID
  8
0
 62
    15
 10
2.551120
 20
1.209560
 11
3.208480
 21
0.839520
 12
2.480720
 22
1.140480
 13
3.138080
 23
0.770440
  0
POLYLINE
  8
0
  6
CONTINUOUS
 66
     1
 40
0.000000
 41
0.000000
  0
VERTEX
  8
0
  6
CONTINUOUS
 10
2.551120
 20
1.209560
  0
VERTEX
  8
0
  6
CONTINUOUS
 10
3.208480
 20
0.839520
  0
VERTEX
  8
0
  6
CONTINUOUS
 10
3.138080
 20
0.770440
  0
VERTEX
  8
0
  6
CONTINUOUS
 10
2.480720
 20
1.140480
  0
VERTEX
  8
0
  6
CONTINUOUS
 10
2.551120
 20
1.209560
  0
SEQEND
  8
0
  0
SOLID
  8
0
 62
    15
 10
2.480720
 20
1.140480
 11
3.138080
 21
0.770440
 12
2.420880
 22
1.053800
 13
3.078240
 23
0.683320
  0
POLYLINE
  8
0
  6
CONTINUOUS
 66
     1
 40
0.000000
 41
0.000000
  0
VERTEX
  8
0
  6
CONTINUOUS
 10
2.480720
 20
1.140480
  0
VERTEX
  8
0
  6
CONTINUOUS
 10
3.138080
 20
0.770440
  0
VERTEX
  8
0
  6
CONTINUOUS
 10
3.078240
 20
0.683320
  0
VERTEX
  8
0
  6
CONTINUOUS
 10
2.420880
 20
1.053800
  0
VERTEX
  8
0
  6
CONTINUOUS
 10
2.480720
 20
1.140480
  0
SEQEND
  8
0
  0
SOLID
  8
0
 62
    15
 10
2.420880
 20
1.053800
 11
3.078240
 21
0.683320
 12
2.376000
 22
0.949520
 13
3.033360
 23
0.579480
  0
POLYLINE
  8
0
  6
CONTINUOUS
 66
     1
 40
0.000000
 41
0.000000
  0
VERTEX
  8
0
  6
CONTINUOUS
 10
2.420880
 20
1.053800
  0
VERTEX
  8
0
  6
CONTINUOUS
 10
3.078240
 20
0.683320
  0
VERTEX
  8
0
  6
CONTINUOUS
 10
3.033360
 20
0.579480
  0
VERTEX
  8
0
  6
CONTINUOUS
 10
2.376000
 20
0.949520
  0
VERTEX
  8
0
  6
CONTINUOUS
 10
2.420880
 20
1.053800
  0
SEQEND
  8
0
  0
SOLID
  8
0
 62
    15
 10
2.376000
 20
0.949520
 11
3.033360
 21
0.579480
 12
2.350920
 22
0.828520
 13
3.008280
 23
0.458480
  0
POLYLINE
  8
0
  6
CONTINUOUS
 66
     1
 40
0.000000
 41
0.000000
  0
VERTEX
  8
0
  6
CONTINUOUS
 10
2.376000
 20
0.949520
  0
VERTEX
  8
0
  6
CONTINUOUS
 10
3.033360
 20
0.579480
  0
VERTEX
  8
0
  6
CONTINUOUS
 10
3.008280
 20
0.458480
  0
VERTEX
  8
0
  6
CONTINUOUS
 10
2.350920
 20
0.828520
  0
VERTEX
  8
0
  6
CONTINUOUS
 10
2.376000
 20
0.949520
  0
SEQEND
  8
0
  0
SOLID
  8
0
 62
    15
 10
2.350920
 20
0.828520
 11
3.008280
 21
0.458480
 12
2.195600
 22
0.826760
 13
2.852960
 23
0.456280
  0
POLYLINE
  8
0
  6
CONTINUOUS
 66
     1
 40
0.000000
 41
0.000000
  0
VERTEX
  8
0
  6
CONTINUOUS
 10
2.350920
 20
0.828520
  0
VERTEX
  8
0
  6
CONTINUOUS
 10
3.008280
 20
0.458480
  0
VERTEX
  8
0
  6
CONTINUOUS
 10
2.852960
 20
0.456280
  0
VERTEX
  8
0
  6
CONTINUOUS
 10
2.195600
 20
0.826760
  0
VERTEX
  8
0
  6
CONTINUOUS
 10
2.350920
 20
0.828520
  0
SEQEND
  8
0
  0
SOLID
  8
0
 62
    15
 10
4.317720
 20
3.283280
 11
4.975080
 21
2.913240
 12
4.316840
 22
2.816000
 13
4.974200
 23
2.445960
  0
POLYLINE
  8
0
  6
CONTINUOUS
 66
     1
 40
0.000000
 41
0.000000
  0
VERTEX
  8
0
  6
CONTINUOUS
 10
4.317720
 20
3.283280
  0
VERTEX
  8
0
  6
CONTINUOUS
 10
4.975080
 20
2.913240
  0
VERTEX
  8
0
  6
CONTINUOUS
 10
4.974200
 20
2.445960
  0
VERTEX
  8
0
  6
CONTINUOUS
 10
4.316840
 20
2.816000
  0
VERTEX
  8
0
  6
CONTINUOUS
 10
4.317720
 20
3.283280
  0
SEQEND
  8
0
  0
SOLID
  8
0
 62
    15
 10
4.316840
 20
2.816000
 11
4.974200
 21
2.445960
 12
4.209480
 22
2.818200
 13
4.866840
 23
2.448160
  0
POLYLINE
  8
0
  6
CONTINUOUS
 66
     1
 40
0.000000
 41
0.000000
  0
VERTEX
  8
0
  6
CONTINUOUS
 10
4.316840
 20
2.816000
  0
VERTEX
  8
0
  6
CONTINUOUS
 10
4.974200
 20
2.445960
  0
VERTEX
  8
0
  6
CONTINUOUS
 10
4.866840
 20
2.448160
  0
VERTEX
  8
0
  6
CONTINUOUS
 10
4.209480
 20
2.818200
  0
VERTEX
  8
0
  6
CONTINUOUS
 10
4.316840
 20
2.816000
  0
SEQEND
  8
0
  0
SOLID
  8
0
 62
    15
 10
4.209480
 20
2.818200
 11
4.866840
 21
2.448160
 12
4.209480
 22
2.673440
 13
4.866840
 23
2.303400
  0
POLYLINE
  8
0
  6
CONTINUOUS
 66
     1
 40
0.000000
 41
0.000000
  0
VERTEX
  8
0
  6
CONTINUOUS
 10
4.209480
 20
2.818200
  0
VERTEX
  8
0
  6
CONTINUOUS
 10
4.866840
 20
2.448160
  0
VERTEX
  8
0
  6
CONTINUOUS
 10
4.866840
 20
2.303400
  0
VERTEX
  8
0
  6
CONTINUOUS
 10
4.209480
 20
2.673440
  0
VERTEX
  8
0
  6
CONTINUOUS
 10
4.209480
 20
2.818200
  0
SEQEND
  8
0
  0
POLYLINE
  8
0
  6
CONTINUOUS
 66
     1
 40
0.000000
 41
0.000000
  0
VERTEX
  8
0
  6
CONTINUOUS
 10
4.209480
 20
2.673440
  0
VERTEX
  8
0
  6
CONTINUOUS
 10
4.136000
 20
2.658920
  0
VERTEX
  8
0
  6
CONTINUOUS
 10
4.051960
 20
2.624160
  0
VERTEX
  8
0
  6
CONTINUOUS
 10
3.962200
 20
2.570480
  0
VERTEX
  8
0
  6
CONTINUOUS
 10
3.872000
 20
2.500080
  0
VERTEX
  8
0
  6
CONTINUOUS
 10
3.787080
 20
2.413840
  0
VERTEX
  8
0
  6
CONTINUOUS
 10
3.712280
 20
2.313080
  0
VERTEX
  8
0
  6
CONTINUOUS
 10
3.652880
 20
2.200000
  0
VERTEX
  8
0
  6
CONTINUOUS
 10
3.614160
 20
2.075920
  0
VERTEX
  8
0
  6
CONTINUOUS
 10
3.571920
 20
1.951400
  0
VERTEX
  8
0
  6
CONTINUOUS
 10
3.501960
 20
1.837880
  0
VERTEX
  8
0
  6
CONTINUOUS
 10
3.411320
 20
1.737560
  0
VERTEX
  8
0
  6
CONTINUOUS
 10
3.305280
 20
1.653520
  0
VERTEX
  8
0
  6
CONTINUOUS
 10
3.190440
 20
1.587960
  0
VERTEX
  8
0
  6
CONTINUOUS
 10
3.072520
 20
1.542640
  0
VERTEX
  8
0
  6
CONTINUOUS
 10
2.958120
 20
1.520640
  0
VERTEX
  8
0
  6
CONTINUOUS
 10
2.852520
 20
1.523720
  0
VERTEX
  8
0
  6
CONTINUOUS
 10
2.839320
 20
1.305920
  0
VERTEX
  8
0
  6
CONTINUOUS
 10
2.775960
 20
1.309440
  0
VERTEX
  8
0
  6
CONTINUOUS
 10
2.703800
 20
1.294480
  0
VERTEX
  8
0
  6
CONTINUOUS
 10
2.627240
 20
1.261040
  0
VERTEX
  8
0
  6
CONTINUOUS
 10
2.551120
 20
1.209560
  0
VERTEX
  8
0
  6
CONTINUOUS
 10
2.480720
 20
1.140480
  0
VERTEX
  8
0
  6
CONTINUOUS
 10
2.420880
 20
1.053800
  0
VERTEX
  8
0
  6
CONTINUOUS
 10
2.376000
 20
0.949520
  0
VERTEX
  8
0
  6
CONTINUOUS
 10
2.350920
 20
0.828520
  0
VERTEX
  8
0
  6
CONTINUOUS
 10
2.195600
 20
0.826760
  0
VERTEX
  8
0
  6
CONTINUOUS
 10
2.191640
 20
1.498200
  0
VERTEX
  8
0
  6
CONTINUOUS
 10
3.749240
 20
3.271400
  0
VERTEX
  8
0
  6
CONTINUOUS
 10
4.317720
 20
3.283280
  0
VERTEX
  8
0
  6
CONTINUOUS
 10
4.316840
 20
2.816000
  0
VERTEX
  8
0
  6
CONTINUOUS
 10
4.209480
 20
2.818200
  0
VERTEX
  8
0
  6
CONTINUOUS
 10
4.209480
 20
2.673440
  0
SEQEND
  8
0
  0
TEXT
  8
0
 10
3.551240
 20
0.676280
 40
0.137993
  1
BA  811
 41
1.000000
  7
SN0
 71
     0
 72
     5
 11
4.141579
 21
0.676280
  0
TEXT
  8
0
 10
3.395480
 20
0.484440
 40
0.137993
  1
3/4" x 3-1/4"
 41
1.000000
  7
SN0
 71
     0
 72
     5
 11
4.296670
 21
0.484440
  0
POLYLINE
  8
0
  6
CONTINUOUS
 66
     1
 40
0.014080
 41
0.014080
  0
VERTEX
  8
0
  6
CONTINUOUS
 10
7.093680
 20
2.563000
  0
VERTEX
  8
0
  6
CONTINUOUS
 10
7.058480
 20
2.558160
  0
VERTEX
  8
0
  6
CONTINUOUS
 10
7.020200
 20
2.548040
  0
VERTEX
  8
0
  6
CONTINUOUS
 10
6.979280
 20
2.533080
  0
VERTEX
  8
0
  6
CONTINUOUS
 10
6.936160
 20
2.513280
  0
VERTEX
  8
0
  6
CONTINUOUS
 10
6.891720
 20
2.488640
  0
VERTEX
  8
0
  6
CONTINUOUS
 10
6.846400
 20
2.460040
  0
VERTEX
  8
0
  6
CONTINUOUS
 10
6.778640
 20
2.408560
  0
VERTEX
  8
0
  6
CONTINUOUS
 10
6.713080
 20
2.347840
  0
VERTEX
  8
0
  6
CONTINUOUS
 10
6.671280
 20
2.302960
  0
VERTEX
  8
0
  6
CONTINUOUS
 10
6.632560
 20
2.254560
  0
VERTEX
  8
0
  6
CONTINUOUS
 10
6.596480
 20
2.202640
  0
VERTEX
  8
0
  6
CONTINUOUS
 10
6.564800
 20
2.147640
  0
VERTEX
  8
0
  6
CONTINUOUS
 10
6.537080
 20
2.089560
  0
VERTEX
  8
0
  6
CONTINUOUS
 10
6.514640
 20
2.028400
  0
VERTEX
  8
0
  6
CONTINUOUS
 10
6.498360
 20
1.965040
  0
VERTEX
  8
0
  6
CONTINUOUS
 10
6.490440
 20
1.932920
  0
VERTEX
  8
0
  6
CONTINUOUS
 10
6.469320
 20
1.870440
  0
VERTEX
  8
0
  6
CONTINUOUS
 10
6.456120
 20
1.840520
  0
VERTEX
  8
0
  6
CONTINUOUS
 10
6.424000
 20
1.782000
  0
VERTEX
  8
0
  6
CONTINUOUS
 10
6.386160
 20
1.727000
  0
VERTEX
  8
0
  6
CONTINUOUS
 10
6.343040
 20
1.675080
  0
VERTEX
  8
0
  6
CONTINUOUS
 10
6.295520
 20
1.627120
  0
VERTEX
  8
0
  6
CONTINUOUS
 10
6.244040
 20
1.582680
  0
VERTEX
  8
0
  6
CONTINUOUS
 10
6.189480
 20
1.543080
  0
VERTEX
  8
0
  6
CONTINUOUS
 10
6.132720
 20
1.507440
  0
VERTEX
  8
0
  6
CONTINUOUS
 10
6.074640
 20
1.477080
  0
VERTEX
  8
0
  6
CONTINUOUS
 10
6.015680
 20
1.452000
  0
VERTEX
  8
0
  6
CONTINUOUS
 10
5.956720
 20
1.432200
  0
VERTEX
  8
0
  6
CONTINUOUS
 10
5.927680
 20
1.424280
  0
VERTEX
  8
0
  6
CONTINUOUS
 10
5.870040
 20
1.413280
  0
VERTEX
  8
0
  6
CONTINUOUS
 10
5.842320
 20
1.409760
  0
VERTEX
  8
0
  6
CONTINUOUS
 10
5.788200
 20
1.408440
  0
VERTEX
  8
0
  6
CONTINUOUS
 10
5.762240
 20
1.409760
  0
VERTEX
  8
0
  6
CONTINUOUS
 10
5.737160
 20
1.413280
  0
VERTEX
  8
0
  6
CONTINUOUS
 10
5.723520
 20
1.195040
  0
VERTEX
  8
0
  6
CONTINUOUS
 10
5.693160
 20
1.199000
  0
VERTEX
  8
0
  6
CONTINUOUS
 10
5.660160
 20
1.198560
  0
VERTEX
  8
0
  6
CONTINUOUS
 10
5.643000
 20
1.196800
  0
VERTEX
  8
0
  6
CONTINUOUS
 10
5.606480
 20
1.189320
  0
VERTEX
  8
0
  6
CONTINUOUS
 10
5.550160
 20
1.169520
  0
VERTEX
  8
0
  6
CONTINUOUS
 10
5.492080
 20
1.139160
  0
VERTEX
  8
0
  6
CONTINUOUS
 10
5.454240
 20
1.113640
  0
VERTEX
  8
0
  6
CONTINUOUS
 10
5.417280
 20
1.083280
  0
VERTEX
  8
0
  6
CONTINUOUS
 10
5.382080
 20
1.048520
  0
VERTEX
  8
0
  6
CONTINUOUS
 10
5.349080
 20
1.009800
  0
VERTEX
  8
0
  6
CONTINUOUS
 10
5.318720
 20
0.966240
  0
VERTEX
  8
0
  6
CONTINUOUS
 10
5.292320
 20
0.918720
  0
VERTEX
  8
0
  6
CONTINUOUS
 10
5.269440
 20
0.866800
  0
VERTEX
  8
0
  6
CONTINUOUS
 10
5.251840
 20
0.810480
  0
VERTEX
  8
0
  6
CONTINUOUS
 10
5.239080
 20
0.749760
  0
VERTEX
  8
0
  6
CONTINUOUS
 10
5.235120
 20
0.718080
  0
VERTEX
  8
0
  6
CONTINUOUS
 10
5.079800
 20
0.715880
  0
VERTEX
  8
0
  6
CONTINUOUS
 10
5.075840
 20
1.387760
  0
VERTEX
  8
0
  6
CONTINUOUS
 10
6.633880
 20
3.160960
  0
VERTEX
  8
0
  6
CONTINUOUS
 10
7.201920
 20
3.172400
  0
VERTEX
  8
0
  6
CONTINUOUS
 10
7.201040
 20
2.705120
  0
VERTEX
  8
0
  6
CONTINUOUS
 10
7.093680
 20
2.707320
  0
VERTEX
  8
0
  6
CONTINUOUS
 10
7.093680
 20
2.563000
  0
SEQEND
  8
0
  0
ENDSEC
  0
EOF
