  0
SECTION
  2
HEADER
  9
$ACADVER
  1
AC1006
  9
$EXTMIN
 10
4.895880
 20
0.572000
  9
$EXTMAX
 10
7.318080
 20
2.217600
  9
$LTSCALE
 40
0.044000
  9
$PDMODE
 70
    35
  9
$PDSIZE
 40
0.035200
  0
ENDSEC
  0
SECTION
  2
TABLES
  0
TABLE
  2
LTYPE
 70
     9
  0
LTYPE
  2
CONTINUOUS
 70
    64
  3
Solid line
 72
    65
 73
     0
 40
0.000000
  0
LTYPE
  2
DASHED
 70
    64
  3
__ __ __ __ __ __ __ __ __ __ __ __ __ __ __
 72
    65
 73
     2
 40
0.000330
 49
0.000220
 49
-0.000110
  0
LTYPE
  2
HIDDEN
 70
    64
  3
 _ _ _ _ _ _ _ _ _ _ _ _ _ _ _ _ _ _ _ _ _ _
 72
    65
 73
     2
 40
0.000165
 49
0.000110
 49
-0.000055
  0
LTYPE
  2
CENTER
 70
    64
  3
____ _ ____ _ ____ _ ____ _ ____ _ ____ _ ____
 72
    65
 73
     4
 40
0.000880
 49
0.000550
 49
-0.000110
 49
0.000110
 49
-0.000110
  0
LTYPE
  2
PHANTOM
 70
    64
  3
_____ _ _ _____ _ _ _____ _ _ _____ _ _ ____
 72
    65
 73
     6
 40
0.001100
 49
0.000550
 49
-0.000110
 49
0.000110
 49
-0.000110
 49
0.000110
 49
-0.000110
  0
LTYPE
  2
DOT
 70
    64
  3
...............................................
 72
    65
 73
     2
 40
0.000110
 49
0.000000
 49
-0.000110
  0
LTYPE
  2
DASHDOT
 70
    64
  3
__ . __ . __ . __ . __ . __ . __ . __ . __ . __
 72
    65
 73
     4
 40
0.000440
 49
0.000220
 49
-0.000110
 49
0.000000
 49
-0.000110
  0
LTYPE
  2
BORDER
 70
    64
  3
__ __ . __ __ . __ __ . __ __ . __ __ . __ __
 72
    65
 73
     6
 40
0.000770
 49
0.000220
 49
-0.000110
 49
0.000220
 49
-0.000110
 49
0.000000
 49
-0.000110
  0
LTYPE
  2
DIVIDE
 70
    64
  3
__ . . __ . . __ . . __ . . __ . . __ . . __
 72
    65
 73
     6
 40
0.000550
 49
0.000220
 49
-0.000110
 49
0.000000
 49
-0.000110
 49
0.000000
 49
-0.000110
  0
LTYPE
  2
DOTDOT
 70
    64
  3
 . .  . .  . .  . .  . .  . . 
 72
    65
 73
     5
 40
0.000242
 49
-0.000110
 49
0.000000
 49
-0.000110
 49
0.000000
 49
-0.000110
  0
ENDTAB
  0
TABLE
  2
STYLE
 70
     2
  0
STYLE
 70
     0
  2
SN0
 40
0.000000
 41
0.000440
 50
0.000000
 71
     0
 42
0.000000
  3
ROMAND
  0
STYLE
 70
    68
  2
SV0
 40
0.000000
 41
0.000440
 50
0.000000
 71
     0
 42
0.000000
  3
ROMAND
  0
ENDTAB
  0
TABLE
  2
LAYER
 70
     3
  0
LAYER
  2
FOREGROUND
 70
    64
 62
     7
  6
CONTINUOUS
  0
LAYER
  2
BACKGROUND
 70
    65
 62
    -7
  6
CONTINUOUS
  0
LAYER
  2
0
 70
    64
 62
     7
  6
CONTINUOUS
  0
ENDTAB
  0
ENDSEC
  0
SECTION
  2
ENTITIES
  0
POLYLINE
  8
FOREGROUND
  6
CONTINUOUS
 66
     1
 40
0.000000
 41
0.000000
  0
VERTEX
  8
FOREGROUND
  6
CONTINUOUS
 10
0.000000
 20
2.789600
  0
VERTEX
  8
FOREGROUND
  6
CONTINUOUS
 10
8.499920
 20
2.789600
  0
VERTEX
  8
FOREGROUND
  6
CONTINUOUS
 10
8.499920
 20
-8.210400
  0
VERTEX
  8
FOREGROUND
  6
CONTINUOUS
 10
0.000000
 20
-8.210400
  0
VERTEX
  8
FOREGROUND
  6
CONTINUOUS
 10
0.000000
 20
2.789600
  0
SEQEND
  8
0
  0
POLYLINE
  8
FOREGROUND
  6
CONTINUOUS
 66
     1
 40
0.000000
 41
0.000000
  0
VERTEX
  8
FOREGROUND
  6
CONTINUOUS
 10
0.000000
 20
2.789600
  0
VERTEX
  8
FOREGROUND
  6
CONTINUOUS
 10
8.499920
 20
2.789600
  0
VERTEX
  8
FOREGROUND
  6
CONTINUOUS
 10
8.499920
 20
-8.210400
  0
VERTEX
  8
FOREGROUND
  6
CONTINUOUS
 10
0.000000
 20
-8.210400
  0
VERTEX
  8
FOREGROUND
  6
CONTINUOUS
 10
0.000000
 20
2.789600
  0
SEQEND
  8
0
  0
POLYLINE
  8
0
  6
CONTINUOUS
 66
     1
 40
0.014080
 41
0.014080
  0
VERTEX
  8
0
  6
CONTINUOUS
 10
6.792720
 20
1.541320
  0
VERTEX
  8
0
  6
CONTINUOUS
 10
6.819560
 20
1.540440
  0
VERTEX
  8
0
  6
CONTINUOUS
 10
6.845520
 20
1.537360
  0
VERTEX
  8
0
  6
CONTINUOUS
 10
6.870160
 20
1.532960
  0
VERTEX
  8
0
  6
CONTINUOUS
 10
6.893920
 20
1.526360
  0
VERTEX
  8
0
  6
CONTINUOUS
 10
6.916800
 20
1.518440
  0
VERTEX
  8
0
  6
CONTINUOUS
 10
6.938360
 20
1.508320
  0
VERTEX
  8
0
  6
CONTINUOUS
 10
6.958600
 20
1.496880
  0
VERTEX
  8
0
  6
CONTINUOUS
 10
6.977960
 20
1.483680
  0
VERTEX
  8
0
  6
CONTINUOUS
 10
6.996000
 20
1.469160
  0
VERTEX
  8
0
  6
CONTINUOUS
 10
7.012280
 20
1.452880
  0
VERTEX
  8
0
  6
CONTINUOUS
 10
7.027680
 20
1.434840
  0
VERTEX
  8
0
  6
CONTINUOUS
 10
7.041320
 20
1.415920
  0
VERTEX
  8
0
  6
CONTINUOUS
 10
7.053640
 20
1.395240
  0
VERTEX
  8
0
  6
CONTINUOUS
 10
7.064640
 20
1.373240
  0
VERTEX
  8
0
  6
CONTINUOUS
 10
7.073880
 20
1.350360
  0
VERTEX
  8
0
  6
CONTINUOUS
 10
7.081360
 20
1.325720
  0
VERTEX
  8
0
  6
CONTINUOUS
 10
7.088400
 20
1.301080
  0
VERTEX
  8
0
  6
CONTINUOUS
 10
7.096760
 20
1.276880
  0
VERTEX
  8
0
  6
CONTINUOUS
 10
7.106000
 20
1.253560
  0
VERTEX
  8
0
  6
CONTINUOUS
 10
7.116560
 20
1.231120
  0
VERTEX
  8
0
  6
CONTINUOUS
 10
7.127560
 20
1.210000
  0
VERTEX
  8
0
  6
CONTINUOUS
 10
7.139880
 20
1.189760
  0
VERTEX
  8
0
  6
CONTINUOUS
 10
7.153080
 20
1.170840
  0
VERTEX
  8
0
  6
CONTINUOUS
 10
7.167160
 20
1.153680
  0
VERTEX
  8
0
  6
CONTINUOUS
 10
7.182560
 20
1.137840
  0
VERTEX
  8
0
  6
CONTINUOUS
 10
7.198400
 20
1.123760
  0
VERTEX
  8
0
  6
CONTINUOUS
 10
7.215120
 20
1.111440
  0
VERTEX
  8
0
  6
CONTINUOUS
 10
7.232720
 20
1.101320
  0
VERTEX
  8
0
  6
CONTINUOUS
 10
7.251200
 20
1.092960
  0
VERTEX
  8
0
  6
CONTINUOUS
 10
7.270120
 20
1.086800
  0
VERTEX
  8
0
  6
CONTINUOUS
 10
7.280240
 20
1.084600
  0
VERTEX
  8
0
  6
CONTINUOUS
 10
7.290360
 20
1.083280
  0
VERTEX
  8
0
  6
CONTINUOUS
 10
7.300480
 20
1.082400
  0
VERTEX
  8
0
  6
CONTINUOUS
 10
7.311040
 20
1.081960
  0
VERTEX
  8
0
  6
CONTINUOUS
 10
7.311040
 20
0.976360
  0
VERTEX
  8
0
  6
CONTINUOUS
 10
6.523000
 20
0.976360
  0
VERTEX
  8
0
  6
CONTINUOUS
 10
6.523000
 20
1.789920
  0
VERTEX
  8
0
  6
CONTINUOUS
 10
6.790520
 20
1.789920
  0
VERTEX
  8
0
  6
CONTINUOUS
 10
6.790520
 20
1.541320
  0
VERTEX
  8
0
  6
CONTINUOUS
 10
6.792720
 20
1.541320
  0
SEQEND
  8
0
  0
SOLID
  8
0
 62
    15
 10
5.489880
 20
1.283040
 11
6.130080
 21
1.658360
 12
5.513640
 22
1.241680
 13
6.153400
 23
1.617000
  0
POLYLINE
  8
0
  6
CONTINUOUS
 66
     1
 40
0.000000
 41
0.000000
  0
VERTEX
  8
0
  6
CONTINUOUS
 10
5.489880
 20
1.283040
  0
VERTEX
  8
0
  6
CONTINUOUS
 10
6.130080
 20
1.658360
  0
VERTEX
  8
0
  6
CONTINUOUS
 10
6.153400
 20
1.617000
  0
VERTEX
  8
0
  6
CONTINUOUS
 10
5.513640
 20
1.241680
  0
VERTEX
  8
0
  6
CONTINUOUS
 10
5.489880
 20
1.283040
  0
SEQEND
  8
0
  0
SOLID
  8
0
 62
    15
 10
5.218840
 20
1.589720
 11
5.859040
 21
1.964600
 12
5.267680
 22
1.578280
 13
5.907880
 23
1.953600
  0
POLYLINE
  8
0
  6
CONTINUOUS
 66
     1
 40
0.000000
 41
0.000000
  0
VERTEX
  8
0
  6
CONTINUOUS
 10
5.218840
 20
1.589720
  0
VERTEX
  8
0
  6
CONTINUOUS
 10
5.859040
 20
1.964600
  0
VERTEX
  8
0
  6
CONTINUOUS
 10
5.907880
 20
1.953600
  0
VERTEX
  8
0
  6
CONTINUOUS
 10
5.267680
 20
1.578280
  0
VERTEX
  8
0
  6
CONTINUOUS
 10
5.218840
 20
1.589720
  0
SEQEND
  8
0
  0
SOLID
  8
0
 62
    15
 10
5.267680
 20
1.578280
 11
5.907880
 21
1.953600
 12
5.312120
 22
1.560240
 13
5.952320
 23
1.935560
  0
POLYLINE
  8
0
  6
CONTINUOUS
 66
     1
 40
0.000000
 41
0.000000
  0
VERTEX
  8
0
  6
CONTINUOUS
 10
5.267680
 20
1.578280
  0
VERTEX
  8
0
  6
CONTINUOUS
 10
5.907880
 20
1.953600
  0
VERTEX
  8
0
  6
CONTINUOUS
 10
5.952320
 20
1.935560
  0
VERTEX
  8
0
  6
CONTINUOUS
 10
5.312120
 20
1.560240
  0
VERTEX
  8
0
  6
CONTINUOUS
 10
5.267680
 20
1.578280
  0
SEQEND
  8
0
  0
SOLID
  8
0
 62
    15
 10
5.312120
 20
1.560240
 11
5.952320
 21
1.935560
 12
5.351720
 22
1.535600
 13
5.991920
 23
1.910920
  0
POLYLINE
  8
0
  6
CONTINUOUS
 66
     1
 40
0.000000
 41
0.000000
  0
VERTEX
  8
0
  6
CONTINUOUS
 10
5.312120
 20
1.560240
  0
VERTEX
  8
0
  6
CONTINUOUS
 10
5.952320
 20
1.935560
  0
VERTEX
  8
0
  6
CONTINUOUS
 10
5.991920
 20
1.910920
  0
VERTEX
  8
0
  6
CONTINUOUS
 10
5.351720
 20
1.535600
  0
VERTEX
  8
0
  6
CONTINUOUS
 10
5.312120
 20
1.560240
  0
SEQEND
  8
0
  0
SOLID
  8
0
 62
    15
 10
5.351720
 20
1.535600
 11
5.991920
 21
1.910920
 12
5.386040
 22
1.504800
 13
6.026240
 23
1.879680
  0
POLYLINE
  8
0
  6
CONTINUOUS
 66
     1
 40
0.000000
 41
0.000000
  0
VERTEX
  8
0
  6
CONTINUOUS
 10
5.351720
 20
1.535600
  0
VERTEX
  8
0
  6
CONTINUOUS
 10
5.991920
 20
1.910920
  0
VERTEX
  8
0
  6
CONTINUOUS
 10
6.026240
 20
1.879680
  0
VERTEX
  8
0
  6
CONTINUOUS
 10
5.386040
 20
1.504800
  0
VERTEX
  8
0
  6
CONTINUOUS
 10
5.351720
 20
1.535600
  0
SEQEND
  8
0
  0
SOLID
  8
0
 62
    15
 10
5.386040
 20
1.504800
 11
6.026240
 21
1.879680
 12
5.415080
 22
1.467840
 13
6.055280
 23
1.842720
  0
POLYLINE
  8
0
  6
CONTINUOUS
 66
     1
 40
0.000000
 41
0.000000
  0
VERTEX
  8
0
  6
CONTINUOUS
 10
5.386040
 20
1.504800
  0
VERTEX
  8
0
  6
CONTINUOUS
 10
6.026240
 20
1.879680
  0
VERTEX
  8
0
  6
CONTINUOUS
 10
6.055280
 20
1.842720
  0
VERTEX
  8
0
  6
CONTINUOUS
 10
5.415080
 20
1.467840
  0
VERTEX
  8
0
  6
CONTINUOUS
 10
5.386040
 20
1.504800
  0
SEQEND
  8
0
  0
SOLID
  8
0
 62
    15
 10
5.415080
 20
1.467840
 11
6.055280
 21
1.842720
 12
5.437960
 22
1.425160
 13
6.078160
 23
1.800480
  0
POLYLINE
  8
0
  6
CONTINUOUS
 66
     1
 40
0.000000
 41
0.000000
  0
VERTEX
  8
0
  6
CONTINUOUS
 10
5.415080
 20
1.467840
  0
VERTEX
  8
0
  6
CONTINUOUS
 10
6.055280
 20
1.842720
  0
VERTEX
  8
0
  6
CONTINUOUS
 10
6.078160
 20
1.800480
  0
VERTEX
  8
0
  6
CONTINUOUS
 10
5.437960
 20
1.425160
  0
VERTEX
  8
0
  6
CONTINUOUS
 10
5.415080
 20
1.467840
  0
SEQEND
  8
0
  0
SOLID
  8
0
 62
    15
 10
5.437960
 20
1.425160
 11
6.078160
 21
1.800480
 12
5.454680
 22
1.377640
 13
6.094880
 23
1.752960
  0
POLYLINE
  8
0
  6
CONTINUOUS
 66
     1
 40
0.000000
 41
0.000000
  0
VERTEX
  8
0
  6
CONTINUOUS
 10
5.437960
 20
1.425160
  0
VERTEX
  8
0
  6
CONTINUOUS
 10
6.078160
 20
1.800480
  0
VERTEX
  8
0
  6
CONTINUOUS
 10
6.094880
 20
1.752960
  0
VERTEX
  8
0
  6
CONTINUOUS
 10
5.454680
 20
1.377640
  0
VERTEX
  8
0
  6
CONTINUOUS
 10
5.437960
 20
1.425160
  0
SEQEND
  8
0
  0
SOLID
  8
0
 62
    15
 10
5.454680
 20
1.377640
 11
6.094880
 21
1.752960
 12
5.470080
 22
1.328800
 13
6.110280
 23
1.704120
  0
POLYLINE
  8
0
  6
CONTINUOUS
 66
     1
 40
0.000000
 41
0.000000
  0
VERTEX
  8
0
  6
CONTINUOUS
 10
5.454680
 20
1.377640
  0
VERTEX
  8
0
  6
CONTINUOUS
 10
6.094880
 20
1.752960
  0
VERTEX
  8
0
  6
CONTINUOUS
 10
6.110280
 20
1.704120
  0
VERTEX
  8
0
  6
CONTINUOUS
 10
5.470080
 20
1.328800
  0
VERTEX
  8
0
  6
CONTINUOUS
 10
5.454680
 20
1.377640
  0
SEQEND
  8
0
  0
SOLID
  8
0
 62
    15
 10
5.470080
 20
1.328800
 11
6.110280
 21
1.704120
 12
5.489880
 22
1.283040
 13
6.130080
 23
1.658360
  0
POLYLINE
  8
0
  6
CONTINUOUS
 66
     1
 40
0.000000
 41
0.000000
  0
VERTEX
  8
0
  6
CONTINUOUS
 10
5.470080
 20
1.328800
  0
VERTEX
  8
0
  6
CONTINUOUS
 10
6.110280
 20
1.704120
  0
VERTEX
  8
0
  6
CONTINUOUS
 10
6.130080
 20
1.658360
  0
VERTEX
  8
0
  6
CONTINUOUS
 10
5.489880
 20
1.283040
  0
VERTEX
  8
0
  6
CONTINUOUS
 10
5.470080
 20
1.328800
  0
SEQEND
  8
0
  0
SOLID
  8
0
 62
    15
 10
5.166480
 20
1.593240
 11
5.806240
 21
1.968560
 12
5.218840
 22
1.589720
 13
5.859040
 23
1.964600
  0
POLYLINE
  8
0
  6
CONTINUOUS
 66
     1
 40
0.000000
 41
0.000000
  0
VERTEX
  8
0
  6
CONTINUOUS
 10
5.166480
 20
1.593240
  0
VERTEX
  8
0
  6
CONTINUOUS
 10
5.806240
 20
1.968560
  0
VERTEX
  8
0
  6
CONTINUOUS
 10
5.859040
 20
1.964600
  0
VERTEX
  8
0
  6
CONTINUOUS
 10
5.218840
 20
1.589720
  0
VERTEX
  8
0
  6
CONTINUOUS
 10
5.166480
 20
1.593240
  0
SEQEND
  8
0
  0
SOLID
  8
0
 62
    15
 10
5.513640
 20
1.241680
 11
6.153400
 21
1.617000
 12
5.540920
 22
1.205600
 13
6.181120
 23
1.580920
  0
POLYLINE
  8
0
  6
CONTINUOUS
 66
     1
 40
0.000000
 41
0.000000
  0
VERTEX
  8
0
  6
CONTINUOUS
 10
5.513640
 20
1.241680
  0
VERTEX
  8
0
  6
CONTINUOUS
 10
6.153400
 20
1.617000
  0
VERTEX
  8
0
  6
CONTINUOUS
 10
6.181120
 20
1.580920
  0
VERTEX
  8
0
  6
CONTINUOUS
 10
5.540920
 20
1.205600
  0
VERTEX
  8
0
  6
CONTINUOUS
 10
5.513640
 20
1.241680
  0
SEQEND
  8
0
  0
SOLID
  8
0
 62
    15
 10
5.540920
 20
1.205600
 11
6.181120
 21
1.580920
 12
5.571720
 22
1.175680
 13
6.211920
 23
1.551000
  0
POLYLINE
  8
0
  6
CONTINUOUS
 66
     1
 40
0.000000
 41
0.000000
  0
VERTEX
  8
0
  6
CONTINUOUS
 10
5.540920
 20
1.205600
  0
VERTEX
  8
0
  6
CONTINUOUS
 10
6.181120
 20
1.580920
  0
VERTEX
  8
0
  6
CONTINUOUS
 10
6.211920
 20
1.551000
  0
VERTEX
  8
0
  6
CONTINUOUS
 10
5.571720
 20
1.175680
  0
VERTEX
  8
0
  6
CONTINUOUS
 10
5.540920
 20
1.205600
  0
SEQEND
  8
0
  0
SOLID
  8
0
 62
    15
 10
5.571720
 20
1.175680
 11
6.211920
 21
1.551000
 12
5.606040
 22
1.153240
 13
6.246240
 23
1.528120
  0
POLYLINE
  8
0
  6
CONTINUOUS
 66
     1
 40
0.000000
 41
0.000000
  0
VERTEX
  8
0
  6
CONTINUOUS
 10
5.571720
 20
1.175680
  0
VERTEX
  8
0
  6
CONTINUOUS
 10
6.211920
 20
1.551000
  0
VERTEX
  8
0
  6
CONTINUOUS
 10
6.246240
 20
1.528120
  0
VERTEX
  8
0
  6
CONTINUOUS
 10
5.606040
 20
1.153240
  0
VERTEX
  8
0
  6
CONTINUOUS
 10
5.571720
 20
1.175680
  0
SEQEND
  8
0
  0
SOLID
  8
0
 62
    15
 10
5.606040
 20
1.153240
 11
6.246240
 21
1.528120
 12
5.643880
 22
1.138720
 13
6.284080
 23
1.514040
  0
POLYLINE
  8
0
  6
CONTINUOUS
 66
     1
 40
0.000000
 41
0.000000
  0
VERTEX
  8
0
  6
CONTINUOUS
 10
5.606040
 20
1.153240
  0
VERTEX
  8
0
  6
CONTINUOUS
 10
6.246240
 20
1.528120
  0
VERTEX
  8
0
  6
CONTINUOUS
 10
6.284080
 20
1.514040
  0
VERTEX
  8
0
  6
CONTINUOUS
 10
5.643880
 20
1.138720
  0
VERTEX
  8
0
  6
CONTINUOUS
 10
5.606040
 20
1.153240
  0
SEQEND
  8
0
  0
SOLID
  8
0
 62
    15
 10
5.643880
 20
1.138720
 11
6.284080
 21
1.514040
 12
5.684360
 22
1.133880
 13
6.324560
 23
1.509200
  0
POLYLINE
  8
0
  6
CONTINUOUS
 66
     1
 40
0.000000
 41
0.000000
  0
VERTEX
  8
0
  6
CONTINUOUS
 10
5.643880
 20
1.138720
  0
VERTEX
  8
0
  6
CONTINUOUS
 10
6.284080
 20
1.514040
  0
VERTEX
  8
0
  6
CONTINUOUS
 10
6.324560
 20
1.509200
  0
VERTEX
  8
0
  6
CONTINUOUS
 10
5.684360
 20
1.133880
  0
VERTEX
  8
0
  6
CONTINUOUS
 10
5.643880
 20
1.138720
  0
SEQEND
  8
0
  0
SOLID
  8
0
 62
    15
 10
5.684360
 20
1.133880
 11
6.324560
 21
1.509200
 12
5.684360
 22
1.028280
 13
6.324560
 23
1.403600
  0
POLYLINE
  8
0
  6
CONTINUOUS
 66
     1
 40
0.000000
 41
0.000000
  0
VERTEX
  8
0
  6
CONTINUOUS
 10
5.684360
 20
1.133880
  0
VERTEX
  8
0
  6
CONTINUOUS
 10
6.324560
 20
1.509200
  0
VERTEX
  8
0
  6
CONTINUOUS
 10
6.324560
 20
1.403600
  0
VERTEX
  8
0
  6
CONTINUOUS
 10
5.684360
 20
1.028280
  0
VERTEX
  8
0
  6
CONTINUOUS
 10
5.684360
 20
1.133880
  0
SEQEND
  8
0
  0
SOLID
  8
0
 62
    15
 10
4.896760
 20
1.841840
 11
5.536960
 21
2.217160
 12
5.163840
 22
1.841840
 13
5.804040
 23
2.217160
  0
POLYLINE
  8
0
  6
CONTINUOUS
 66
     1
 40
0.000000
 41
0.000000
  0
VERTEX
  8
0
  6
CONTINUOUS
 10
4.896760
 20
1.841840
  0
VERTEX
  8
0
  6
CONTINUOUS
 10
5.536960
 20
2.217160
  0
VERTEX
  8
0
  6
CONTINUOUS
 10
5.804040
 20
2.217160
  0
VERTEX
  8
0
  6
CONTINUOUS
 10
5.163840
 20
1.841840
  0
VERTEX
  8
0
  6
CONTINUOUS
 10
4.896760
 20
1.841840
  0
SEQEND
  8
0
  0
SOLID
  8
0
 62
    15
 10
5.163840
 20
1.841840
 11
5.804040
 21
2.217160
 12
5.163840
 22
1.593240
 13
5.804040
 23
1.968560
  0
POLYLINE
  8
0
  6
CONTINUOUS
 66
     1
 40
0.000000
 41
0.000000
  0
VERTEX
  8
0
  6
CONTINUOUS
 10
5.163840
 20
1.841840
  0
VERTEX
  8
0
  6
CONTINUOUS
 10
5.804040
 20
2.217160
  0
VERTEX
  8
0
  6
CONTINUOUS
 10
5.804040
 20
1.968560
  0
VERTEX
  8
0
  6
CONTINUOUS
 10
5.163840
 20
1.593240
  0
VERTEX
  8
0
  6
CONTINUOUS
 10
5.163840
 20
1.841840
  0
SEQEND
  8
0
  0
SOLID
  8
0
 62
    15
 10
5.163840
 20
1.593240
 11
5.804040
 21
1.968560
 12
5.166480
 22
1.593240
 13
5.806240
 23
1.968560
  0
POLYLINE
  8
0
  6
CONTINUOUS
 66
     1
 40
0.000000
 41
0.000000
  0
VERTEX
  8
0
  6
CONTINUOUS
 10
5.163840
 20
1.593240
  0
VERTEX
  8
0
  6
CONTINUOUS
 10
5.804040
 20
1.968560
  0
VERTEX
  8
0
  6
CONTINUOUS
 10
5.806240
 20
1.968560
  0
VERTEX
  8
0
  6
CONTINUOUS
 10
5.166480
 20
1.593240
  0
VERTEX
  8
0
  6
CONTINUOUS
 10
5.163840
 20
1.593240
  0
SEQEND
  8
0
  0
POLYLINE
  8
0
  6
CONTINUOUS
 66
     1
 40
0.000000
 41
0.000000
  0
VERTEX
  8
0
  6
CONTINUOUS
 10
5.166480
 20
1.593240
  0
VERTEX
  8
0
  6
CONTINUOUS
 10
5.218840
 20
1.589720
  0
VERTEX
  8
0
  6
CONTINUOUS
 10
5.267680
 20
1.578280
  0
VERTEX
  8
0
  6
CONTINUOUS
 10
5.312120
 20
1.560240
  0
VERTEX
  8
0
  6
CONTINUOUS
 10
5.351720
 20
1.535600
  0
VERTEX
  8
0
  6
CONTINUOUS
 10
5.386040
 20
1.504800
  0
VERTEX
  8
0
  6
CONTINUOUS
 10
5.415080
 20
1.467840
  0
VERTEX
  8
0
  6
CONTINUOUS
 10
5.437960
 20
1.425160
  0
VERTEX
  8
0
  6
CONTINUOUS
 10
5.454680
 20
1.377640
  0
VERTEX
  8
0
  6
CONTINUOUS
 10
5.470080
 20
1.328800
  0
VERTEX
  8
0
  6
CONTINUOUS
 10
5.489880
 20
1.283040
  0
VERTEX
  8
0
  6
CONTINUOUS
 10
5.513640
 20
1.241680
  0
VERTEX
  8
0
  6
CONTINUOUS
 10
5.540920
 20
1.205600
  0
VERTEX
  8
0
  6
CONTINUOUS
 10
5.571720
 20
1.175680
  0
VERTEX
  8
0
  6
CONTINUOUS
 10
5.606040
 20
1.153240
  0
VERTEX
  8
0
  6
CONTINUOUS
 10
5.643880
 20
1.138720
  0
VERTEX
  8
0
  6
CONTINUOUS
 10
5.684360
 20
1.133880
  0
VERTEX
  8
0
  6
CONTINUOUS
 10
5.684360
 20
1.028280
  0
VERTEX
  8
0
  6
CONTINUOUS
 10
4.896760
 20
1.028280
  0
VERTEX
  8
0
  6
CONTINUOUS
 10
4.896760
 20
1.841840
  0
VERTEX
  8
0
  6
CONTINUOUS
 10
5.163840
 20
1.841840
  0
VERTEX
  8
0
  6
CONTINUOUS
 10
5.163840
 20
1.593240
  0
VERTEX
  8
0
  6
CONTINUOUS
 10
5.166480
 20
1.593240
  0
SEQEND
  8
0
  0
TEXT
  8
0
 10
5.316080
 20
0.807840
 40
0.138111
  1
BA  810
 41
1.000000
  7
SN0
 71
     0
 72
     5
 11
5.905886
 21
0.807840
  0
TEXT
  8
0
 10
5.049440
 20
0.616440
 40
0.138111
  1
13/16" x 13/16"
 41
1.000000
  7
SN0
 71
     0
 72
     5
 11
6.171040
 21
0.616440
  0
ENDSEC
  0
EOF
