  0
SECTION
  2
HEADER
  9
$ACADVER
  1
AC1006
  9
$EXTMIN
 10
1.235080
 20
0.671880
  9
$EXTMAX
 10
7.263520
 20
5.055600
  9
$LTSCALE
 40
0.044000
  9
$PDMODE
 70
    35
  9
$PDSIZE
 40
0.035200
  0
ENDSEC
  0
SECTION
  2
TABLES
  0
TABLE
  2
LTYPE
 70
     9
  0
LTYPE
  2
CONTINUOUS
 70
    64
  3
Solid line
 72
    65
 73
     0
 40
0.000000
  0
LTYPE
  2
DASHED
 70
    64
  3
__ __ __ __ __ __ __ __ __ __ __ __ __ __ __
 72
    65
 73
     2
 40
0.000330
 49
0.000220
 49
-0.000110
  0
LTYPE
  2
HIDDEN
 70
    64
  3
 _ _ _ _ _ _ _ _ _ _ _ _ _ _ _ _ _ _ _ _ _ _
 72
    65
 73
     2
 40
0.000165
 49
0.000110
 49
-0.000055
  0
LTYPE
  2
CENTER
 70
    64
  3
____ _ ____ _ ____ _ ____ _ ____ _ ____ _ ____
 72
    65
 73
     4
 40
0.000880
 49
0.000550
 49
-0.000110
 49
0.000110
 49
-0.000110
  0
LTYPE
  2
PHANTOM
 70
    64
  3
_____ _ _ _____ _ _ _____ _ _ _____ _ _ ____
 72
    65
 73
     6
 40
0.001100
 49
0.000550
 49
-0.000110
 49
0.000110
 49
-0.000110
 49
0.000110
 49
-0.000110
  0
LTYPE
  2
DOT
 70
    64
  3
...............................................
 72
    65
 73
     2
 40
0.000110
 49
0.000000
 49
-0.000110
  0
LTYPE
  2
DASHDOT
 70
    64
  3
__ . __ . __ . __ . __ . __ . __ . __ . __ . __
 72
    65
 73
     4
 40
0.000440
 49
0.000220
 49
-0.000110
 49
0.000000
 49
-0.000110
  0
LTYPE
  2
BORDER
 70
    64
  3
__ __ . __ __ . __ __ . __ __ . __ __ . __ __
 72
    65
 73
     6
 40
0.000770
 49
0.000220
 49
-0.000110
 49
0.000220
 49
-0.000110
 49
0.000000
 49
-0.000110
  0
LTYPE
  2
DIVIDE
 70
    64
  3
__ . . __ . . __ . . __ . . __ . . __ . . __
 72
    65
 73
     6
 40
0.000550
 49
0.000220
 49
-0.000110
 49
0.000000
 49
-0.000110
 49
0.000000
 49
-0.000110
  0
LTYPE
  2
DOTDOT
 70
    64
  3
 . .  . .  . .  . .  . .  . . 
 72
    65
 73
     5
 40
0.000242
 49
-0.000110
 49
0.000000
 49
-0.000110
 49
0.000000
 49
-0.000110
  0
ENDTAB
  0
TABLE
  2
STYLE
 70
     2
  0
STYLE
 70
     0
  2
SN0
 40
0.000000
 41
0.000440
 50
0.000000
 71
     0
 42
0.000000
  3
ROMAND
  0
STYLE
 70
    68
  2
SV0
 40
0.000000
 41
0.000440
 50
0.000000
 71
     0
 42
0.000000
  3
ROMAND
  0
ENDTAB
  0
TABLE
  2
LAYER
 70
     3
  0
LAYER
  2
FOREGROUND
 70
    64
 62
     7
  6
CONTINUOUS
  0
LAYER
  2
BACKGROUND
 70
    65
 62
    -7
  6
CONTINUOUS
  0
LAYER
  2
0
 70
    64
 62
     7
  6
CONTINUOUS
  0
ENDTAB
  0
ENDSEC
  0
SECTION
  2
ENTITIES
  0
POLYLINE
  8
FOREGROUND
  6
CONTINUOUS
 66
     1
 40
0.000000
 41
0.000000
  0
VERTEX
  8
FOREGROUND
  6
CONTINUOUS
 10
0.000000
 20
5.727480
  0
VERTEX
  8
FOREGROUND
  6
CONTINUOUS
 10
8.499920
 20
5.727480
  0
VERTEX
  8
FOREGROUND
  6
CONTINUOUS
 10
8.499920
 20
-5.272520
  0
VERTEX
  8
FOREGROUND
  6
CONTINUOUS
 10
0.000000
 20
-5.272520
  0
VERTEX
  8
FOREGROUND
  6
CONTINUOUS
 10
0.000000
 20
5.727480
  0
SEQEND
  8
0
  0
POLYLINE
  8
FOREGROUND
  6
CONTINUOUS
 66
     1
 40
0.000000
 41
0.000000
  0
VERTEX
  8
FOREGROUND
  6
CONTINUOUS
 10
0.000000
 20
5.727480
  0
VERTEX
  8
FOREGROUND
  6
CONTINUOUS
 10
8.499920
 20
5.727480
  0
VERTEX
  8
FOREGROUND
  6
CONTINUOUS
 10
8.499920
 20
-5.272520
  0
VERTEX
  8
FOREGROUND
  6
CONTINUOUS
 10
0.000000
 20
-5.272520
  0
VERTEX
  8
FOREGROUND
  6
CONTINUOUS
 10
0.000000
 20
5.727480
  0
SEQEND
  8
0
  0
SOLID
  8
0
 62
    15
 10
2.342120
 20
2.252360
 11
2.970440
 21
1.892000
 12
2.399760
 22
2.192960
 13
3.028080
 23
1.832600
  0
POLYLINE
  8
0
  6
CONTINUOUS
 66
     1
 40
0.000000
 41
0.000000
  0
VERTEX
  8
0
  6
CONTINUOUS
 10
2.342120
 20
2.252360
  0
VERTEX
  8
0
  6
CONTINUOUS
 10
2.970440
 20
1.892000
  0
VERTEX
  8
0
  6
CONTINUOUS
 10
3.028080
 20
1.832600
  0
VERTEX
  8
0
  6
CONTINUOUS
 10
2.399760
 20
2.192960
  0
VERTEX
  8
0
  6
CONTINUOUS
 10
2.342120
 20
2.252360
  0
SEQEND
  8
0
  0
SOLID
  8
0
 62
    15
 10
3.265240
 20
4.294840
 11
3.893560
 21
3.934480
 12
3.069000
 22
4.270640
 13
3.697760
 23
3.910280
  0
POLYLINE
  8
0
  6
CONTINUOUS
 66
     1
 40
0.000000
 41
0.000000
  0
VERTEX
  8
0
  6
CONTINUOUS
 10
3.265240
 20
4.294840
  0
VERTEX
  8
0
  6
CONTINUOUS
 10
3.893560
 20
3.934480
  0
VERTEX
  8
0
  6
CONTINUOUS
 10
3.697760
 20
3.910280
  0
VERTEX
  8
0
  6
CONTINUOUS
 10
3.069000
 20
4.270640
  0
VERTEX
  8
0
  6
CONTINUOUS
 10
3.265240
 20
4.294840
  0
SEQEND
  8
0
  0
SOLID
  8
0
 62
    15
 10
3.069000
 20
4.270640
 11
3.697760
 21
3.910280
 12
2.892120
 22
4.224880
 13
3.520880
 23
3.864520
  0
POLYLINE
  8
0
  6
CONTINUOUS
 66
     1
 40
0.000000
 41
0.000000
  0
VERTEX
  8
0
  6
CONTINUOUS
 10
3.069000
 20
4.270640
  0
VERTEX
  8
0
  6
CONTINUOUS
 10
3.697760
 20
3.910280
  0
VERTEX
  8
0
  6
CONTINUOUS
 10
3.520880
 20
3.864520
  0
VERTEX
  8
0
  6
CONTINUOUS
 10
2.892120
 20
4.224880
  0
VERTEX
  8
0
  6
CONTINUOUS
 10
3.069000
 20
4.270640
  0
SEQEND
  8
0
  0
SOLID
  8
0
 62
    15
 10
2.892120
 20
4.224880
 11
3.520880
 21
3.864520
 12
2.734600
 22
4.159760
 13
3.362920
 23
3.799400
  0
POLYLINE
  8
0
  6
CONTINUOUS
 66
     1
 40
0.000000
 41
0.000000
  0
VERTEX
  8
0
  6
CONTINUOUS
 10
2.892120
 20
4.224880
  0
VERTEX
  8
0
  6
CONTINUOUS
 10
3.520880
 20
3.864520
  0
VERTEX
  8
0
  6
CONTINUOUS
 10
3.362920
 20
3.799400
  0
VERTEX
  8
0
  6
CONTINUOUS
 10
2.734600
 20
4.159760
  0
VERTEX
  8
0
  6
CONTINUOUS
 10
2.892120
 20
4.224880
  0
SEQEND
  8
0
  0
SOLID
  8
0
 62
    15
 10
2.734600
 20
4.159760
 11
3.362920
 21
3.799400
 12
2.596440
 22
4.076600
 13
3.224760
 23
3.716240
  0
POLYLINE
  8
0
  6
CONTINUOUS
 66
     1
 40
0.000000
 41
0.000000
  0
VERTEX
  8
0
  6
CONTINUOUS
 10
2.734600
 20
4.159760
  0
VERTEX
  8
0
  6
CONTINUOUS
 10
3.362920
 20
3.799400
  0
VERTEX
  8
0
  6
CONTINUOUS
 10
3.224760
 20
3.716240
  0
VERTEX
  8
0
  6
CONTINUOUS
 10
2.596440
 20
4.076600
  0
VERTEX
  8
0
  6
CONTINUOUS
 10
2.734600
 20
4.159760
  0
SEQEND
  8
0
  0
SOLID
  8
0
 62
    15
 10
2.596440
 20
4.076600
 11
3.224760
 21
3.716240
 12
2.478080
 22
3.977600
 13
3.106840
 23
3.617240
  0
POLYLINE
  8
0
  6
CONTINUOUS
 66
     1
 40
0.000000
 41
0.000000
  0
VERTEX
  8
0
  6
CONTINUOUS
 10
2.596440
 20
4.076600
  0
VERTEX
  8
0
  6
CONTINUOUS
 10
3.224760
 20
3.716240
  0
VERTEX
  8
0
  6
CONTINUOUS
 10
3.106840
 20
3.617240
  0
VERTEX
  8
0
  6
CONTINUOUS
 10
2.478080
 20
3.977600
  0
VERTEX
  8
0
  6
CONTINUOUS
 10
2.596440
 20
4.076600
  0
SEQEND
  8
0
  0
SOLID
  8
0
 62
    15
 10
2.478080
 20
3.977600
 11
3.106840
 21
3.617240
 12
2.379960
 22
3.864520
 13
3.008720
 23
3.504160
  0
POLYLINE
  8
0
  6
CONTINUOUS
 66
     1
 40
0.000000
 41
0.000000
  0
VERTEX
  8
0
  6
CONTINUOUS
 10
2.478080
 20
3.977600
  0
VERTEX
  8
0
  6
CONTINUOUS
 10
3.106840
 20
3.617240
  0
VERTEX
  8
0
  6
CONTINUOUS
 10
3.008720
 20
3.504160
  0
VERTEX
  8
0
  6
CONTINUOUS
 10
2.379960
 20
3.864520
  0
VERTEX
  8
0
  6
CONTINUOUS
 10
2.478080
 20
3.977600
  0
SEQEND
  8
0
  0
SOLID
  8
0
 62
    15
 10
2.379960
 20
3.864520
 11
3.008720
 21
3.504160
 12
2.302960
 22
3.740000
 13
2.931720
 23
3.379640
  0
POLYLINE
  8
0
  6
CONTINUOUS
 66
     1
 40
0.000000
 41
0.000000
  0
VERTEX
  8
0
  6
CONTINUOUS
 10
2.379960
 20
3.864520
  0
VERTEX
  8
0
  6
CONTINUOUS
 10
3.008720
 20
3.504160
  0
VERTEX
  8
0
  6
CONTINUOUS
 10
2.931720
 20
3.379640
  0
VERTEX
  8
0
  6
CONTINUOUS
 10
2.302960
 20
3.740000
  0
VERTEX
  8
0
  6
CONTINUOUS
 10
2.379960
 20
3.864520
  0
SEQEND
  8
0
  0
SOLID
  8
0
 62
    15
 10
2.302960
 20
3.740000
 11
2.931720
 21
3.379640
 12
2.246640
 22
3.604920
 13
2.875400
 23
3.245000
  0
POLYLINE
  8
0
  6
CONTINUOUS
 66
     1
 40
0.000000
 41
0.000000
  0
VERTEX
  8
0
  6
CONTINUOUS
 10
2.302960
 20
3.740000
  0
VERTEX
  8
0
  6
CONTINUOUS
 10
2.931720
 20
3.379640
  0
VERTEX
  8
0
  6
CONTINUOUS
 10
2.875400
 20
3.245000
  0
VERTEX
  8
0
  6
CONTINUOUS
 10
2.246640
 20
3.604920
  0
VERTEX
  8
0
  6
CONTINUOUS
 10
2.302960
 20
3.740000
  0
SEQEND
  8
0
  0
SOLID
  8
0
 62
    15
 10
2.246640
 20
3.604920
 11
2.875400
 21
3.245000
 12
2.211880
 22
3.462360
 13
2.840640
 23
3.102000
  0
POLYLINE
  8
0
  6
CONTINUOUS
 66
     1
 40
0.000000
 41
0.000000
  0
VERTEX
  8
0
  6
CONTINUOUS
 10
2.246640
 20
3.604920
  0
VERTEX
  8
0
  6
CONTINUOUS
 10
2.875400
 20
3.245000
  0
VERTEX
  8
0
  6
CONTINUOUS
 10
2.840640
 20
3.102000
  0
VERTEX
  8
0
  6
CONTINUOUS
 10
2.211880
 20
3.462360
  0
VERTEX
  8
0
  6
CONTINUOUS
 10
2.246640
 20
3.604920
  0
SEQEND
  8
0
  0
SOLID
  8
0
 62
    15
 10
2.211880
 20
3.462360
 11
2.840640
 21
3.102000
 12
2.198680
 22
3.313200
 13
2.827440
 23
2.952840
  0
POLYLINE
  8
0
  6
CONTINUOUS
 66
     1
 40
0.000000
 41
0.000000
  0
VERTEX
  8
0
  6
CONTINUOUS
 10
2.211880
 20
3.462360
  0
VERTEX
  8
0
  6
CONTINUOUS
 10
2.840640
 20
3.102000
  0
VERTEX
  8
0
  6
CONTINUOUS
 10
2.827440
 20
2.952840
  0
VERTEX
  8
0
  6
CONTINUOUS
 10
2.198680
 20
3.313200
  0
VERTEX
  8
0
  6
CONTINUOUS
 10
2.211880
 20
3.462360
  0
SEQEND
  8
0
  0
SOLID
  8
0
 62
    15
 10
2.198680
 20
3.313200
 11
2.827440
 21
2.952840
 12
2.207920
 22
3.160080
 13
2.836240
 23
2.799720
  0
POLYLINE
  8
0
  6
CONTINUOUS
 66
     1
 40
0.000000
 41
0.000000
  0
VERTEX
  8
0
  6
CONTINUOUS
 10
2.198680
 20
3.313200
  0
VERTEX
  8
0
  6
CONTINUOUS
 10
2.827440
 20
2.952840
  0
VERTEX
  8
0
  6
CONTINUOUS
 10
2.836240
 20
2.799720
  0
VERTEX
  8
0
  6
CONTINUOUS
 10
2.207920
 20
3.160080
  0
VERTEX
  8
0
  6
CONTINUOUS
 10
2.198680
 20
3.313200
  0
SEQEND
  8
0
  0
SOLID
  8
0
 62
    15
 10
2.207920
 20
3.160080
 11
2.836240
 21
2.799720
 12
2.239160
 22
3.004320
 13
2.867920
 23
2.643960
  0
POLYLINE
  8
0
  6
CONTINUOUS
 66
     1
 40
0.000000
 41
0.000000
  0
VERTEX
  8
0
  6
CONTINUOUS
 10
2.207920
 20
3.160080
  0
VERTEX
  8
0
  6
CONTINUOUS
 10
2.836240
 20
2.799720
  0
VERTEX
  8
0
  6
CONTINUOUS
 10
2.867920
 20
2.643960
  0
VERTEX
  8
0
  6
CONTINUOUS
 10
2.239160
 20
3.004320
  0
VERTEX
  8
0
  6
CONTINUOUS
 10
2.207920
 20
3.160080
  0
SEQEND
  8
0
  0
SOLID
  8
0
 62
    15
 10
2.239160
 20
3.004320
 11
2.867920
 21
2.643960
 12
2.293280
 22
2.848560
 13
2.922040
 23
2.488200
  0
POLYLINE
  8
0
  6
CONTINUOUS
 66
     1
 40
0.000000
 41
0.000000
  0
VERTEX
  8
0
  6
CONTINUOUS
 10
2.239160
 20
3.004320
  0
VERTEX
  8
0
  6
CONTINUOUS
 10
2.867920
 20
2.643960
  0
VERTEX
  8
0
  6
CONTINUOUS
 10
2.922040
 20
2.488200
  0
VERTEX
  8
0
  6
CONTINUOUS
 10
2.293280
 20
2.848560
  0
VERTEX
  8
0
  6
CONTINUOUS
 10
2.239160
 20
3.004320
  0
SEQEND
  8
0
  0
SOLID
  8
0
 62
    15
 10
2.293280
 20
2.848560
 11
2.922040
 21
2.488200
 12
2.370720
 22
2.694120
 13
2.999480
 23
2.333760
  0
POLYLINE
  8
0
  6
CONTINUOUS
 66
     1
 40
0.000000
 41
0.000000
  0
VERTEX
  8
0
  6
CONTINUOUS
 10
2.293280
 20
2.848560
  0
VERTEX
  8
0
  6
CONTINUOUS
 10
2.922040
 20
2.488200
  0
VERTEX
  8
0
  6
CONTINUOUS
 10
2.999480
 20
2.333760
  0
VERTEX
  8
0
  6
CONTINUOUS
 10
2.370720
 20
2.694120
  0
VERTEX
  8
0
  6
CONTINUOUS
 10
2.293280
 20
2.848560
  0
SEQEND
  8
0
  0
SOLID
  8
0
 62
    15
 10
2.370720
 20
2.694120
 11
2.999480
 21
2.333760
 12
2.471920
 22
2.543640
 13
3.100240
 23
2.183280
  0
POLYLINE
  8
0
  6
CONTINUOUS
 66
     1
 40
0.000000
 41
0.000000
  0
VERTEX
  8
0
  6
CONTINUOUS
 10
2.370720
 20
2.694120
  0
VERTEX
  8
0
  6
CONTINUOUS
 10
2.999480
 20
2.333760
  0
VERTEX
  8
0
  6
CONTINUOUS
 10
3.100240
 20
2.183280
  0
VERTEX
  8
0
  6
CONTINUOUS
 10
2.471920
 20
2.543640
  0
VERTEX
  8
0
  6
CONTINUOUS
 10
2.370720
 20
2.694120
  0
SEQEND
  8
0
  0
SOLID
  8
0
 62
    15
 10
2.471920
 20
2.543640
 11
3.100240
 21
2.183280
 12
2.276560
 22
2.299440
 13
2.905320
 23
1.939080
  0
POLYLINE
  8
0
  6
CONTINUOUS
 66
     1
 40
0.000000
 41
0.000000
  0
VERTEX
  8
0
  6
CONTINUOUS
 10
2.471920
 20
2.543640
  0
VERTEX
  8
0
  6
CONTINUOUS
 10
3.100240
 20
2.183280
  0
VERTEX
  8
0
  6
CONTINUOUS
 10
2.905320
 20
1.939080
  0
VERTEX
  8
0
  6
CONTINUOUS
 10
2.276560
 20
2.299440
  0
VERTEX
  8
0
  6
CONTINUOUS
 10
2.471920
 20
2.543640
  0
SEQEND
  8
0
  0
SOLID
  8
0
 62
    15
 10
2.276560
 20
2.299440
 11
2.905320
 21
1.939080
 12
2.342120
 22
2.252360
 13
2.970440
 23
1.892000
  0
POLYLINE
  8
0
  6
CONTINUOUS
 66
     1
 40
0.000000
 41
0.000000
  0
VERTEX
  8
0
  6
CONTINUOUS
 10
2.276560
 20
2.299440
  0
VERTEX
  8
0
  6
CONTINUOUS
 10
2.905320
 20
1.939080
  0
VERTEX
  8
0
  6
CONTINUOUS
 10
2.970440
 20
1.892000
  0
VERTEX
  8
0
  6
CONTINUOUS
 10
2.342120
 20
2.252360
  0
VERTEX
  8
0
  6
CONTINUOUS
 10
2.276560
 20
2.299440
  0
SEQEND
  8
0
  0
SOLID
  8
0
 62
    15
 10
3.479520
 20
4.295280
 11
4.108280
 21
3.934920
 12
3.265240
 22
4.294840
 13
3.893560
 23
3.934480
  0
POLYLINE
  8
0
  6
CONTINUOUS
 66
     1
 40
0.000000
 41
0.000000
  0
VERTEX
  8
0
  6
CONTINUOUS
 10
3.479520
 20
4.295280
  0
VERTEX
  8
0
  6
CONTINUOUS
 10
4.108280
 20
3.934920
  0
VERTEX
  8
0
  6
CONTINUOUS
 10
3.893560
 20
3.934480
  0
VERTEX
  8
0
  6
CONTINUOUS
 10
3.265240
 20
4.294840
  0
VERTEX
  8
0
  6
CONTINUOUS
 10
3.479520
 20
4.295280
  0
SEQEND
  8
0
  0
SOLID
  8
0
 62
    15
 10
2.399760
 20
2.192960
 11
3.028080
 21
1.832600
 12
2.448600
 22
2.123880
 13
3.076920
 23
1.763520
  0
POLYLINE
  8
0
  6
CONTINUOUS
 66
     1
 40
0.000000
 41
0.000000
  0
VERTEX
  8
0
  6
CONTINUOUS
 10
2.399760
 20
2.192960
  0
VERTEX
  8
0
  6
CONTINUOUS
 10
3.028080
 20
1.832600
  0
VERTEX
  8
0
  6
CONTINUOUS
 10
3.076920
 20
1.763520
  0
VERTEX
  8
0
  6
CONTINUOUS
 10
2.448600
 20
2.123880
  0
VERTEX
  8
0
  6
CONTINUOUS
 10
2.399760
 20
2.192960
  0
SEQEND
  8
0
  0
SOLID
  8
0
 62
    15
 10
2.448600
 20
2.123880
 11
3.076920
 21
1.763520
 12
2.487320
 22
2.047320
 13
3.116080
 23
1.686960
  0
POLYLINE
  8
0
  6
CONTINUOUS
 66
     1
 40
0.000000
 41
0.000000
  0
VERTEX
  8
0
  6
CONTINUOUS
 10
2.448600
 20
2.123880
  0
VERTEX
  8
0
  6
CONTINUOUS
 10
3.076920
 20
1.763520
  0
VERTEX
  8
0
  6
CONTINUOUS
 10
3.116080
 20
1.686960
  0
VERTEX
  8
0
  6
CONTINUOUS
 10
2.487320
 20
2.047320
  0
VERTEX
  8
0
  6
CONTINUOUS
 10
2.448600
 20
2.123880
  0
SEQEND
  8
0
  0
SOLID
  8
0
 62
    15
 10
2.487320
 20
2.047320
 11
3.116080
 21
1.686960
 12
2.515480
 22
1.965040
 13
3.144240
 23
1.604680
  0
POLYLINE
  8
0
  6
CONTINUOUS
 66
     1
 40
0.000000
 41
0.000000
  0
VERTEX
  8
0
  6
CONTINUOUS
 10
2.487320
 20
2.047320
  0
VERTEX
  8
0
  6
CONTINUOUS
 10
3.116080
 20
1.686960
  0
VERTEX
  8
0
  6
CONTINUOUS
 10
3.144240
 20
1.604680
  0
VERTEX
  8
0
  6
CONTINUOUS
 10
2.515480
 20
1.965040
  0
VERTEX
  8
0
  6
CONTINUOUS
 10
2.487320
 20
2.047320
  0
SEQEND
  8
0
  0
SOLID
  8
0
 62
    15
 10
2.515480
 20
1.965040
 11
3.144240
 21
1.604680
 12
2.531760
 22
1.878800
 13
3.160520
 23
1.518440
  0
POLYLINE
  8
0
  6
CONTINUOUS
 66
     1
 40
0.000000
 41
0.000000
  0
VERTEX
  8
0
  6
CONTINUOUS
 10
2.515480
 20
1.965040
  0
VERTEX
  8
0
  6
CONTINUOUS
 10
3.144240
 20
1.604680
  0
VERTEX
  8
0
  6
CONTINUOUS
 10
3.160520
 20
1.518440
  0
VERTEX
  8
0
  6
CONTINUOUS
 10
2.531760
 20
1.878800
  0
VERTEX
  8
0
  6
CONTINUOUS
 10
2.515480
 20
1.965040
  0
SEQEND
  8
0
  0
SOLID
  8
0
 62
    15
 10
2.531760
 20
1.878800
 11
3.160520
 21
1.518440
 12
2.535280
 22
1.790800
 13
3.164040
 23
1.430880
  0
POLYLINE
  8
0
  6
CONTINUOUS
 66
     1
 40
0.000000
 41
0.000000
  0
VERTEX
  8
0
  6
CONTINUOUS
 10
2.531760
 20
1.878800
  0
VERTEX
  8
0
  6
CONTINUOUS
 10
3.160520
 20
1.518440
  0
VERTEX
  8
0
  6
CONTINUOUS
 10
3.164040
 20
1.430880
  0
VERTEX
  8
0
  6
CONTINUOUS
 10
2.535280
 20
1.790800
  0
VERTEX
  8
0
  6
CONTINUOUS
 10
2.531760
 20
1.878800
  0
SEQEND
  8
0
  0
SOLID
  8
0
 62
    15
 10
2.535280
 20
1.790800
 11
3.164040
 21
1.430880
 12
2.524720
 22
1.703680
 13
3.153480
 23
1.343320
  0
POLYLINE
  8
0
  6
CONTINUOUS
 66
     1
 40
0.000000
 41
0.000000
  0
VERTEX
  8
0
  6
CONTINUOUS
 10
2.535280
 20
1.790800
  0
VERTEX
  8
0
  6
CONTINUOUS
 10
3.164040
 20
1.430880
  0
VERTEX
  8
0
  6
CONTINUOUS
 10
3.153480
 20
1.343320
  0
VERTEX
  8
0
  6
CONTINUOUS
 10
2.524720
 20
1.703680
  0
VERTEX
  8
0
  6
CONTINUOUS
 10
2.535280
 20
1.790800
  0
SEQEND
  8
0
  0
SOLID
  8
0
 62
    15
 10
2.524720
 20
1.703680
 11
3.153480
 21
1.343320
 12
2.499200
 22
1.618320
 13
3.127960
 23
1.257960
  0
POLYLINE
  8
0
  6
CONTINUOUS
 66
     1
 40
0.000000
 41
0.000000
  0
VERTEX
  8
0
  6
CONTINUOUS
 10
2.524720
 20
1.703680
  0
VERTEX
  8
0
  6
CONTINUOUS
 10
3.153480
 20
1.343320
  0
VERTEX
  8
0
  6
CONTINUOUS
 10
3.127960
 20
1.257960
  0
VERTEX
  8
0
  6
CONTINUOUS
 10
2.499200
 20
1.618320
  0
VERTEX
  8
0
  6
CONTINUOUS
 10
2.524720
 20
1.703680
  0
SEQEND
  8
0
  0
SOLID
  8
0
 62
    15
 10
2.499200
 20
1.618320
 11
3.127960
 21
1.257960
 12
2.457840
 22
1.537800
 13
3.086160
 23
1.177440
  0
POLYLINE
  8
0
  6
CONTINUOUS
 66
     1
 40
0.000000
 41
0.000000
  0
VERTEX
  8
0
  6
CONTINUOUS
 10
2.499200
 20
1.618320
  0
VERTEX
  8
0
  6
CONTINUOUS
 10
3.127960
 20
1.257960
  0
VERTEX
  8
0
  6
CONTINUOUS
 10
3.086160
 20
1.177440
  0
VERTEX
  8
0
  6
CONTINUOUS
 10
2.457840
 20
1.537800
  0
VERTEX
  8
0
  6
CONTINUOUS
 10
2.499200
 20
1.618320
  0
SEQEND
  8
0
  0
SOLID
  8
0
 62
    15
 10
2.457840
 20
1.537800
 11
3.086160
 21
1.177440
 12
2.399320
 22
1.463440
 13
3.028080
 23
1.103080
  0
POLYLINE
  8
0
  6
CONTINUOUS
 66
     1
 40
0.000000
 41
0.000000
  0
VERTEX
  8
0
  6
CONTINUOUS
 10
2.457840
 20
1.537800
  0
VERTEX
  8
0
  6
CONTINUOUS
 10
3.086160
 20
1.177440
  0
VERTEX
  8
0
  6
CONTINUOUS
 10
3.028080
 20
1.103080
  0
VERTEX
  8
0
  6
CONTINUOUS
 10
2.399320
 20
1.463440
  0
VERTEX
  8
0
  6
CONTINUOUS
 10
2.457840
 20
1.537800
  0
SEQEND
  8
0
  0
SOLID
  8
0
 62
    15
 10
2.399320
 20
1.463440
 11
3.028080
 21
1.103080
 12
2.322760
 22
1.397440
 13
2.951520
 23
1.037080
  0
POLYLINE
  8
0
  6
CONTINUOUS
 66
     1
 40
0.000000
 41
0.000000
  0
VERTEX
  8
0
  6
CONTINUOUS
 10
2.399320
 20
1.463440
  0
VERTEX
  8
0
  6
CONTINUOUS
 10
3.028080
 20
1.103080
  0
VERTEX
  8
0
  6
CONTINUOUS
 10
2.951520
 20
1.037080
  0
VERTEX
  8
0
  6
CONTINUOUS
 10
2.322760
 20
1.397440
  0
VERTEX
  8
0
  6
CONTINUOUS
 10
2.399320
 20
1.463440
  0
SEQEND
  8
0
  0
SOLID
  8
0
 62
    15
 10
2.322760
 20
1.397440
 11
2.951520
 21
1.037080
 12
2.227280
 22
1.342000
 13
2.856040
 23
0.981640
  0
POLYLINE
  8
0
  6
CONTINUOUS
 66
     1
 40
0.000000
 41
0.000000
  0
VERTEX
  8
0
  6
CONTINUOUS
 10
2.322760
 20
1.397440
  0
VERTEX
  8
0
  6
CONTINUOUS
 10
2.951520
 20
1.037080
  0
VERTEX
  8
0
  6
CONTINUOUS
 10
2.856040
 20
0.981640
  0
VERTEX
  8
0
  6
CONTINUOUS
 10
2.227280
 20
1.342000
  0
VERTEX
  8
0
  6
CONTINUOUS
 10
2.322760
 20
1.397440
  0
SEQEND
  8
0
  0
SOLID
  8
0
 62
    15
 10
2.227280
 20
1.342000
 11
2.856040
 21
0.981640
 12
2.111560
 22
1.299320
 13
2.740320
 23
0.938960
  0
POLYLINE
  8
0
  6
CONTINUOUS
 66
     1
 40
0.000000
 41
0.000000
  0
VERTEX
  8
0
  6
CONTINUOUS
 10
2.227280
 20
1.342000
  0
VERTEX
  8
0
  6
CONTINUOUS
 10
2.856040
 20
0.981640
  0
VERTEX
  8
0
  6
CONTINUOUS
 10
2.740320
 20
0.938960
  0
VERTEX
  8
0
  6
CONTINUOUS
 10
2.111560
 20
1.299320
  0
VERTEX
  8
0
  6
CONTINUOUS
 10
2.227280
 20
1.342000
  0
SEQEND
  8
0
  0
SOLID
  8
0
 62
    15
 10
2.111560
 20
1.299320
 11
2.740320
 21
0.938960
 12
1.975160
 22
1.270720
 13
2.603480
 23
0.910360
  0
POLYLINE
  8
0
  6
CONTINUOUS
 66
     1
 40
0.000000
 41
0.000000
  0
VERTEX
  8
0
  6
CONTINUOUS
 10
2.111560
 20
1.299320
  0
VERTEX
  8
0
  6
CONTINUOUS
 10
2.740320
 20
0.938960
  0
VERTEX
  8
0
  6
CONTINUOUS
 10
2.603480
 20
0.910360
  0
VERTEX
  8
0
  6
CONTINUOUS
 10
1.975160
 20
1.270720
  0
VERTEX
  8
0
  6
CONTINUOUS
 10
2.111560
 20
1.299320
  0
SEQEND
  8
0
  0
SOLID
  8
0
 62
    15
 10
1.975160
 20
1.270720
 11
2.603480
 21
0.910360
 12
1.816320
 22
1.258840
 13
2.445080
 23
0.898480
  0
POLYLINE
  8
0
  6
CONTINUOUS
 66
     1
 40
0.000000
 41
0.000000
  0
VERTEX
  8
0
  6
CONTINUOUS
 10
1.975160
 20
1.270720
  0
VERTEX
  8
0
  6
CONTINUOUS
 10
2.603480
 20
0.910360
  0
VERTEX
  8
0
  6
CONTINUOUS
 10
2.445080
 20
0.898480
  0
VERTEX
  8
0
  6
CONTINUOUS
 10
1.816320
 20
1.258840
  0
VERTEX
  8
0
  6
CONTINUOUS
 10
1.975160
 20
1.270720
  0
SEQEND
  8
0
  0
SOLID
  8
0
 62
    15
 10
1.816320
 20
1.258840
 11
2.445080
 21
0.898480
 12
1.805760
 22
1.126840
 13
2.434520
 23
0.766480
  0
POLYLINE
  8
0
  6
CONTINUOUS
 66
     1
 40
0.000000
 41
0.000000
  0
VERTEX
  8
0
  6
CONTINUOUS
 10
1.816320
 20
1.258840
  0
VERTEX
  8
0
  6
CONTINUOUS
 10
2.445080
 20
0.898480
  0
VERTEX
  8
0
  6
CONTINUOUS
 10
2.434520
 20
0.766480
  0
VERTEX
  8
0
  6
CONTINUOUS
 10
1.805760
 20
1.126840
  0
VERTEX
  8
0
  6
CONTINUOUS
 10
1.816320
 20
1.258840
  0
SEQEND
  8
0
  0
SOLID
  8
0
 62
    15
 10
1.805760
 20
1.126840
 11
2.434520
 21
0.766480
 12
1.235960
 22
1.126840
 13
1.864280
 23
0.766480
  0
POLYLINE
  8
0
  6
CONTINUOUS
 66
     1
 40
0.000000
 41
0.000000
  0
VERTEX
  8
0
  6
CONTINUOUS
 10
1.805760
 20
1.126840
  0
VERTEX
  8
0
  6
CONTINUOUS
 10
2.434520
 20
0.766480
  0
VERTEX
  8
0
  6
CONTINUOUS
 10
1.864280
 20
0.766480
  0
VERTEX
  8
0
  6
CONTINUOUS
 10
1.235960
 20
1.126840
  0
VERTEX
  8
0
  6
CONTINUOUS
 10
1.805760
 20
1.126840
  0
SEQEND
  8
0
  0
SOLID
  8
0
 62
    15
 10
3.480840
 20
5.054720
 11
4.109160
 21
4.694800
 12
3.480840
 22
4.297040
 13
4.109160
 23
3.936680
  0
POLYLINE
  8
0
  6
CONTINUOUS
 66
     1
 40
0.000000
 41
0.000000
  0
VERTEX
  8
0
  6
CONTINUOUS
 10
3.480840
 20
5.054720
  0
VERTEX
  8
0
  6
CONTINUOUS
 10
4.109160
 20
4.694800
  0
VERTEX
  8
0
  6
CONTINUOUS
 10
4.109160
 20
3.936680
  0
VERTEX
  8
0
  6
CONTINUOUS
 10
3.480840
 20
4.297040
  0
VERTEX
  8
0
  6
CONTINUOUS
 10
3.480840
 20
5.054720
  0
SEQEND
  8
0
  0
SOLID
  8
0
 62
    15
 10
3.480840
 20
4.297040
 11
4.109160
 21
3.936680
 12
3.479520
 22
4.295280
 13
4.108280
 23
3.934920
  0
POLYLINE
  8
0
  6
CONTINUOUS
 66
     1
 40
0.000000
 41
0.000000
  0
VERTEX
  8
0
  6
CONTINUOUS
 10
3.480840
 20
4.297040
  0
VERTEX
  8
0
  6
CONTINUOUS
 10
4.109160
 20
3.936680
  0
VERTEX
  8
0
  6
CONTINUOUS
 10
4.108280
 20
3.934920
  0
VERTEX
  8
0
  6
CONTINUOUS
 10
3.479520
 20
4.295280
  0
VERTEX
  8
0
  6
CONTINUOUS
 10
3.480840
 20
4.297040
  0
SEQEND
  8
0
  0
POLYLINE
  8
0
  6
CONTINUOUS
 66
     1
 40
0.000000
 41
0.000000
  0
VERTEX
  8
0
  6
CONTINUOUS
 10
3.479520
 20
4.295280
  0
VERTEX
  8
0
  6
CONTINUOUS
 10
3.265240
 20
4.294840
  0
VERTEX
  8
0
  6
CONTINUOUS
 10
3.069000
 20
4.270640
  0
VERTEX
  8
0
  6
CONTINUOUS
 10
2.892120
 20
4.224880
  0
VERTEX
  8
0
  6
CONTINUOUS
 10
2.734600
 20
4.159760
  0
VERTEX
  8
0
  6
CONTINUOUS
 10
2.596440
 20
4.076600
  0
VERTEX
  8
0
  6
CONTINUOUS
 10
2.478080
 20
3.977600
  0
VERTEX
  8
0
  6
CONTINUOUS
 10
2.379960
 20
3.864520
  0
VERTEX
  8
0
  6
CONTINUOUS
 10
2.302960
 20
3.740000
  0
VERTEX
  8
0
  6
CONTINUOUS
 10
2.246640
 20
3.604920
  0
VERTEX
  8
0
  6
CONTINUOUS
 10
2.211880
 20
3.462360
  0
VERTEX
  8
0
  6
CONTINUOUS
 10
2.198680
 20
3.313200
  0
VERTEX
  8
0
  6
CONTINUOUS
 10
2.207920
 20
3.160080
  0
VERTEX
  8
0
  6
CONTINUOUS
 10
2.239160
 20
3.004320
  0
VERTEX
  8
0
  6
CONTINUOUS
 10
2.293280
 20
2.848560
  0
VERTEX
  8
0
  6
CONTINUOUS
 10
2.370720
 20
2.694120
  0
VERTEX
  8
0
  6
CONTINUOUS
 10
2.471920
 20
2.543640
  0
VERTEX
  8
0
  6
CONTINUOUS
 10
2.276560
 20
2.299440
  0
VERTEX
  8
0
  6
CONTINUOUS
 10
2.342120
 20
2.252360
  0
VERTEX
  8
0
  6
CONTINUOUS
 10
2.399760
 20
2.192960
  0
VERTEX
  8
0
  6
CONTINUOUS
 10
2.448600
 20
2.123880
  0
VERTEX
  8
0
  6
CONTINUOUS
 10
2.487320
 20
2.047320
  0
VERTEX
  8
0
  6
CONTINUOUS
 10
2.515480
 20
1.965040
  0
VERTEX
  8
0
  6
CONTINUOUS
 10
2.531760
 20
1.878800
  0
VERTEX
  8
0
  6
CONTINUOUS
 10
2.535280
 20
1.790800
  0
VERTEX
  8
0
  6
CONTINUOUS
 10
2.524720
 20
1.703680
  0
VERTEX
  8
0
  6
CONTINUOUS
 10
2.499200
 20
1.618320
  0
VERTEX
  8
0
  6
CONTINUOUS
 10
2.457840
 20
1.537800
  0
VERTEX
  8
0
  6
CONTINUOUS
 10
2.399320
 20
1.463440
  0
VERTEX
  8
0
  6
CONTINUOUS
 10
2.322760
 20
1.397440
  0
VERTEX
  8
0
  6
CONTINUOUS
 10
2.227280
 20
1.342000
  0
VERTEX
  8
0
  6
CONTINUOUS
 10
2.111560
 20
1.299320
  0
VERTEX
  8
0
  6
CONTINUOUS
 10
1.975160
 20
1.270720
  0
VERTEX
  8
0
  6
CONTINUOUS
 10
1.816320
 20
1.258840
  0
VERTEX
  8
0
  6
CONTINUOUS
 10
1.805760
 20
1.126840
  0
VERTEX
  8
0
  6
CONTINUOUS
 10
1.235960
 20
1.126840
  0
VERTEX
  8
0
  6
CONTINUOUS
 10
1.235960
 20
3.616800
  0
VERTEX
  8
0
  6
CONTINUOUS
 10
3.366440
 20
5.054720
  0
VERTEX
  8
0
  6
CONTINUOUS
 10
3.480840
 20
5.054720
  0
VERTEX
  8
0
  6
CONTINUOUS
 10
3.480840
 20
4.297040
  0
VERTEX
  8
0
  6
CONTINUOUS
 10
3.479520
 20
4.295280
  0
SEQEND
  8
0
  0
TEXT
  8
0
 10
3.737360
 20
1.006720
 40
0.138157
  1
BA  809
 41
1.000000
  7
SN0
 71
     0
 72
     5
 11
4.327243
 21
1.006720
  0
TEXT
  8
0
 10
3.507680
 20
0.814880
 40
0.138157
  1
2-1/4" x 4-1/2"
 41
1.000000
  7
SN0
 71
     0
 72
     5
 11
4.555423
 21
0.814880
  0
POLYLINE
  8
0
  6
CONTINUOUS
 66
     1
 40
0.014080
 41
0.014080
  0
VERTEX
  8
0
  6
CONTINUOUS
 10
7.255160
 20
3.847360
  0
VERTEX
  8
0
  6
CONTINUOUS
 10
7.199720
 20
3.849560
  0
VERTEX
  8
0
  6
CONTINUOUS
 10
7.145600
 20
3.850000
  0
VERTEX
  8
0
  6
CONTINUOUS
 10
7.040880
 20
3.846920
  0
VERTEX
  8
0
  6
CONTINUOUS
 10
6.989840
 20
3.842960
  0
VERTEX
  8
0
  6
CONTINUOUS
 10
6.892160
 20
3.831080
  0
VERTEX
  8
0
  6
CONTINUOUS
 10
6.798880
 20
3.813480
  0
VERTEX
  8
0
  6
CONTINUOUS
 10
6.710440
 20
3.790600
  0
VERTEX
  8
0
  6
CONTINUOUS
 10
6.626400
 20
3.762440
  0
VERTEX
  8
0
  6
CONTINUOUS
 10
6.547640
 20
3.729880
  0
VERTEX
  8
0
  6
CONTINUOUS
 10
6.473720
 20
3.692480
  0
VERTEX
  8
0
  6
CONTINUOUS
 10
6.404640
 20
3.651120
  0
VERTEX
  8
0
  6
CONTINUOUS
 10
6.340400
 20
3.605360
  0
VERTEX
  8
0
  6
CONTINUOUS
 10
6.281440
 20
3.555640
  0
VERTEX
  8
0
  6
CONTINUOUS
 10
6.227320
 20
3.502840
  0
VERTEX
  8
0
  6
CONTINUOUS
 10
6.178480
 20
3.446080
  0
VERTEX
  8
0
  6
CONTINUOUS
 10
6.134480
 20
3.386680
  0
VERTEX
  8
0
  6
CONTINUOUS
 10
6.096200
 20
3.324200
  0
VERTEX
  8
0
  6
CONTINUOUS
 10
6.062760
 20
3.259520
  0
VERTEX
  8
0
  6
CONTINUOUS
 10
6.047800
 20
3.226080
  0
VERTEX
  8
0
  6
CONTINUOUS
 10
6.022280
 20
3.157440
  0
VERTEX
  8
0
  6
CONTINUOUS
 10
6.002480
 20
3.087040
  0
VERTEX
  8
0
  6
CONTINUOUS
 10
5.994120
 20
3.050960
  0
VERTEX
  8
0
  6
CONTINUOUS
 10
5.982240
 20
2.977920
  0
VERTEX
  8
0
  6
CONTINUOUS
 10
5.975640
 20
2.903120
  0
VERTEX
  8
0
  6
CONTINUOUS
 10
5.974760
 20
2.827440
  0
VERTEX
  8
0
  6
CONTINUOUS
 10
5.976080
 20
2.789160
  0
VERTEX
  8
0
  6
CONTINUOUS
 10
5.983560
 20
2.712160
  0
VERTEX
  8
0
  6
CONTINUOUS
 10
5.996320
 20
2.634720
  0
VERTEX
  8
0
  6
CONTINUOUS
 10
6.014800
 20
2.556840
  0
VERTEX
  8
0
  6
CONTINUOUS
 10
6.026240
 20
2.517680
  0
VERTEX
  8
0
  6
CONTINUOUS
 10
6.053520
 20
2.439800
  0
VERTEX
  8
0
  6
CONTINUOUS
 10
6.086520
 20
2.361920
  0
VERTEX
  8
0
  6
CONTINUOUS
 10
6.125240
 20
2.284920
  0
VERTEX
  8
0
  6
CONTINUOUS
 10
6.169680
 20
2.208360
  0
VERTEX
  8
0
  6
CONTINUOUS
 10
6.220280
 20
2.133120
  0
VERTEX
  8
0
  6
CONTINUOUS
 10
6.247560
 20
2.095720
  0
VERTEX
  8
0
  6
CONTINUOUS
 10
6.052200
 20
1.851960
  0
VERTEX
  8
0
  6
CONTINUOUS
 10
6.085640
 20
1.829960
  0
VERTEX
  8
0
  6
CONTINUOUS
 10
6.117760
 20
1.804440
  0
VERTEX
  8
0
  6
CONTINUOUS
 10
6.161760
 20
1.761320
  0
VERTEX
  8
0
  6
CONTINUOUS
 10
6.200920
 20
1.712040
  0
VERTEX
  8
0
  6
CONTINUOUS
 10
6.234800
 20
1.657920
  0
VERTEX
  8
0
  6
CONTINUOUS
 10
6.263400
 20
1.599840
  0
VERTEX
  8
0
  6
CONTINUOUS
 10
6.285400
 20
1.538240
  0
VERTEX
  8
0
  6
CONTINUOUS
 10
6.296840
 20
1.496000
  0
VERTEX
  8
0
  6
CONTINUOUS
 10
6.307840
 20
1.430880
  0
VERTEX
  8
0
  6
CONTINUOUS
 10
6.310920
 20
1.387320
  0
VERTEX
  8
0
  6
CONTINUOUS
 10
6.310920
 20
1.343320
  0
VERTEX
  8
0
  6
CONTINUOUS
 10
6.307840
 20
1.299320
  0
VERTEX
  8
0
  6
CONTINUOUS
 10
6.300800
 20
1.255760
  0
VERTEX
  8
0
  6
CONTINUOUS
 10
6.289800
 20
1.212640
  0
VERTEX
  8
0
  6
CONTINUOUS
 10
6.275280
 20
1.170400
  0
VERTEX
  8
0
  6
CONTINUOUS
 10
6.256360
 20
1.129480
  0
VERTEX
  8
0
  6
CONTINUOUS
 10
6.220720
 20
1.070520
  0
VERTEX
  8
0
  6
CONTINUOUS
 10
6.191240
 20
1.033560
  0
VERTEX
  8
0
  6
CONTINUOUS
 10
6.157800
 20
0.998360
  0
VERTEX
  8
0
  6
CONTINUOUS
 10
6.139320
 20
0.981200
  0
VERTEX
  8
0
  6
CONTINUOUS
 10
6.098400
 20
0.949520
  0
VERTEX
  8
0
  6
CONTINUOUS
 10
6.053080
 20
0.920480
  0
VERTEX
  8
0
  6
CONTINUOUS
 10
6.002920
 20
0.894080
  0
VERTEX
  8
0
  6
CONTINUOUS
 10
5.947920
 20
0.871200
  0
VERTEX
  8
0
  6
CONTINUOUS
 10
5.918440
 20
0.860640
  0
VERTEX
  8
0
  6
CONTINUOUS
 10
5.855080
 20
0.842600
  0
VERTEX
  8
0
  6
CONTINUOUS
 10
5.786880
 20
0.828520
  0
VERTEX
  8
0
  6
CONTINUOUS
 10
5.750800
 20
0.822800
  0
VERTEX
  8
0
  6
CONTINUOUS
 10
5.674240
 20
0.814880
  0
VERTEX
  8
0
  6
CONTINUOUS
 10
5.633760
 20
0.812240
  0
VERTEX
  8
0
  6
CONTINUOUS
 10
5.591960
 20
0.810920
  0
VERTEX
  8
0
  6
CONTINUOUS
 10
5.581400
 20
0.679360
  0
VERTEX
  8
0
  6
CONTINUOUS
 10
5.011600
 20
0.679360
  0
VERTEX
  8
0
  6
CONTINUOUS
 10
5.011600
 20
3.169320
  0
VERTEX
  8
0
  6
CONTINUOUS
 10
7.142080
 20
4.607240
  0
VERTEX
  8
0
  6
CONTINUOUS
 10
7.256480
 20
4.607240
  0
VERTEX
  8
0
  6
CONTINUOUS
 10
7.256480
 20
3.849120
  0
VERTEX
  8
0
  6
CONTINUOUS
 10
7.255160
 20
3.847360
  0
SEQEND
  8
0
  0
ENDSEC
  0
EOF
