  0
SECTION
  2
HEADER
  9
$ACADVER
  1
AC1006
  9
$EXTMIN
 10
2.314400
 20
0.466840
  9
$EXTMAX
 10
7.154840
 20
2.667720
  9
$LTSCALE
 40
0.044000
  9
$PDMODE
 70
    35
  9
$PDSIZE
 40
0.035200
  0
ENDSEC
  0
SECTION
  2
TABLES
  0
TABLE
  2
LTYPE
 70
     9
  0
LTYPE
  2
CONTINUOUS
 70
    64
  3
Solid line
 72
    65
 73
     0
 40
0.000000
  0
LTYPE
  2
DASHED
 70
    64
  3
__ __ __ __ __ __ __ __ __ __ __ __ __ __ __
 72
    65
 73
     2
 40
0.000330
 49
0.000220
 49
-0.000110
  0
LTYPE
  2
HIDDEN
 70
    64
  3
 _ _ _ _ _ _ _ _ _ _ _ _ _ _ _ _ _ _ _ _ _ _
 72
    65
 73
     2
 40
0.000165
 49
0.000110
 49
-0.000055
  0
LTYPE
  2
CENTER
 70
    64
  3
____ _ ____ _ ____ _ ____ _ ____ _ ____ _ ____
 72
    65
 73
     4
 40
0.000880
 49
0.000550
 49
-0.000110
 49
0.000110
 49
-0.000110
  0
LTYPE
  2
PHANTOM
 70
    64
  3
_____ _ _ _____ _ _ _____ _ _ _____ _ _ ____
 72
    65
 73
     6
 40
0.001100
 49
0.000550
 49
-0.000110
 49
0.000110
 49
-0.000110
 49
0.000110
 49
-0.000110
  0
LTYPE
  2
DOT
 70
    64
  3
...............................................
 72
    65
 73
     2
 40
0.000110
 49
0.000000
 49
-0.000110
  0
LTYPE
  2
DASHDOT
 70
    64
  3
__ . __ . __ . __ . __ . __ . __ . __ . __ . __
 72
    65
 73
     4
 40
0.000440
 49
0.000220
 49
-0.000110
 49
0.000000
 49
-0.000110
  0
LTYPE
  2
BORDER
 70
    64
  3
__ __ . __ __ . __ __ . __ __ . __ __ . __ __
 72
    65
 73
     6
 40
0.000770
 49
0.000220
 49
-0.000110
 49
0.000220
 49
-0.000110
 49
0.000000
 49
-0.000110
  0
LTYPE
  2
DIVIDE
 70
    64
  3
__ . . __ . . __ . . __ . . __ . . __ . . __
 72
    65
 73
     6
 40
0.000550
 49
0.000220
 49
-0.000110
 49
0.000000
 49
-0.000110
 49
0.000000
 49
-0.000110
  0
LTYPE
  2
DOTDOT
 70
    64
  3
 . .  . .  . .  . .  . .  . . 
 72
    65
 73
     5
 40
0.000242
 49
-0.000110
 49
0.000000
 49
-0.000110
 49
0.000000
 49
-0.000110
  0
ENDTAB
  0
TABLE
  2
STYLE
 70
     2
  0
STYLE
 70
     0
  2
SN0
 40
0.000000
 41
0.000440
 50
0.000000
 71
     0
 42
0.000000
  3
ROMAND
  0
STYLE
 70
    68
  2
SV0
 40
0.000000
 41
0.000440
 50
0.000000
 71
     0
 42
0.000000
  3
ROMAND
  0
ENDTAB
  0
TABLE
  2
LAYER
 70
     3
  0
LAYER
  2
FOREGROUND
 70
    64
 62
     7
  6
CONTINUOUS
  0
LAYER
  2
BACKGROUND
 70
    65
 62
    -7
  6
CONTINUOUS
  0
LAYER
  2
0
 70
    64
 62
     7
  6
CONTINUOUS
  0
ENDTAB
  0
ENDSEC
  0
SECTION
  2
ENTITIES
  0
POLYLINE
  8
FOREGROUND
  6
CONTINUOUS
 66
     1
 40
0.000000
 41
0.000000
  0
VERTEX
  8
FOREGROUND
  6
CONTINUOUS
 10
0.000000
 20
3.134560
  0
VERTEX
  8
FOREGROUND
  6
CONTINUOUS
 10
8.499920
 20
3.134560
  0
VERTEX
  8
FOREGROUND
  6
CONTINUOUS
 10
8.499920
 20
-7.865440
  0
VERTEX
  8
FOREGROUND
  6
CONTINUOUS
 10
0.000000
 20
-7.865440
  0
VERTEX
  8
FOREGROUND
  6
CONTINUOUS
 10
0.000000
 20
3.134560
  0
SEQEND
  8
0
  0
POLYLINE
  8
FOREGROUND
  6
CONTINUOUS
 66
     1
 40
0.000000
 41
0.000000
  0
VERTEX
  8
FOREGROUND
  6
CONTINUOUS
 10
0.000000
 20
3.134560
  0
VERTEX
  8
FOREGROUND
  6
CONTINUOUS
 10
8.499920
 20
3.134560
  0
VERTEX
  8
FOREGROUND
  6
CONTINUOUS
 10
8.499920
 20
-7.865440
  0
VERTEX
  8
FOREGROUND
  6
CONTINUOUS
 10
0.000000
 20
-7.865440
  0
VERTEX
  8
FOREGROUND
  6
CONTINUOUS
 10
0.000000
 20
3.134560
  0
SEQEND
  8
0
  0
SOLID
  8
0
 62
    15
 10
3.181200
 20
1.642960
 11
3.821400
 21
1.273800
 12
3.172840
 22
1.621840
 13
3.813040
 23
1.252680
  0
POLYLINE
  8
0
  6
CONTINUOUS
 66
     1
 40
0.000000
 41
0.000000
  0
VERTEX
  8
0
  6
CONTINUOUS
 10
3.181200
 20
1.642960
  0
VERTEX
  8
0
  6
CONTINUOUS
 10
3.821400
 20
1.273800
  0
VERTEX
  8
0
  6
CONTINUOUS
 10
3.813040
 20
1.252680
  0
VERTEX
  8
0
  6
CONTINUOUS
 10
3.172840
 20
1.621840
  0
VERTEX
  8
0
  6
CONTINUOUS
 10
3.181200
 20
1.642960
  0
SEQEND
  8
0
  0
SOLID
  8
0
 62
    15
 10
3.629560
 20
1.969880
 11
4.269760
 21
1.600720
 12
3.580720
 22
1.974280
 13
4.220920
 23
1.605120
  0
POLYLINE
  8
0
  6
CONTINUOUS
 66
     1
 40
0.000000
 41
0.000000
  0
VERTEX
  8
0
  6
CONTINUOUS
 10
3.629560
 20
1.969880
  0
VERTEX
  8
0
  6
CONTINUOUS
 10
4.269760
 20
1.600720
  0
VERTEX
  8
0
  6
CONTINUOUS
 10
4.220920
 20
1.605120
  0
VERTEX
  8
0
  6
CONTINUOUS
 10
3.580720
 20
1.974280
  0
VERTEX
  8
0
  6
CONTINUOUS
 10
3.629560
 20
1.969880
  0
SEQEND
  8
0
  0
SOLID
  8
0
 62
    15
 10
3.580720
 20
1.974280
 11
4.220920
 21
1.605120
 12
3.535400
 22
1.972080
 13
4.175600
 23
1.602920
  0
POLYLINE
  8
0
  6
CONTINUOUS
 66
     1
 40
0.000000
 41
0.000000
  0
VERTEX
  8
0
  6
CONTINUOUS
 10
3.580720
 20
1.974280
  0
VERTEX
  8
0
  6
CONTINUOUS
 10
4.220920
 20
1.605120
  0
VERTEX
  8
0
  6
CONTINUOUS
 10
4.175600
 20
1.602920
  0
VERTEX
  8
0
  6
CONTINUOUS
 10
3.535400
 20
1.972080
  0
VERTEX
  8
0
  6
CONTINUOUS
 10
3.580720
 20
1.974280
  0
SEQEND
  8
0
  0
SOLID
  8
0
 62
    15
 10
3.535400
 20
1.972080
 11
4.175600
 21
1.602920
 12
3.453120
 22
1.950960
 13
4.093320
 23
1.582240
  0
POLYLINE
  8
0
  6
CONTINUOUS
 66
     1
 40
0.000000
 41
0.000000
  0
VERTEX
  8
0
  6
CONTINUOUS
 10
3.535400
 20
1.972080
  0
VERTEX
  8
0
  6
CONTINUOUS
 10
4.175600
 20
1.602920
  0
VERTEX
  8
0
  6
CONTINUOUS
 10
4.093320
 20
1.582240
  0
VERTEX
  8
0
  6
CONTINUOUS
 10
3.453120
 20
1.950960
  0
VERTEX
  8
0
  6
CONTINUOUS
 10
3.535400
 20
1.972080
  0
SEQEND
  8
0
  0
SOLID
  8
0
 62
    15
 10
3.453120
 20
1.950960
 11
4.093320
 21
1.582240
 12
3.382280
 22
1.912680
 13
4.022480
 23
1.543520
  0
POLYLINE
  8
0
  6
CONTINUOUS
 66
     1
 40
0.000000
 41
0.000000
  0
VERTEX
  8
0
  6
CONTINUOUS
 10
3.453120
 20
1.950960
  0
VERTEX
  8
0
  6
CONTINUOUS
 10
4.093320
 20
1.582240
  0
VERTEX
  8
0
  6
CONTINUOUS
 10
4.022480
 20
1.543520
  0
VERTEX
  8
0
  6
CONTINUOUS
 10
3.382280
 20
1.912680
  0
VERTEX
  8
0
  6
CONTINUOUS
 10
3.453120
 20
1.950960
  0
SEQEND
  8
0
  0
SOLID
  8
0
 62
    15
 10
3.382280
 20
1.912680
 11
4.022480
 21
1.543520
 12
3.322000
 22
1.861640
 13
3.962200
 23
1.492480
  0
POLYLINE
  8
0
  6
CONTINUOUS
 66
     1
 40
0.000000
 41
0.000000
  0
VERTEX
  8
0
  6
CONTINUOUS
 10
3.382280
 20
1.912680
  0
VERTEX
  8
0
  6
CONTINUOUS
 10
4.022480
 20
1.543520
  0
VERTEX
  8
0
  6
CONTINUOUS
 10
3.962200
 20
1.492480
  0
VERTEX
  8
0
  6
CONTINUOUS
 10
3.322000
 20
1.861640
  0
VERTEX
  8
0
  6
CONTINUOUS
 10
3.382280
 20
1.912680
  0
SEQEND
  8
0
  0
SOLID
  8
0
 62
    15
 10
3.322000
 20
1.861640
 11
3.962200
 21
1.492480
 12
3.272280
 22
1.803560
 13
3.912480
 23
1.434840
  0
POLYLINE
  8
0
  6
CONTINUOUS
 66
     1
 40
0.000000
 41
0.000000
  0
VERTEX
  8
0
  6
CONTINUOUS
 10
3.322000
 20
1.861640
  0
VERTEX
  8
0
  6
CONTINUOUS
 10
3.962200
 20
1.492480
  0
VERTEX
  8
0
  6
CONTINUOUS
 10
3.912480
 20
1.434840
  0
VERTEX
  8
0
  6
CONTINUOUS
 10
3.272280
 20
1.803560
  0
VERTEX
  8
0
  6
CONTINUOUS
 10
3.322000
 20
1.861640
  0
SEQEND
  8
0
  0
SOLID
  8
0
 62
    15
 10
3.272280
 20
1.803560
 11
3.912480
 21
1.434840
 12
3.232680
 22
1.744600
 13
3.872880
 23
1.375440
  0
POLYLINE
  8
0
  6
CONTINUOUS
 66
     1
 40
0.000000
 41
0.000000
  0
VERTEX
  8
0
  6
CONTINUOUS
 10
3.272280
 20
1.803560
  0
VERTEX
  8
0
  6
CONTINUOUS
 10
3.912480
 20
1.434840
  0
VERTEX
  8
0
  6
CONTINUOUS
 10
3.872880
 20
1.375440
  0
VERTEX
  8
0
  6
CONTINUOUS
 10
3.232680
 20
1.744600
  0
VERTEX
  8
0
  6
CONTINUOUS
 10
3.272280
 20
1.803560
  0
SEQEND
  8
0
  0
SOLID
  8
0
 62
    15
 10
3.232680
 20
1.744600
 11
3.872880
 21
1.375440
 12
3.202760
 22
1.689160
 13
3.842960
 23
1.320000
  0
POLYLINE
  8
0
  6
CONTINUOUS
 66
     1
 40
0.000000
 41
0.000000
  0
VERTEX
  8
0
  6
CONTINUOUS
 10
3.232680
 20
1.744600
  0
VERTEX
  8
0
  6
CONTINUOUS
 10
3.872880
 20
1.375440
  0
VERTEX
  8
0
  6
CONTINUOUS
 10
3.842960
 20
1.320000
  0
VERTEX
  8
0
  6
CONTINUOUS
 10
3.202760
 20
1.689160
  0
VERTEX
  8
0
  6
CONTINUOUS
 10
3.232680
 20
1.744600
  0
SEQEND
  8
0
  0
SOLID
  8
0
 62
    15
 10
3.202760
 20
1.689160
 11
3.842960
 21
1.320000
 12
3.181200
 22
1.642960
 13
3.821400
 23
1.273800
  0
POLYLINE
  8
0
  6
CONTINUOUS
 66
     1
 40
0.000000
 41
0.000000
  0
VERTEX
  8
0
  6
CONTINUOUS
 10
3.202760
 20
1.689160
  0
VERTEX
  8
0
  6
CONTINUOUS
 10
3.842960
 20
1.320000
  0
VERTEX
  8
0
  6
CONTINUOUS
 10
3.821400
 20
1.273800
  0
VERTEX
  8
0
  6
CONTINUOUS
 10
3.181200
 20
1.642960
  0
VERTEX
  8
0
  6
CONTINUOUS
 10
3.202760
 20
1.689160
  0
SEQEND
  8
0
  0
SOLID
  8
0
 62
    15
 10
3.635720
 20
2.666840
 11
4.275920
 21
2.298120
 12
3.629560
 22
1.969880
 13
4.269760
 23
1.600720
  0
POLYLINE
  8
0
  6
CONTINUOUS
 66
     1
 40
0.000000
 41
0.000000
  0
VERTEX
  8
0
  6
CONTINUOUS
 10
3.635720
 20
2.666840
  0
VERTEX
  8
0
  6
CONTINUOUS
 10
4.275920
 20
2.298120
  0
VERTEX
  8
0
  6
CONTINUOUS
 10
4.269760
 20
1.600720
  0
VERTEX
  8
0
  6
CONTINUOUS
 10
3.629560
 20
1.969880
  0
VERTEX
  8
0
  6
CONTINUOUS
 10
3.635720
 20
2.666840
  0
SEQEND
  8
0
  0
SOLID
  8
0
 62
    15
 10
3.172840
 20
1.621840
 11
3.813040
 21
1.252680
 12
3.163600
 22
1.597640
 13
3.803800
 23
1.228920
  0
POLYLINE
  8
0
  6
CONTINUOUS
 66
     1
 40
0.000000
 41
0.000000
  0
VERTEX
  8
0
  6
CONTINUOUS
 10
3.172840
 20
1.621840
  0
VERTEX
  8
0
  6
CONTINUOUS
 10
3.813040
 20
1.252680
  0
VERTEX
  8
0
  6
CONTINUOUS
 10
3.803800
 20
1.228920
  0
VERTEX
  8
0
  6
CONTINUOUS
 10
3.163600
 20
1.597640
  0
VERTEX
  8
0
  6
CONTINUOUS
 10
3.172840
 20
1.621840
  0
SEQEND
  8
0
  0
SOLID
  8
0
 62
    15
 10
3.163600
 20
1.597640
 11
3.803800
 21
1.228920
 12
3.142040
 22
1.543960
 13
3.782240
 23
1.174800
  0
POLYLINE
  8
0
  6
CONTINUOUS
 66
     1
 40
0.000000
 41
0.000000
  0
VERTEX
  8
0
  6
CONTINUOUS
 10
3.163600
 20
1.597640
  0
VERTEX
  8
0
  6
CONTINUOUS
 10
3.803800
 20
1.228920
  0
VERTEX
  8
0
  6
CONTINUOUS
 10
3.782240
 20
1.174800
  0
VERTEX
  8
0
  6
CONTINUOUS
 10
3.142040
 20
1.543960
  0
VERTEX
  8
0
  6
CONTINUOUS
 10
3.163600
 20
1.597640
  0
SEQEND
  8
0
  0
SOLID
  8
0
 62
    15
 10
3.142040
 20
1.543960
 11
3.782240
 21
1.174800
 12
3.114760
 22
1.484560
 13
3.754960
 23
1.115840
  0
POLYLINE
  8
0
  6
CONTINUOUS
 66
     1
 40
0.000000
 41
0.000000
  0
VERTEX
  8
0
  6
CONTINUOUS
 10
3.142040
 20
1.543960
  0
VERTEX
  8
0
  6
CONTINUOUS
 10
3.782240
 20
1.174800
  0
VERTEX
  8
0
  6
CONTINUOUS
 10
3.754960
 20
1.115840
  0
VERTEX
  8
0
  6
CONTINUOUS
 10
3.114760
 20
1.484560
  0
VERTEX
  8
0
  6
CONTINUOUS
 10
3.142040
 20
1.543960
  0
SEQEND
  8
0
  0
SOLID
  8
0
 62
    15
 10
3.114760
 20
1.484560
 11
3.754960
 21
1.115840
 12
3.079560
 22
1.422960
 13
3.719760
 23
1.054240
  0
POLYLINE
  8
0
  6
CONTINUOUS
 66
     1
 40
0.000000
 41
0.000000
  0
VERTEX
  8
0
  6
CONTINUOUS
 10
3.114760
 20
1.484560
  0
VERTEX
  8
0
  6
CONTINUOUS
 10
3.754960
 20
1.115840
  0
VERTEX
  8
0
  6
CONTINUOUS
 10
3.719760
 20
1.054240
  0
VERTEX
  8
0
  6
CONTINUOUS
 10
3.079560
 20
1.422960
  0
VERTEX
  8
0
  6
CONTINUOUS
 10
3.114760
 20
1.484560
  0
SEQEND
  8
0
  0
SOLID
  8
0
 62
    15
 10
3.079560
 20
1.422960
 11
3.719760
 21
1.054240
 12
3.033800
 22
1.362680
 13
3.674000
 23
0.993520
  0
POLYLINE
  8
0
  6
CONTINUOUS
 66
     1
 40
0.000000
 41
0.000000
  0
VERTEX
  8
0
  6
CONTINUOUS
 10
3.079560
 20
1.422960
  0
VERTEX
  8
0
  6
CONTINUOUS
 10
3.719760
 20
1.054240
  0
VERTEX
  8
0
  6
CONTINUOUS
 10
3.674000
 20
0.993520
  0
VERTEX
  8
0
  6
CONTINUOUS
 10
3.033800
 20
1.362680
  0
VERTEX
  8
0
  6
CONTINUOUS
 10
3.079560
 20
1.422960
  0
SEQEND
  8
0
  0
SOLID
  8
0
 62
    15
 10
3.033800
 20
1.362680
 11
3.674000
 21
0.993520
 12
2.975280
 22
1.306800
 13
3.615480
 23
0.937640
  0
POLYLINE
  8
0
  6
CONTINUOUS
 66
     1
 40
0.000000
 41
0.000000
  0
VERTEX
  8
0
  6
CONTINUOUS
 10
3.033800
 20
1.362680
  0
VERTEX
  8
0
  6
CONTINUOUS
 10
3.674000
 20
0.993520
  0
VERTEX
  8
0
  6
CONTINUOUS
 10
3.615480
 20
0.937640
  0
VERTEX
  8
0
  6
CONTINUOUS
 10
2.975280
 20
1.306800
  0
VERTEX
  8
0
  6
CONTINUOUS
 10
3.033800
 20
1.362680
  0
SEQEND
  8
0
  0
SOLID
  8
0
 62
    15
 10
2.975280
 20
1.306800
 11
3.615480
 21
0.937640
 12
2.901360
 22
1.258840
 13
3.541560
 23
0.889680
  0
POLYLINE
  8
0
  6
CONTINUOUS
 66
     1
 40
0.000000
 41
0.000000
  0
VERTEX
  8
0
  6
CONTINUOUS
 10
2.975280
 20
1.306800
  0
VERTEX
  8
0
  6
CONTINUOUS
 10
3.615480
 20
0.937640
  0
VERTEX
  8
0
  6
CONTINUOUS
 10
3.541560
 20
0.889680
  0
VERTEX
  8
0
  6
CONTINUOUS
 10
2.901360
 20
1.258840
  0
VERTEX
  8
0
  6
CONTINUOUS
 10
2.975280
 20
1.306800
  0
SEQEND
  8
0
  0
SOLID
  8
0
 62
    15
 10
2.901360
 20
1.258840
 11
3.541560
 21
0.889680
 12
2.810720
 22
1.221440
 13
3.450920
 23
0.852720
  0
POLYLINE
  8
0
  6
CONTINUOUS
 66
     1
 40
0.000000
 41
0.000000
  0
VERTEX
  8
0
  6
CONTINUOUS
 10
2.901360
 20
1.258840
  0
VERTEX
  8
0
  6
CONTINUOUS
 10
3.541560
 20
0.889680
  0
VERTEX
  8
0
  6
CONTINUOUS
 10
3.450920
 20
0.852720
  0
VERTEX
  8
0
  6
CONTINUOUS
 10
2.810720
 20
1.221440
  0
VERTEX
  8
0
  6
CONTINUOUS
 10
2.901360
 20
1.258840
  0
SEQEND
  8
0
  0
SOLID
  8
0
 62
    15
 10
2.810720
 20
1.221440
 11
3.450920
 21
0.852720
 12
2.807640
 22
0.856680
 13
3.447840
 23
0.487960
  0
POLYLINE
  8
0
  6
CONTINUOUS
 66
     1
 40
0.000000
 41
0.000000
  0
VERTEX
  8
0
  6
CONTINUOUS
 10
2.810720
 20
1.221440
  0
VERTEX
  8
0
  6
CONTINUOUS
 10
3.450920
 20
0.852720
  0
VERTEX
  8
0
  6
CONTINUOUS
 10
3.447840
 20
0.487960
  0
VERTEX
  8
0
  6
CONTINUOUS
 10
2.807640
 20
0.856680
  0
VERTEX
  8
0
  6
CONTINUOUS
 10
2.810720
 20
1.221440
  0
SEQEND
  8
0
  0
SOLID
  8
0
 62
    15
 10
2.807640
 20
0.856680
 11
3.447840
 21
0.487960
 12
2.317920
 22
0.861520
 13
2.958120
 23
0.492360
  0
POLYLINE
  8
0
  6
CONTINUOUS
 66
     1
 40
0.000000
 41
0.000000
  0
VERTEX
  8
0
  6
CONTINUOUS
 10
2.807640
 20
0.856680
  0
VERTEX
  8
0
  6
CONTINUOUS
 10
3.447840
 20
0.487960
  0
VERTEX
  8
0
  6
CONTINUOUS
 10
2.958120
 20
0.492360
  0
VERTEX
  8
0
  6
CONTINUOUS
 10
2.317920
 20
0.861520
  0
VERTEX
  8
0
  6
CONTINUOUS
 10
2.807640
 20
0.856680
  0
SEQEND
  8
0
  0
POLYLINE
  8
0
  6
CONTINUOUS
 66
     1
 40
0.000000
 41
0.000000
  0
VERTEX
  8
0
  6
CONTINUOUS
 10
3.635720
 20
2.666840
  0
VERTEX
  8
0
  6
CONTINUOUS
 10
3.629560
 20
1.969880
  0
VERTEX
  8
0
  6
CONTINUOUS
 10
3.580720
 20
1.974280
  0
VERTEX
  8
0
  6
CONTINUOUS
 10
3.535400
 20
1.972080
  0
VERTEX
  8
0
  6
CONTINUOUS
 10
3.453120
 20
1.950960
  0
VERTEX
  8
0
  6
CONTINUOUS
 10
3.382280
 20
1.912680
  0
VERTEX
  8
0
  6
CONTINUOUS
 10
3.322000
 20
1.861640
  0
VERTEX
  8
0
  6
CONTINUOUS
 10
3.272280
 20
1.803560
  0
VERTEX
  8
0
  6
CONTINUOUS
 10
3.232680
 20
1.744600
  0
VERTEX
  8
0
  6
CONTINUOUS
 10
3.202760
 20
1.689160
  0
VERTEX
  8
0
  6
CONTINUOUS
 10
3.181200
 20
1.642960
  0
VERTEX
  8
0
  6
CONTINUOUS
 10
3.172840
 20
1.621840
  0
VERTEX
  8
0
  6
CONTINUOUS
 10
3.163600
 20
1.597640
  0
VERTEX
  8
0
  6
CONTINUOUS
 10
3.142040
 20
1.543960
  0
VERTEX
  8
0
  6
CONTINUOUS
 10
3.114760
 20
1.484560
  0
VERTEX
  8
0
  6
CONTINUOUS
 10
3.079560
 20
1.422960
  0
VERTEX
  8
0
  6
CONTINUOUS
 10
3.033800
 20
1.362680
  0
VERTEX
  8
0
  6
CONTINUOUS
 10
2.975280
 20
1.306800
  0
VERTEX
  8
0
  6
CONTINUOUS
 10
2.901360
 20
1.258840
  0
VERTEX
  8
0
  6
CONTINUOUS
 10
2.810720
 20
1.221440
  0
VERTEX
  8
0
  6
CONTINUOUS
 10
2.807640
 20
0.856680
  0
VERTEX
  8
0
  6
CONTINUOUS
 10
2.317920
 20
0.861520
  0
VERTEX
  8
0
  6
CONTINUOUS
 10
2.314840
 20
1.202080
  0
VERTEX
  8
0
  6
CONTINUOUS
 10
3.388000
 20
2.662880
  0
VERTEX
  8
0
  6
CONTINUOUS
 10
3.635720
 20
2.666840
  0
SEQEND
  8
0
  0
TEXT
  8
0
 10
3.779600
 20
0.702240
 40
0.138220
  1
BA  807
 41
1.000000
  7
SN0
 71
     0
 72
     5
 11
4.370860
 21
0.702240
  0
TEXT
  8
0
 10
3.623840
 20
0.510840
 40
0.138220
  1
5/8" x 2-1/4"
 41
1.000000
  7
SN0
 71
     0
 72
     5
 11
4.526098
 21
0.510840
  0
POLYLINE
  8
0
  6
CONTINUOUS
 66
     1
 40
0.014080
 41
0.014080
  0
VERTEX
  8
0
  6
CONTINUOUS
 10
6.990720
 20
1.981760
  0
VERTEX
  8
0
  6
CONTINUOUS
 10
5.177920
 20
1.981760
  0
VERTEX
  8
0
  6
CONTINUOUS
 10
4.905120
 20
2.185480
  0
VERTEX
  8
0
  6
CONTINUOUS
 10
5.191120
 20
2.583240
  0
VERTEX
  8
0
  6
CONTINUOUS
 10
5.487240
 20
2.369400
  0
VERTEX
  8
0
  6
CONTINUOUS
 10
5.529040
 20
2.398000
  0
VERTEX
  8
0
  6
CONTINUOUS
 10
5.570840
 20
2.420880
  0
VERTEX
  8
0
  6
CONTINUOUS
 10
5.612200
 20
2.438480
  0
VERTEX
  8
0
  6
CONTINUOUS
 10
5.653120
 20
2.451680
  0
VERTEX
  8
0
  6
CONTINUOUS
 10
5.693160
 20
2.460480
  0
VERTEX
  8
0
  6
CONTINUOUS
 10
5.732760
 20
2.465760
  0
VERTEX
  8
0
  6
CONTINUOUS
 10
5.771040
 20
2.467520
  0
VERTEX
  8
0
  6
CONTINUOUS
 10
5.808440
 20
2.466640
  0
VERTEX
  8
0
  6
CONTINUOUS
 10
5.844520
 20
2.463560
  0
VERTEX
  8
0
  6
CONTINUOUS
 10
5.878840
 20
2.458720
  0
VERTEX
  8
0
  6
CONTINUOUS
 10
5.943080
 20
2.445520
  0
VERTEX
  8
0
  6
CONTINUOUS
 10
6.057040
 20
2.416040
  0
VERTEX
  8
0
  6
CONTINUOUS
 10
6.110280
 20
2.406360
  0
VERTEX
  8
0
  6
CONTINUOUS
 10
6.158240
 20
2.400200
  0
VERTEX
  8
0
  6
CONTINUOUS
 10
6.193000
 20
2.397560
  0
VERTEX
  8
0
  6
CONTINUOUS
 10
6.248440
 20
2.397560
  0
VERTEX
  8
0
  6
CONTINUOUS
 10
6.286280
 20
2.400200
  0
VERTEX
  8
0
  6
CONTINUOUS
 10
6.325000
 20
2.405920
  0
VERTEX
  8
0
  6
CONTINUOUS
 10
6.382200
 20
2.420880
  0
VERTEX
  8
0
  6
CONTINUOUS
 10
6.419600
 20
2.435840
  0
VERTEX
  8
0
  6
CONTINUOUS
 10
6.455680
 20
2.455200
  0
VERTEX
  8
0
  6
CONTINUOUS
 10
6.489560
 20
2.479400
  0
VERTEX
  8
0
  6
CONTINUOUS
 10
6.521240
 20
2.509320
  0
VERTEX
  8
0
  6
CONTINUOUS
 10
6.549840
 20
2.544520
  0
VERTEX
  8
0
  6
CONTINUOUS
 10
6.574920
 20
2.586320
  0
VERTEX
  8
0
  6
CONTINUOUS
 10
7.140320
 20
2.178880
  0
VERTEX
  8
0
  6
CONTINUOUS
 10
6.990720
 20
1.981760
  0
SEQEND
  8
0
  0
ENDSEC
  0
EOF
