  0
SECTION
  2
HEADER
  9
$ACADVER
  1
AC1006
  9
$EXTMIN
 10
1.461680
 20
0.268840
  9
$EXTMAX
 10
7.348440
 20
9.342520
  9
$LTSCALE
 40
0.044000
  9
$PDMODE
 70
    35
  9
$PDSIZE
 40
0.035200
  0
ENDSEC
  0
SECTION
  2
TABLES
  0
TABLE
  2
LTYPE
 70
     9
  0
LTYPE
  2
CONTINUOUS
 70
    64
  3
Solid line
 72
    65
 73
     0
 40
0.000000
  0
LTYPE
  2
DASHED
 70
    64
  3
__ __ __ __ __ __ __ __ __ __ __ __ __ __ __
 72
    65
 73
     2
 40
0.000330
 49
0.000220
 49
-0.000110
  0
LTYPE
  2
HIDDEN
 70
    64
  3
 _ _ _ _ _ _ _ _ _ _ _ _ _ _ _ _ _ _ _ _ _ _
 72
    65
 73
     2
 40
0.000165
 49
0.000110
 49
-0.000055
  0
LTYPE
  2
CENTER
 70
    64
  3
____ _ ____ _ ____ _ ____ _ ____ _ ____ _ ____
 72
    65
 73
     4
 40
0.000880
 49
0.000550
 49
-0.000110
 49
0.000110
 49
-0.000110
  0
LTYPE
  2
PHANTOM
 70
    64
  3
_____ _ _ _____ _ _ _____ _ _ _____ _ _ ____
 72
    65
 73
     6
 40
0.001100
 49
0.000550
 49
-0.000110
 49
0.000110
 49
-0.000110
 49
0.000110
 49
-0.000110
  0
LTYPE
  2
DOT
 70
    64
  3
...............................................
 72
    65
 73
     2
 40
0.000110
 49
0.000000
 49
-0.000110
  0
LTYPE
  2
DASHDOT
 70
    64
  3
__ . __ . __ . __ . __ . __ . __ . __ . __ . __
 72
    65
 73
     4
 40
0.000440
 49
0.000220
 49
-0.000110
 49
0.000000
 49
-0.000110
  0
LTYPE
  2
BORDER
 70
    64
  3
__ __ . __ __ . __ __ . __ __ . __ __ . __ __
 72
    65
 73
     6
 40
0.000770
 49
0.000220
 49
-0.000110
 49
0.000220
 49
-0.000110
 49
0.000000
 49
-0.000110
  0
LTYPE
  2
DIVIDE
 70
    64
  3
__ . . __ . . __ . . __ . . __ . . __ . . __
 72
    65
 73
     6
 40
0.000550
 49
0.000220
 49
-0.000110
 49
0.000000
 49
-0.000110
 49
0.000000
 49
-0.000110
  0
LTYPE
  2
DOTDOT
 70
    64
  3
 . .  . .  . .  . .  . .  . . 
 72
    65
 73
     5
 40
0.000242
 49
-0.000110
 49
0.000000
 49
-0.000110
 49
0.000000
 49
-0.000110
  0
ENDTAB
  0
TABLE
  2
STYLE
 70
     4
  0
STYLE
 70
     0
  2
SN0
 40
0.000000
 41
0.000440
 50
0.000000
 71
     0
 42
0.000000
  3
ROMAND
  0
STYLE
 70
    68
  2
SV0
 40
0.000000
 41
0.000440
 50
0.000000
 71
     0
 42
0.000000
  3
ROMAND
  0
STYLE
 70
     0
  2
SN1
 40
0.000000
 41
0.000440
 50
0.000000
 71
     0
 42
0.000000
  3
SCRIPTS
  0
STYLE
 70
    68
  2
SV1
 40
0.000000
 41
0.000440
 50
0.000000
 71
     0
 42
0.000000
  3
SCRIPTS
  0
ENDTAB
  0
TABLE
  2
LAYER
 70
     3
  0
LAYER
  2
FOREGROUND
 70
    64
 62
     7
  6
CONTINUOUS
  0
LAYER
  2
BACKGROUND
 70
    65
 62
    -7
  6
CONTINUOUS
  0
LAYER
  2
0
 70
    64
 62
     7
  6
CONTINUOUS
  0
ENDTAB
  0
ENDSEC
  0
SECTION
  2
ENTITIES
  0
POLYLINE
  8
FOREGROUND
  6
CONTINUOUS
 66
     1
 40
0.000000
 41
0.000000
  0
VERTEX
  8
FOREGROUND
  6
CONTINUOUS
 10
0.000000
 20
9.611360
  0
VERTEX
  8
FOREGROUND
  6
CONTINUOUS
 10
8.499920
 20
9.611360
  0
VERTEX
  8
FOREGROUND
  6
CONTINUOUS
 10
8.499920
 20
-1.388640
  0
VERTEX
  8
FOREGROUND
  6
CONTINUOUS
 10
0.000000
 20
-1.388640
  0
VERTEX
  8
FOREGROUND
  6
CONTINUOUS
 10
0.000000
 20
9.611360
  0
SEQEND
  8
0
  0
POLYLINE
  8
FOREGROUND
  6
CONTINUOUS
 66
     1
 40
0.000000
 41
0.000000
  0
VERTEX
  8
FOREGROUND
  6
CONTINUOUS
 10
0.000000
 20
9.611360
  0
VERTEX
  8
FOREGROUND
  6
CONTINUOUS
 10
8.499920
 20
9.611360
  0
VERTEX
  8
FOREGROUND
  6
CONTINUOUS
 10
8.499920
 20
-1.388640
  0
VERTEX
  8
FOREGROUND
  6
CONTINUOUS
 10
0.000000
 20
-1.388640
  0
VERTEX
  8
FOREGROUND
  6
CONTINUOUS
 10
0.000000
 20
9.611360
  0
SEQEND
  8
0
  0
POLYLINE
  8
0
  6
CONTINUOUS
 66
     1
 40
0.000000
 41
0.000000
  0
VERTEX
  8
0
  6
CONTINUOUS
 10
6.977080
 20
5.732760
  0
VERTEX
  8
0
  6
CONTINUOUS
 10
6.977520
 20
5.649160
  0
VERTEX
  8
0
  6
CONTINUOUS
 10
6.974440
 20
5.615720
  0
VERTEX
  8
0
  6
CONTINUOUS
 10
6.970920
 20
5.600320
  0
VERTEX
  8
0
  6
CONTINUOUS
 10
6.960360
 20
5.573040
  0
VERTEX
  8
0
  6
CONTINUOUS
 10
6.954200
 20
5.560720
  0
VERTEX
  8
0
  6
CONTINUOUS
 10
6.938360
 20
5.539600
  0
VERTEX
  8
0
  6
CONTINUOUS
 10
6.919880
 20
5.522440
  0
VERTEX
  8
0
  6
CONTINUOUS
 10
6.899200
 20
5.510120
  0
VERTEX
  8
0
  6
CONTINUOUS
 10
6.877200
 20
5.501760
  0
VERTEX
  8
0
  6
CONTINUOUS
 10
6.854320
 20
5.498240
  0
VERTEX
  8
0
  6
CONTINUOUS
 10
6.842440
 20
5.497800
  0
VERTEX
  8
0
  6
CONTINUOUS
 10
6.819560
 20
5.501320
  0
VERTEX
  8
0
  6
CONTINUOUS
 10
6.808120
 20
5.504400
  0
VERTEX
  8
0
  6
CONTINUOUS
 10
6.786560
 20
5.514960
  0
VERTEX
  8
0
  6
CONTINUOUS
 10
6.766760
 20
5.529920
  0
VERTEX
  8
0
  6
CONTINUOUS
 10
6.749600
 20
5.550160
  0
VERTEX
  8
0
  6
CONTINUOUS
 10
6.735520
 20
5.575240
  0
VERTEX
  8
0
  6
CONTINUOUS
 10
6.724960
 20
5.605600
  0
VERTEX
  8
0
  6
CONTINUOUS
 10
6.718800
 20
5.640800
  0
VERTEX
  8
0
  6
CONTINUOUS
 10
6.692840
 20
5.640800
  0
VERTEX
  8
0
  6
CONTINUOUS
 10
6.546320
 20
5.474040
  0
VERTEX
  8
0
  6
CONTINUOUS
 10
1.811480
 20
5.474040
  0
VERTEX
  8
0
  6
CONTINUOUS
 10
1.675960
 20
5.635520
  0
VERTEX
  8
0
  6
CONTINUOUS
 10
1.675960
 20
5.788640
  0
VERTEX
  8
0
  6
CONTINUOUS
 10
1.927640
 20
5.788640
  0
VERTEX
  8
0
  6
CONTINUOUS
 10
1.927640
 20
6.036360
  0
VERTEX
  8
0
  6
CONTINUOUS
 10
1.675960
 20
6.036360
  0
VERTEX
  8
0
  6
CONTINUOUS
 10
1.675960
 20
6.188160
  0
VERTEX
  8
0
  6
CONTINUOUS
 10
1.811480
 20
6.350080
  0
VERTEX
  8
0
  6
CONTINUOUS
 10
6.546320
 20
6.350080
  0
VERTEX
  8
0
  6
CONTINUOUS
 10
6.692840
 20
6.182880
  0
VERTEX
  8
0
  6
CONTINUOUS
 10
6.718800
 20
6.182880
  0
VERTEX
  8
0
  6
CONTINUOUS
 10
6.724960
 20
6.218080
  0
VERTEX
  8
0
  6
CONTINUOUS
 10
6.735520
 20
6.248440
  0
VERTEX
  8
0
  6
CONTINUOUS
 10
6.749600
 20
6.273520
  0
VERTEX
  8
0
  6
CONTINUOUS
 10
6.766760
 20
6.293760
  0
VERTEX
  8
0
  6
CONTINUOUS
 10
6.786560
 20
6.308720
  0
VERTEX
  8
0
  6
CONTINUOUS
 10
6.797120
 20
6.314880
  0
VERTEX
  8
0
  6
CONTINUOUS
 10
6.819560
 20
6.322800
  0
VERTEX
  8
0
  6
CONTINUOUS
 10
6.842440
 20
6.325880
  0
VERTEX
  8
0
  6
CONTINUOUS
 10
6.854320
 20
6.325880
  0
VERTEX
  8
0
  6
CONTINUOUS
 10
6.877200
 20
6.321920
  0
VERTEX
  8
0
  6
CONTINUOUS
 10
6.899200
 20
6.314000
  0
VERTEX
  8
0
  6
CONTINUOUS
 10
6.919880
 20
6.301240
  0
VERTEX
  8
0
  6
CONTINUOUS
 10
6.938360
 20
6.284080
  0
VERTEX
  8
0
  6
CONTINUOUS
 10
6.954200
 20
6.262960
  0
VERTEX
  8
0
  6
CONTINUOUS
 10
6.966080
 20
6.237440
  0
VERTEX
  8
0
  6
CONTINUOUS
 10
6.970920
 20
6.223360
  0
VERTEX
  8
0
  6
CONTINUOUS
 10
6.976640
 20
6.191680
  0
VERTEX
  8
0
  6
CONTINUOUS
 10
6.977520
 20
6.174520
  0
VERTEX
  8
0
  6
CONTINUOUS
 10
6.977080
 20
6.174520
  0
VERTEX
  8
0
  6
CONTINUOUS
 10
6.977080
 20
6.035480
  0
VERTEX
  8
0
  6
CONTINUOUS
 10
7.227880
 20
6.035480
  0
VERTEX
  8
0
  6
CONTINUOUS
 10
7.227880
 20
5.789080
  0
VERTEX
  8
0
  6
CONTINUOUS
 10
6.977080
 20
5.789080
  0
VERTEX
  8
0
  6
CONTINUOUS
 10
6.977080
 20
5.727480
  0
VERTEX
  8
0
  6
CONTINUOUS
 10
6.977080
 20
5.732760
  0
SEQEND
  8
0
  0
POLYLINE
  8
0
  6
CONTINUOUS
 66
     1
 40
0.000000
 41
0.000000
  0
VERTEX
  8
0
  6
CONTINUOUS
 10
6.763680
 20
8.207760
  0
VERTEX
  8
0
  6
CONTINUOUS
 10
6.763680
 20
8.133400
  0
VERTEX
  8
0
  6
CONTINUOUS
 10
6.760600
 20
8.099960
  0
VERTEX
  8
0
  6
CONTINUOUS
 10
6.752680
 20
8.070480
  0
VERTEX
  8
0
  6
CONTINUOUS
 10
6.740360
 20
8.044960
  0
VERTEX
  8
0
  6
CONTINUOUS
 10
6.724960
 20
8.023840
  0
VERTEX
  8
0
  6
CONTINUOUS
 10
6.706480
 20
8.006680
  0
VERTEX
  8
0
  6
CONTINUOUS
 10
6.685800
 20
7.994360
  0
VERTEX
  8
0
  6
CONTINUOUS
 10
6.663360
 20
7.986000
  0
VERTEX
  8
0
  6
CONTINUOUS
 10
6.640480
 20
7.982480
  0
VERTEX
  8
0
  6
CONTINUOUS
 10
6.629040
 20
7.982040
  0
VERTEX
  8
0
  6
CONTINUOUS
 10
6.606160
 20
7.985560
  0
VERTEX
  8
0
  6
CONTINUOUS
 10
6.594720
 20
7.988640
  0
VERTEX
  8
0
  6
CONTINUOUS
 10
6.573160
 20
7.999200
  0
VERTEX
  8
0
  6
CONTINUOUS
 10
6.553360
 20
8.014160
  0
VERTEX
  8
0
  6
CONTINUOUS
 10
6.535760
 20
8.034400
  0
VERTEX
  8
0
  6
CONTINUOUS
 10
6.521680
 20
8.059480
  0
VERTEX
  8
0
  6
CONTINUOUS
 10
6.511120
 20
8.089840
  0
VERTEX
  8
0
  6
CONTINUOUS
 10
6.504960
 20
8.125040
  0
VERTEX
  8
0
  6
CONTINUOUS
 10
6.479000
 20
8.125040
  0
VERTEX
  8
0
  6
CONTINUOUS
 10
6.332480
 20
7.958280
  0
VERTEX
  8
0
  6
CONTINUOUS
 10
1.598080
 20
7.958280
  0
VERTEX
  8
0
  6
CONTINUOUS
 10
1.462120
 20
8.119760
  0
VERTEX
  8
0
  6
CONTINUOUS
 10
1.462120
 20
8.189720
  0
VERTEX
  8
0
  6
CONTINUOUS
 10
1.462120
 20
8.188840
  0
VERTEX
  8
0
  6
CONTINUOUS
 10
1.462120
 20
8.207760
  0
VERTEX
  8
0
  6
CONTINUOUS
 10
1.713800
 20
8.207760
  0
VERTEX
  8
0
  6
CONTINUOUS
 10
1.713800
 20
8.457680
  0
VERTEX
  8
0
  6
CONTINUOUS
 10
1.462120
 20
8.457680
  0
VERTEX
  8
0
  6
CONTINUOUS
 10
1.462120
 20
8.544360
  0
VERTEX
  8
0
  6
CONTINUOUS
 10
1.598080
 20
8.706280
  0
VERTEX
  8
0
  6
CONTINUOUS
 10
6.332480
 20
8.706280
  0
VERTEX
  8
0
  6
CONTINUOUS
 10
6.479000
 20
8.539520
  0
VERTEX
  8
0
  6
CONTINUOUS
 10
6.504960
 20
8.539520
  0
VERTEX
  8
0
  6
CONTINUOUS
 10
6.511120
 20
8.574720
  0
VERTEX
  8
0
  6
CONTINUOUS
 10
6.521680
 20
8.605080
  0
VERTEX
  8
0
  6
CONTINUOUS
 10
6.535760
 20
8.630160
  0
VERTEX
  8
0
  6
CONTINUOUS
 10
6.553360
 20
8.649960
  0
VERTEX
  8
0
  6
CONTINUOUS
 10
6.573160
 20
8.665360
  0
VERTEX
  8
0
  6
CONTINUOUS
 10
6.594720
 20
8.675480
  0
VERTEX
  8
0
  6
CONTINUOUS
 10
6.617600
 20
8.681200
  0
VERTEX
  8
0
  6
CONTINUOUS
 10
6.640480
 20
8.682080
  0
VERTEX
  8
0
  6
CONTINUOUS
 10
6.663360
 20
8.678120
  0
VERTEX
  8
0
  6
CONTINUOUS
 10
6.685800
 20
8.670200
  0
VERTEX
  8
0
  6
CONTINUOUS
 10
6.706480
 20
8.657440
  0
VERTEX
  8
0
  6
CONTINUOUS
 10
6.724960
 20
8.640280
  0
VERTEX
  8
0
  6
CONTINUOUS
 10
6.740360
 20
8.619160
  0
VERTEX
  8
0
  6
CONTINUOUS
 10
6.752680
 20
8.593640
  0
VERTEX
  8
0
  6
CONTINUOUS
 10
6.760600
 20
8.564160
  0
VERTEX
  8
0
  6
CONTINUOUS
 10
6.763680
 20
8.530720
  0
VERTEX
  8
0
  6
CONTINUOUS
 10
6.763680
 20
8.457240
  0
VERTEX
  8
0
  6
CONTINUOUS
 10
7.012720
 20
8.457240
  0
VERTEX
  8
0
  6
CONTINUOUS
 10
7.012720
 20
8.207320
  0
VERTEX
  8
0
  6
CONTINUOUS
 10
6.762800
 20
8.207320
  0
VERTEX
  8
0
  6
CONTINUOUS
 10
6.763680
 20
8.207760
  0
SEQEND
  8
0
  0
SOLID
  8
0
 62
    15
 10
6.907560
 20
1.303720
 11
6.912400
 21
2.048640
 12
6.925160
 22
1.323960
 13
6.930000
 23
2.068440
  0
POLYLINE
  8
0
  6
CONTINUOUS
 66
     1
 40
0.000000
 41
0.000000
  0
VERTEX
  8
0
  6
CONTINUOUS
 10
6.907560
 20
1.303720
  0
VERTEX
  8
0
  6
CONTINUOUS
 10
6.912400
 20
2.048640
  0
VERTEX
  8
0
  6
CONTINUOUS
 10
6.930000
 20
2.068440
  0
VERTEX
  8
0
  6
CONTINUOUS
 10
6.925160
 20
1.323960
  0
VERTEX
  8
0
  6
CONTINUOUS
 10
6.907560
 20
1.303720
  0
SEQEND
  8
0
  0
SOLID
  8
0
 62
    15
 10
7.343160
 20
1.099120
 11
7.348000
 21
1.844040
 12
7.343160
 22
0.956560
 13
7.348000
 23
1.701040
  0
POLYLINE
  8
0
  6
CONTINUOUS
 66
     1
 40
0.000000
 41
0.000000
  0
VERTEX
  8
0
  6
CONTINUOUS
 10
7.343160
 20
1.099120
  0
VERTEX
  8
0
  6
CONTINUOUS
 10
7.348000
 20
1.844040
  0
VERTEX
  8
0
  6
CONTINUOUS
 10
7.348000
 20
1.701040
  0
VERTEX
  8
0
  6
CONTINUOUS
 10
7.343160
 20
0.956560
  0
VERTEX
  8
0
  6
CONTINUOUS
 10
7.343160
 20
1.099120
  0
SEQEND
  8
0
  0
SOLID
  8
0
 62
    15
 10
7.135040
 20
1.121120
 11
7.140320
 21
1.865600
 12
7.343160
 22
1.099120
 13
7.348000
 23
1.844040
  0
POLYLINE
  8
0
  6
CONTINUOUS
 66
     1
 40
0.000000
 41
0.000000
  0
VERTEX
  8
0
  6
CONTINUOUS
 10
7.135040
 20
1.121120
  0
VERTEX
  8
0
  6
CONTINUOUS
 10
7.140320
 20
1.865600
  0
VERTEX
  8
0
  6
CONTINUOUS
 10
7.348000
 20
1.844040
  0
VERTEX
  8
0
  6
CONTINUOUS
 10
7.343160
 20
1.099120
  0
VERTEX
  8
0
  6
CONTINUOUS
 10
7.135040
 20
1.121120
  0
SEQEND
  8
0
  0
SOLID
  8
0
 62
    15
 10
7.135040
 20
0.950400
 11
7.140320
 21
1.694880
 12
7.135040
 22
0.762080
 13
7.140320
 23
1.506560
  0
POLYLINE
  8
0
  6
CONTINUOUS
 66
     1
 40
0.000000
 41
0.000000
  0
VERTEX
  8
0
  6
CONTINUOUS
 10
7.135040
 20
0.950400
  0
VERTEX
  8
0
  6
CONTINUOUS
 10
7.140320
 20
1.694880
  0
VERTEX
  8
0
  6
CONTINUOUS
 10
7.140320
 20
1.506560
  0
VERTEX
  8
0
  6
CONTINUOUS
 10
7.135040
 20
0.762080
  0
VERTEX
  8
0
  6
CONTINUOUS
 10
7.135040
 20
0.950400
  0
SEQEND
  8
0
  0
SOLID
  8
0
 62
    15
 10
1.833920
 20
0.938960
 11
1.838760
 21
1.683440
 12
2.076360
 22
0.959200
 13
2.081200
 23
1.704120
  0
POLYLINE
  8
0
  6
CONTINUOUS
 66
     1
 40
0.000000
 41
0.000000
  0
VERTEX
  8
0
  6
CONTINUOUS
 10
1.833920
 20
0.938960
  0
VERTEX
  8
0
  6
CONTINUOUS
 10
1.838760
 20
1.683440
  0
VERTEX
  8
0
  6
CONTINUOUS
 10
2.081200
 20
1.704120
  0
VERTEX
  8
0
  6
CONTINUOUS
 10
2.076360
 20
0.959200
  0
VERTEX
  8
0
  6
CONTINUOUS
 10
1.833920
 20
0.938960
  0
SEQEND
  8
0
  0
SOLID
  8
0
 62
    15
 10
1.833920
 20
1.218360
 11
1.838760
 21
1.962840
 12
1.969440
 22
1.379840
 13
1.974280
 23
2.124760
  0
POLYLINE
  8
0
  6
CONTINUOUS
 66
     1
 40
0.000000
 41
0.000000
  0
VERTEX
  8
0
  6
CONTINUOUS
 10
1.833920
 20
1.218360
  0
VERTEX
  8
0
  6
CONTINUOUS
 10
1.838760
 20
1.962840
  0
VERTEX
  8
0
  6
CONTINUOUS
 10
1.974280
 20
2.124760
  0
VERTEX
  8
0
  6
CONTINUOUS
 10
1.969440
 20
1.379840
  0
VERTEX
  8
0
  6
CONTINUOUS
 10
1.833920
 20
1.218360
  0
SEQEND
  8
0
  0
SOLID
  8
0
 62
    15
 10
1.969440
 20
1.379840
 11
1.974280
 21
2.124760
 12
6.704280
 22
1.379840
 13
6.709120
 23
2.124760
  0
POLYLINE
  8
0
  6
CONTINUOUS
 66
     1
 40
0.000000
 41
0.000000
  0
VERTEX
  8
0
  6
CONTINUOUS
 10
1.969440
 20
1.379840
  0
VERTEX
  8
0
  6
CONTINUOUS
 10
1.974280
 20
2.124760
  0
VERTEX
  8
0
  6
CONTINUOUS
 10
6.709120
 20
2.124760
  0
VERTEX
  8
0
  6
CONTINUOUS
 10
6.704280
 20
1.379840
  0
VERTEX
  8
0
  6
CONTINUOUS
 10
1.969440
 20
1.379840
  0
SEQEND
  8
0
  0
SOLID
  8
0
 62
    15
 10
6.704280
 20
1.379840
 11
6.709120
 21
2.124760
 12
6.850800
 22
1.213080
 13
6.855640
 23
1.958000
  0
POLYLINE
  8
0
  6
CONTINUOUS
 66
     1
 40
0.000000
 41
0.000000
  0
VERTEX
  8
0
  6
CONTINUOUS
 10
6.704280
 20
1.379840
  0
VERTEX
  8
0
  6
CONTINUOUS
 10
6.709120
 20
2.124760
  0
VERTEX
  8
0
  6
CONTINUOUS
 10
6.855640
 20
1.958000
  0
VERTEX
  8
0
  6
CONTINUOUS
 10
6.850800
 20
1.213080
  0
VERTEX
  8
0
  6
CONTINUOUS
 10
6.704280
 20
1.379840
  0
SEQEND
  8
0
  0
SOLID
  8
0
 62
    15
 10
6.850800
 20
1.213080
 11
6.855640
 21
1.958000
 12
6.876760
 22
1.213080
 13
6.881600
 23
1.958000
  0
POLYLINE
  8
0
  6
CONTINUOUS
 66
     1
 40
0.000000
 41
0.000000
  0
VERTEX
  8
0
  6
CONTINUOUS
 10
6.850800
 20
1.213080
  0
VERTEX
  8
0
  6
CONTINUOUS
 10
6.855640
 20
1.958000
  0
VERTEX
  8
0
  6
CONTINUOUS
 10
6.881600
 20
1.958000
  0
VERTEX
  8
0
  6
CONTINUOUS
 10
6.876760
 20
1.213080
  0
VERTEX
  8
0
  6
CONTINUOUS
 10
6.850800
 20
1.213080
  0
SEQEND
  8
0
  0
SOLID
  8
0
 62
    15
 10
6.876760
 20
1.213080
 11
6.881600
 21
1.958000
 12
6.882920
 22
1.248720
 13
6.887760
 23
1.993200
  0
POLYLINE
  8
0
  6
CONTINUOUS
 66
     1
 40
0.000000
 41
0.000000
  0
VERTEX
  8
0
  6
CONTINUOUS
 10
6.876760
 20
1.213080
  0
VERTEX
  8
0
  6
CONTINUOUS
 10
6.881600
 20
1.958000
  0
VERTEX
  8
0
  6
CONTINUOUS
 10
6.887760
 20
1.993200
  0
VERTEX
  8
0
  6
CONTINUOUS
 10
6.882920
 20
1.248720
  0
VERTEX
  8
0
  6
CONTINUOUS
 10
6.876760
 20
1.213080
  0
SEQEND
  8
0
  0
SOLID
  8
0
 62
    15
 10
6.882920
 20
1.248720
 11
6.887760
 21
1.993200
 12
6.893480
 22
1.278640
 13
6.898320
 23
2.023560
  0
POLYLINE
  8
0
  6
CONTINUOUS
 66
     1
 40
0.000000
 41
0.000000
  0
VERTEX
  8
0
  6
CONTINUOUS
 10
6.882920
 20
1.248720
  0
VERTEX
  8
0
  6
CONTINUOUS
 10
6.887760
 20
1.993200
  0
VERTEX
  8
0
  6
CONTINUOUS
 10
6.898320
 20
2.023560
  0
VERTEX
  8
0
  6
CONTINUOUS
 10
6.893480
 20
1.278640
  0
VERTEX
  8
0
  6
CONTINUOUS
 10
6.882920
 20
1.248720
  0
SEQEND
  8
0
  0
SOLID
  8
0
 62
    15
 10
6.893480
 20
1.278640
 11
6.898320
 21
2.023560
 12
6.907560
 22
1.303720
 13
6.912400
 23
2.048640
  0
POLYLINE
  8
0
  6
CONTINUOUS
 66
     1
 40
0.000000
 41
0.000000
  0
VERTEX
  8
0
  6
CONTINUOUS
 10
6.893480
 20
1.278640
  0
VERTEX
  8
0
  6
CONTINUOUS
 10
6.898320
 20
2.023560
  0
VERTEX
  8
0
  6
CONTINUOUS
 10
6.912400
 20
2.048640
  0
VERTEX
  8
0
  6
CONTINUOUS
 10
6.907560
 20
1.303720
  0
VERTEX
  8
0
  6
CONTINUOUS
 10
6.893480
 20
1.278640
  0
SEQEND
  8
0
  0
SOLID
  8
0
 62
    15
 10
7.132400
 20
1.238160
 11
7.137240
 21
1.982640
 12
7.135480
 22
1.204720
 13
7.140320
 23
1.949200
  0
POLYLINE
  8
0
  6
CONTINUOUS
 66
     1
 40
0.000000
 41
0.000000
  0
VERTEX
  8
0
  6
CONTINUOUS
 10
7.132400
 20
1.238160
  0
VERTEX
  8
0
  6
CONTINUOUS
 10
7.137240
 20
1.982640
  0
VERTEX
  8
0
  6
CONTINUOUS
 10
7.140320
 20
1.949200
  0
VERTEX
  8
0
  6
CONTINUOUS
 10
7.135480
 20
1.204720
  0
VERTEX
  8
0
  6
CONTINUOUS
 10
7.132400
 20
1.238160
  0
SEQEND
  8
0
  0
SOLID
  8
0
 62
    15
 10
6.925160
 20
1.323960
 11
6.930000
 21
2.068440
 12
6.944520
 22
1.338920
 13
6.949800
 23
2.083840
  0
POLYLINE
  8
0
  6
CONTINUOUS
 66
     1
 40
0.000000
 41
0.000000
  0
VERTEX
  8
0
  6
CONTINUOUS
 10
6.925160
 20
1.323960
  0
VERTEX
  8
0
  6
CONTINUOUS
 10
6.930000
 20
2.068440
  0
VERTEX
  8
0
  6
CONTINUOUS
 10
6.949800
 20
2.083840
  0
VERTEX
  8
0
  6
CONTINUOUS
 10
6.944520
 20
1.338920
  0
VERTEX
  8
0
  6
CONTINUOUS
 10
6.925160
 20
1.323960
  0
SEQEND
  8
0
  0
SOLID
  8
0
 62
    15
 10
6.944520
 20
1.338920
 11
6.949800
 21
2.083840
 12
6.966080
 22
1.349480
 13
6.971360
 23
2.093960
  0
POLYLINE
  8
0
  6
CONTINUOUS
 66
     1
 40
0.000000
 41
0.000000
  0
VERTEX
  8
0
  6
CONTINUOUS
 10
6.944520
 20
1.338920
  0
VERTEX
  8
0
  6
CONTINUOUS
 10
6.949800
 20
2.083840
  0
VERTEX
  8
0
  6
CONTINUOUS
 10
6.971360
 20
2.093960
  0
VERTEX
  8
0
  6
CONTINUOUS
 10
6.966080
 20
1.349480
  0
VERTEX
  8
0
  6
CONTINUOUS
 10
6.944520
 20
1.338920
  0
SEQEND
  8
0
  0
SOLID
  8
0
 62
    15
 10
6.966080
 20
1.349480
 11
6.971360
 21
2.093960
 12
6.988960
 22
1.355200
 13
6.993800
 23
2.099680
  0
POLYLINE
  8
0
  6
CONTINUOUS
 66
     1
 40
0.000000
 41
0.000000
  0
VERTEX
  8
0
  6
CONTINUOUS
 10
6.966080
 20
1.349480
  0
VERTEX
  8
0
  6
CONTINUOUS
 10
6.971360
 20
2.093960
  0
VERTEX
  8
0
  6
CONTINUOUS
 10
6.993800
 20
2.099680
  0
VERTEX
  8
0
  6
CONTINUOUS
 10
6.988960
 20
1.355200
  0
VERTEX
  8
0
  6
CONTINUOUS
 10
6.966080
 20
1.349480
  0
SEQEND
  8
0
  0
SOLID
  8
0
 62
    15
 10
6.988960
 20
1.355200
 11
6.993800
 21
2.099680
 12
7.012280
 22
1.355640
 13
7.017120
 23
2.100560
  0
POLYLINE
  8
0
  6
CONTINUOUS
 66
     1
 40
0.000000
 41
0.000000
  0
VERTEX
  8
0
  6
CONTINUOUS
 10
6.988960
 20
1.355200
  0
VERTEX
  8
0
  6
CONTINUOUS
 10
6.993800
 20
2.099680
  0
VERTEX
  8
0
  6
CONTINUOUS
 10
7.017120
 20
2.100560
  0
VERTEX
  8
0
  6
CONTINUOUS
 10
7.012280
 20
1.355640
  0
VERTEX
  8
0
  6
CONTINUOUS
 10
6.988960
 20
1.355200
  0
SEQEND
  8
0
  0
SOLID
  8
0
 62
    15
 10
7.012280
 20
1.355640
 11
7.017120
 21
2.100560
 12
7.035160
 22
1.352120
 13
7.040000
 23
2.096600
  0
POLYLINE
  8
0
  6
CONTINUOUS
 66
     1
 40
0.000000
 41
0.000000
  0
VERTEX
  8
0
  6
CONTINUOUS
 10
7.012280
 20
1.355640
  0
VERTEX
  8
0
  6
CONTINUOUS
 10
7.017120
 20
2.100560
  0
VERTEX
  8
0
  6
CONTINUOUS
 10
7.040000
 20
2.096600
  0
VERTEX
  8
0
  6
CONTINUOUS
 10
7.035160
 20
1.352120
  0
VERTEX
  8
0
  6
CONTINUOUS
 10
7.012280
 20
1.355640
  0
SEQEND
  8
0
  0
SOLID
  8
0
 62
    15
 10
7.035160
 20
1.352120
 11
7.040000
 21
2.096600
 12
7.057160
 22
1.344200
 13
7.062440
 23
2.088680
  0
POLYLINE
  8
0
  6
CONTINUOUS
 66
     1
 40
0.000000
 41
0.000000
  0
VERTEX
  8
0
  6
CONTINUOUS
 10
7.035160
 20
1.352120
  0
VERTEX
  8
0
  6
CONTINUOUS
 10
7.040000
 20
2.096600
  0
VERTEX
  8
0
  6
CONTINUOUS
 10
7.062440
 20
2.088680
  0
VERTEX
  8
0
  6
CONTINUOUS
 10
7.057160
 20
1.344200
  0
VERTEX
  8
0
  6
CONTINUOUS
 10
7.035160
 20
1.352120
  0
SEQEND
  8
0
  0
SOLID
  8
0
 62
    15
 10
7.057160
 20
1.344200
 11
7.062440
 21
2.088680
 12
7.077840
 22
1.331440
 13
7.082680
 23
2.075920
  0
POLYLINE
  8
0
  6
CONTINUOUS
 66
     1
 40
0.000000
 41
0.000000
  0
VERTEX
  8
0
  6
CONTINUOUS
 10
7.057160
 20
1.344200
  0
VERTEX
  8
0
  6
CONTINUOUS
 10
7.062440
 20
2.088680
  0
VERTEX
  8
0
  6
CONTINUOUS
 10
7.082680
 20
2.075920
  0
VERTEX
  8
0
  6
CONTINUOUS
 10
7.077840
 20
1.331440
  0
VERTEX
  8
0
  6
CONTINUOUS
 10
7.057160
 20
1.344200
  0
SEQEND
  8
0
  0
SOLID
  8
0
 62
    15
 10
7.077840
 20
1.331440
 11
7.082680
 21
2.075920
 12
7.096320
 22
1.314280
 13
7.101160
 23
2.058760
  0
POLYLINE
  8
0
  6
CONTINUOUS
 66
     1
 40
0.000000
 41
0.000000
  0
VERTEX
  8
0
  6
CONTINUOUS
 10
7.077840
 20
1.331440
  0
VERTEX
  8
0
  6
CONTINUOUS
 10
7.082680
 20
2.075920
  0
VERTEX
  8
0
  6
CONTINUOUS
 10
7.101160
 20
2.058760
  0
VERTEX
  8
0
  6
CONTINUOUS
 10
7.096320
 20
1.314280
  0
VERTEX
  8
0
  6
CONTINUOUS
 10
7.077840
 20
1.331440
  0
SEQEND
  8
0
  0
SOLID
  8
0
 62
    15
 10
7.112160
 20
1.293160
 11
7.117000
 21
2.037640
 12
7.124040
 22
1.267640
 13
7.129320
 23
2.012120
  0
POLYLINE
  8
0
  6
CONTINUOUS
 66
     1
 40
0.000000
 41
0.000000
  0
VERTEX
  8
0
  6
CONTINUOUS
 10
7.112160
 20
1.293160
  0
VERTEX
  8
0
  6
CONTINUOUS
 10
7.117000
 20
2.037640
  0
VERTEX
  8
0
  6
CONTINUOUS
 10
7.129320
 20
2.012120
  0
VERTEX
  8
0
  6
CONTINUOUS
 10
7.124040
 20
1.267640
  0
VERTEX
  8
0
  6
CONTINUOUS
 10
7.112160
 20
1.293160
  0
SEQEND
  8
0
  0
SOLID
  8
0
 62
    15
 10
7.096320
 20
1.314280
 11
7.101160
 21
2.058760
 12
7.112160
 22
1.293160
 13
7.117000
 23
2.037640
  0
POLYLINE
  8
0
  6
CONTINUOUS
 66
     1
 40
0.000000
 41
0.000000
  0
VERTEX
  8
0
  6
CONTINUOUS
 10
7.096320
 20
1.314280
  0
VERTEX
  8
0
  6
CONTINUOUS
 10
7.101160
 20
2.058760
  0
VERTEX
  8
0
  6
CONTINUOUS
 10
7.117000
 20
2.037640
  0
VERTEX
  8
0
  6
CONTINUOUS
 10
7.112160
 20
1.293160
  0
VERTEX
  8
0
  6
CONTINUOUS
 10
7.096320
 20
1.314280
  0
SEQEND
  8
0
  0
SOLID
  8
0
 62
    15
 10
7.124040
 20
1.267640
 11
7.129320
 21
2.012120
 12
7.132400
 22
1.238160
 13
7.137240
 23
1.982640
  0
POLYLINE
  8
0
  6
CONTINUOUS
 66
     1
 40
0.000000
 41
0.000000
  0
VERTEX
  8
0
  6
CONTINUOUS
 10
7.124040
 20
1.267640
  0
VERTEX
  8
0
  6
CONTINUOUS
 10
7.129320
 20
2.012120
  0
VERTEX
  8
0
  6
CONTINUOUS
 10
7.137240
 20
1.982640
  0
VERTEX
  8
0
  6
CONTINUOUS
 10
7.132400
 20
1.238160
  0
VERTEX
  8
0
  6
CONTINUOUS
 10
7.124040
 20
1.267640
  0
SEQEND
  8
0
  0
SOLID
  8
0
 62
    15
 10
7.135040
 20
1.204720
 11
7.140320
 21
1.949200
 12
7.135040
 22
1.121120
 13
7.140320
 23
1.865600
  0
POLYLINE
  8
0
  6
CONTINUOUS
 66
     1
 40
0.000000
 41
0.000000
  0
VERTEX
  8
0
  6
CONTINUOUS
 10
7.135040
 20
1.204720
  0
VERTEX
  8
0
  6
CONTINUOUS
 10
7.140320
 20
1.949200
  0
VERTEX
  8
0
  6
CONTINUOUS
 10
7.140320
 20
1.865600
  0
VERTEX
  8
0
  6
CONTINUOUS
 10
7.135040
 20
1.121120
  0
VERTEX
  8
0
  6
CONTINUOUS
 10
7.135040
 20
1.204720
  0
SEQEND
  8
0
  0
POLYLINE
  8
0
  6
CONTINUOUS
 66
     1
 40
0.000000
 41
0.000000
  0
VERTEX
  8
0
  6
CONTINUOUS
 10
7.135040
 20
1.204720
  0
VERTEX
  8
0
  6
CONTINUOUS
 10
7.135040
 20
1.121120
  0
VERTEX
  8
0
  6
CONTINUOUS
 10
7.343160
 20
1.099120
  0
VERTEX
  8
0
  6
CONTINUOUS
 10
7.343160
 20
0.956560
  0
VERTEX
  8
0
  6
CONTINUOUS
 10
7.135040
 20
0.950400
  0
VERTEX
  8
0
  6
CONTINUOUS
 10
7.135040
 20
0.762080
  0
VERTEX
  8
0
  6
CONTINUOUS
 10
1.833920
 20
0.762080
  0
VERTEX
  8
0
  6
CONTINUOUS
 10
1.833920
 20
0.938960
  0
VERTEX
  8
0
  6
CONTINUOUS
 10
2.076360
 20
0.959200
  0
VERTEX
  8
0
  6
CONTINUOUS
 10
2.076360
 20
1.140040
  0
VERTEX
  8
0
  6
CONTINUOUS
 10
1.833920
 20
1.148400
  0
VERTEX
  8
0
  6
CONTINUOUS
 10
1.833920
 20
1.218360
  0
VERTEX
  8
0
  6
CONTINUOUS
 10
1.969440
 20
1.379840
  0
VERTEX
  8
0
  6
CONTINUOUS
 10
6.704280
 20
1.379840
  0
VERTEX
  8
0
  6
CONTINUOUS
 10
6.850800
 20
1.213080
  0
VERTEX
  8
0
  6
CONTINUOUS
 10
6.876760
 20
1.213080
  0
VERTEX
  8
0
  6
CONTINUOUS
 10
6.882920
 20
1.248720
  0
VERTEX
  8
0
  6
CONTINUOUS
 10
6.893480
 20
1.278640
  0
VERTEX
  8
0
  6
CONTINUOUS
 10
6.907560
 20
1.303720
  0
VERTEX
  8
0
  6
CONTINUOUS
 10
6.925160
 20
1.323960
  0
VERTEX
  8
0
  6
CONTINUOUS
 10
6.944520
 20
1.338920
  0
VERTEX
  8
0
  6
CONTINUOUS
 10
6.966080
 20
1.349480
  0
VERTEX
  8
0
  6
CONTINUOUS
 10
6.988960
 20
1.355200
  0
VERTEX
  8
0
  6
CONTINUOUS
 10
7.012280
 20
1.355640
  0
VERTEX
  8
0
  6
CONTINUOUS
 10
7.035160
 20
1.352120
  0
VERTEX
  8
0
  6
CONTINUOUS
 10
7.057160
 20
1.344200
  0
VERTEX
  8
0
  6
CONTINUOUS
 10
7.077840
 20
1.331440
  0
VERTEX
  8
0
  6
CONTINUOUS
 10
7.096320
 20
1.314280
  0
VERTEX
  8
0
  6
CONTINUOUS
 10
7.112160
 20
1.293160
  0
VERTEX
  8
0
  6
CONTINUOUS
 10
7.124040
 20
1.267640
  0
VERTEX
  8
0
  6
CONTINUOUS
 10
7.132400
 20
1.238160
  0
VERTEX
  8
0
  6
CONTINUOUS
 10
7.135480
 20
1.204720
  0
VERTEX
  8
0
  6
CONTINUOUS
 10
7.135040
 20
1.204720
  0
SEQEND
  8
0
  0
TEXT
  8
0
 10
4.295280
 20
0.512160
 40
0.138076
  1
BA  805
 41
1.000000
  7
SN0
 71
     0
 72
     5
 11
4.887791
 21
0.512160
  0
TEXT
  8
0
 10
4.139520
 20
0.320760
 40
0.138076
  1
5/8" x 5-7/8"
 41
1.000000
  7
SN0
 71
     0
 72
     5
 11
5.044166
 21
0.320760
  0
POLYLINE
  8
0
  6
CONTINUOUS
 66
     1
 40
0.014080
 41
0.014080
  0
VERTEX
  8
0
  6
CONTINUOUS
 10
6.883360
 20
2.815560
  0
VERTEX
  8
0
  6
CONTINUOUS
 10
6.880280
 20
2.849000
  0
VERTEX
  8
0
  6
CONTINUOUS
 10
6.871920
 20
2.878480
  0
VERTEX
  8
0
  6
CONTINUOUS
 10
6.860040
 20
2.904000
  0
VERTEX
  8
0
  6
CONTINUOUS
 10
6.844200
 20
2.925120
  0
VERTEX
  8
0
  6
CONTINUOUS
 10
6.825720
 20
2.942280
  0
VERTEX
  8
0
  6
CONTINUOUS
 10
6.805040
 20
2.955040
  0
VERTEX
  8
0
  6
CONTINUOUS
 10
6.783040
 20
2.962960
  0
VERTEX
  8
0
  6
CONTINUOUS
 10
6.759720
 20
2.966920
  0
VERTEX
  8
0
  6
CONTINUOUS
 10
6.736840
 20
2.966040
  0
VERTEX
  8
0
  6
CONTINUOUS
 10
6.713960
 20
2.960320
  0
VERTEX
  8
0
  6
CONTINUOUS
 10
6.702960
 20
2.955920
  0
VERTEX
  8
0
  6
CONTINUOUS
 10
6.682280
 20
2.943160
  0
VERTEX
  8
0
  6
CONTINUOUS
 10
6.663360
 20
2.925560
  0
VERTEX
  8
0
  6
CONTINUOUS
 10
6.647520
 20
2.902680
  0
VERTEX
  8
0
  6
CONTINUOUS
 10
6.635200
 20
2.874960
  0
VERTEX
  8
0
  6
CONTINUOUS
 10
6.626840
 20
2.842400
  0
VERTEX
  8
0
  6
CONTINUOUS
 10
6.624200
 20
2.823920
  0
VERTEX
  8
0
  6
CONTINUOUS
 10
6.598680
 20
2.823920
  0
VERTEX
  8
0
  6
CONTINUOUS
 10
6.451720
 20
2.990680
  0
VERTEX
  8
0
  6
CONTINUOUS
 10
1.717320
 20
2.990680
  0
VERTEX
  8
0
  6
CONTINUOUS
 10
1.581360
 20
2.829200
  0
VERTEX
  8
0
  6
CONTINUOUS
 10
1.581360
 20
2.759240
  0
VERTEX
  8
0
  6
CONTINUOUS
 10
1.824240
 20
2.751320
  0
VERTEX
  8
0
  6
CONTINUOUS
 10
1.824240
 20
2.570040
  0
VERTEX
  8
0
  6
CONTINUOUS
 10
1.581360
 20
2.549800
  0
VERTEX
  8
0
  6
CONTINUOUS
 10
1.581360
 20
2.372920
  0
VERTEX
  8
0
  6
CONTINUOUS
 10
6.882920
 20
2.372920
  0
VERTEX
  8
0
  6
CONTINUOUS
 10
6.882920
 20
2.561240
  0
VERTEX
  8
0
  6
CONTINUOUS
 10
7.090600
 20
2.567400
  0
VERTEX
  8
0
  6
CONTINUOUS
 10
7.090600
 20
2.709960
  0
VERTEX
  8
0
  6
CONTINUOUS
 10
6.882920
 20
2.731960
  0
VERTEX
  8
0
  6
CONTINUOUS
 10
6.883360
 20
2.815560
  0
SEQEND
  8
0
  0
POLYLINE
  8
0
  6
CONTINUOUS
 66
     1
 40
0.000000
 41
0.000000
  0
VERTEX
  8
0
  6
CONTINUOUS
 10
2.529560
 20
5.474920
  0
VERTEX
  8
0
  6
CONTINUOUS
 10
3.376560
 20
3.780920
  0
VERTEX
  8
0
  6
CONTINUOUS
 10
4.223560
 20
3.780920
  0
SEQEND
  8
0
  0
SOLID
  8
0
 10
2.585440
 20
5.433120
 11
2.529560
 21
5.474920
 12
2.543200
 22
5.446760
 13
2.529560
 23
5.404960
  0
POLYLINE
  8
0
  6
CONTINUOUS
 66
     1
 40
0.000000
 41
0.000000
  0
VERTEX
  8
0
  6
CONTINUOUS
 10
2.585440
 20
5.433120
  0
VERTEX
  8
0
  6
CONTINUOUS
 10
2.529560
 20
5.474920
  0
VERTEX
  8
0
  6
CONTINUOUS
 10
2.529560
 20
5.404960
  0
VERTEX
  8
0
  6
CONTINUOUS
 10
2.543200
 20
5.446760
  0
VERTEX
  8
0
  6
CONTINUOUS
 10
2.585440
 20
5.433120
  0
SEQEND
  8
0
  0
LINE
  8
0
  6
CONTINUOUS
 10
4.223560
 20
3.883440
 11
4.223560
 21
3.639680
  0
SOLID
  8
0
 62
     7
 10
4.317280
 20
3.883440
 11
5.407600
 21
3.883440
 12
4.317280
 22
3.639680
 13
5.407600
 23
3.639680
  0
POLYLINE
  8
0
  6
CONTINUOUS
 66
     1
 40
0.000000
 41
0.000000
  0
VERTEX
  8
0
  6
CONTINUOUS
 10
4.317280
 20
3.883440
  0
VERTEX
  8
0
  6
CONTINUOUS
 10
5.407600
 20
3.883440
  0
VERTEX
  8
0
  6
CONTINUOUS
 10
5.407600
 20
3.639680
  0
VERTEX
  8
0
  6
CONTINUOUS
 10
4.317280
 20
3.639680
  0
VERTEX
  8
0
  6
CONTINUOUS
 10
4.317280
 20
3.883440
  0
SEQEND
  8
0
  0
SOLID
  8
0
 62
     7
 10
4.345000
 20
3.855280
 11
5.380320
 21
3.855280
 12
4.345000
 22
3.663880
 13
5.380320
 23
3.663880
  0
POLYLINE
  8
0
 62
     7
  6
CONTINUOUS
 66
     1
 40
0.000000
 41
0.000000
  0
VERTEX
  8
0
 62
     7
  6
CONTINUOUS
 10
4.345000
 20
3.855280
  0
VERTEX
  8
0
 62
     7
  6
CONTINUOUS
 10
5.380320
 20
3.855280
  0
VERTEX
  8
0
 62
     7
  6
CONTINUOUS
 10
5.380320
 20
3.663880
  0
VERTEX
  8
0
 62
     7
  6
CONTINUOUS
 10
4.345000
 20
3.663880
  0
VERTEX
  8
0
 62
     7
  6
CONTINUOUS
 10
4.345000
 20
3.855280
  0
SEQEND
  8
0
  0
SOLID
  8
0
 62
     7
 10
4.345000
 20
3.855280
 11
4.345000
 21
3.663440
 12
5.379880
 22
3.855280
 13
5.379880
 23
3.663440
  0
POLYLINE
  8
0
 62
     7
  6
CONTINUOUS
 66
     1
 40
0.000000
 41
0.000000
  0
VERTEX
  8
0
 62
     7
  6
CONTINUOUS
 10
4.345000
 20
3.855280
  0
VERTEX
  8
0
 62
     7
  6
CONTINUOUS
 10
4.345000
 20
3.663440
  0
VERTEX
  8
0
 62
     7
  6
CONTINUOUS
 10
5.379880
 20
3.663440
  0
VERTEX
  8
0
 62
     7
  6
CONTINUOUS
 10
5.379880
 20
3.855280
  0
VERTEX
  8
0
 62
     7
  6
CONTINUOUS
 10
4.345000
 20
3.855280
  0
SEQEND
  8
0
  0
TEXT
  8
0
 10
4.345000
 20
3.709640
 40
0.126431
  1
Width = 5.5523 in
 41
1.000000
  7
SN1
 71
     0
 72
     5
 11
5.535467
 21
3.709640
  0
POLYLINE
  8
0
  6
CONTINUOUS
 66
     1
 40
0.000000
 41
0.000000
  0
VERTEX
  8
0
  6
CONTINUOUS
 10
3.104640
 20
8.708480
  0
VERTEX
  8
0
  6
CONTINUOUS
 10
2.959000
 20
9.212280
  0
VERTEX
  8
0
  6
CONTINUOUS
 10
2.813800
 20
9.212280
  0
SEQEND
  8
0
  0
SOLID
  8
0
 10
3.057120
 20
8.759960
 11
3.104640
 21
8.708480
 12
3.095840
 22
8.738400
 13
3.117400
 23
8.777120
  0
POLYLINE
  8
0
  6
CONTINUOUS
 66
     1
 40
0.000000
 41
0.000000
  0
VERTEX
  8
0
  6
CONTINUOUS
 10
3.057120
 20
8.759960
  0
VERTEX
  8
0
  6
CONTINUOUS
 10
3.104640
 20
8.708480
  0
VERTEX
  8
0
  6
CONTINUOUS
 10
3.117400
 20
8.777120
  0
VERTEX
  8
0
  6
CONTINUOUS
 10
3.095840
 20
8.738400
  0
VERTEX
  8
0
  6
CONTINUOUS
 10
3.057120
 20
8.759960
  0
SEQEND
  8
0
  0
LINE
  8
0
  6
CONTINUOUS
 10
2.813800
 20
9.315240
 11
2.813800
 21
9.071040
  0
SOLID
  8
0
 62
     7
 10
1.629320
 20
9.315240
 11
2.720080
 21
9.315240
 12
1.629320
 22
9.071040
 13
2.720080
 23
9.071040
  0
POLYLINE
  8
0
  6
CONTINUOUS
 66
     1
 40
0.000000
 41
0.000000
  0
VERTEX
  8
0
  6
CONTINUOUS
 10
1.629320
 20
9.315240
  0
VERTEX
  8
0
  6
CONTINUOUS
 10
2.720080
 20
9.315240
  0
VERTEX
  8
0
  6
CONTINUOUS
 10
2.720080
 20
9.071040
  0
VERTEX
  8
0
  6
CONTINUOUS
 10
1.629320
 20
9.071040
  0
VERTEX
  8
0
  6
CONTINUOUS
 10
1.629320
 20
9.315240
  0
SEQEND
  8
0
  0
SOLID
  8
0
 62
     7
 10
1.657040
 20
9.287080
 11
2.692360
 21
9.287080
 12
1.657040
 22
9.095240
 13
2.692360
 23
9.095240
  0
POLYLINE
  8
0
 62
     7
  6
CONTINUOUS
 66
     1
 40
0.000000
 41
0.000000
  0
VERTEX
  8
0
 62
     7
  6
CONTINUOUS
 10
1.657040
 20
9.287080
  0
VERTEX
  8
0
 62
     7
  6
CONTINUOUS
 10
2.692360
 20
9.287080
  0
VERTEX
  8
0
 62
     7
  6
CONTINUOUS
 10
2.692360
 20
9.095240
  0
VERTEX
  8
0
 62
     7
  6
CONTINUOUS
 10
1.657040
 20
9.095240
  0
VERTEX
  8
0
 62
     7
  6
CONTINUOUS
 10
1.657040
 20
9.287080
  0
SEQEND
  8
0
  0
SOLID
  8
0
 62
     7
 10
1.657040
 20
9.287080
 11
1.657040
 21
9.095240
 12
2.691920
 22
9.287080
 13
2.691920
 23
9.095240
  0
POLYLINE
  8
0
 62
     7
  6
CONTINUOUS
 66
     1
 40
0.000000
 41
0.000000
  0
VERTEX
  8
0
 62
     7
  6
CONTINUOUS
 10
1.657040
 20
9.287080
  0
VERTEX
  8
0
 62
     7
  6
CONTINUOUS
 10
1.657040
 20
9.095240
  0
VERTEX
  8
0
 62
     7
  6
CONTINUOUS
 10
2.691920
 20
9.095240
  0
VERTEX
  8
0
 62
     7
  6
CONTINUOUS
 10
2.691920
 20
9.287080
  0
VERTEX
  8
0
 62
     7
  6
CONTINUOUS
 10
1.657040
 20
9.287080
  0
SEQEND
  8
0
  0
TEXT
  8
0
 10
1.657040
 20
9.141440
 40
0.126431
  1
Width = 5.5506 in
 41
1.000000
  7
SN1
 71
     0
 72
     5
 11
2.847507
 21
9.141440
  0
POLYLINE
  8
0
  6
CONTINUOUS
 66
     1
 40
0.000000
 41
0.000000
  0
VERTEX
  8
0
  6
CONTINUOUS
 10
4.504720
 20
8.707600
  0
VERTEX
  8
0
  6
CONTINUOUS
 10
4.947800
 20
9.219320
  0
VERTEX
  8
0
  6
CONTINUOUS
 10
5.390440
 20
9.219320
  0
SEQEND
  8
0
  0
SOLID
  8
0
 10
4.521880
 20
8.775360
 11
4.504720
 21
8.707600
 12
4.525400
 22
8.731360
 13
4.569400
 23
8.734440
  0
POLYLINE
  8
0
  6
CONTINUOUS
 66
     1
 40
0.000000
 41
0.000000
  0
VERTEX
  8
0
  6
CONTINUOUS
 10
4.521880
 20
8.775360
  0
VERTEX
  8
0
  6
CONTINUOUS
 10
4.504720
 20
8.707600
  0
VERTEX
  8
0
  6
CONTINUOUS
 10
4.569400
 20
8.734440
  0
VERTEX
  8
0
  6
CONTINUOUS
 10
4.525400
 20
8.731360
  0
VERTEX
  8
0
  6
CONTINUOUS
 10
4.521880
 20
8.775360
  0
SEQEND
  8
0
  0
LINE
  8
0
  6
CONTINUOUS
 10
5.390440
 20
9.321840
 11
5.390440
 21
9.078080
  0
SOLID
  8
0
 62
     7
 10
5.484160
 20
9.321840
 11
6.558200
 21
9.321840
 12
5.484160
 22
9.078080
 13
6.558200
 23
9.078080
  0
POLYLINE
  8
0
  6
CONTINUOUS
 66
     1
 40
0.000000
 41
0.000000
  0
VERTEX
  8
0
  6
CONTINUOUS
 10
5.484160
 20
9.321840
  0
VERTEX
  8
0
  6
CONTINUOUS
 10
6.558200
 20
9.321840
  0
VERTEX
  8
0
  6
CONTINUOUS
 10
6.558200
 20
9.078080
  0
VERTEX
  8
0
  6
CONTINUOUS
 10
5.484160
 20
9.078080
  0
VERTEX
  8
0
  6
CONTINUOUS
 10
5.484160
 20
9.321840
  0
SEQEND
  8
0
  0
SOLID
  8
0
 62
     7
 10
5.511880
 20
9.293680
 11
6.530040
 21
9.293680
 12
5.511880
 22
9.102280
 13
6.530040
 23
9.102280
  0
POLYLINE
  8
0
 62
     7
  6
CONTINUOUS
 66
     1
 40
0.000000
 41
0.000000
  0
VERTEX
  8
0
 62
     7
  6
CONTINUOUS
 10
5.511880
 20
9.293680
  0
VERTEX
  8
0
 62
     7
  6
CONTINUOUS
 10
6.530040
 20
9.293680
  0
VERTEX
  8
0
 62
     7
  6
CONTINUOUS
 10
6.530040
 20
9.102280
  0
VERTEX
  8
0
 62
     7
  6
CONTINUOUS
 10
5.511880
 20
9.102280
  0
VERTEX
  8
0
 62
     7
  6
CONTINUOUS
 10
5.511880
 20
9.293680
  0
SEQEND
  8
0
  0
SOLID
  8
0
 62
     7
 10
5.511880
 20
9.293680
 11
5.511880
 21
9.101840
 12
6.529160
 22
9.293680
 13
6.529160
 23
9.101840
  0
POLYLINE
  8
0
 62
     7
  6
CONTINUOUS
 66
     1
 40
0.000000
 41
0.000000
  0
VERTEX
  8
0
 62
     7
  6
CONTINUOUS
 10
5.511880
 20
9.293680
  0
VERTEX
  8
0
 62
     7
  6
CONTINUOUS
 10
5.511880
 20
9.101840
  0
VERTEX
  8
0
 62
     7
  6
CONTINUOUS
 10
6.529160
 20
9.101840
  0
VERTEX
  8
0
 62
     7
  6
CONTINUOUS
 10
6.529160
 20
9.293680
  0
VERTEX
  8
0
 62
     7
  6
CONTINUOUS
 10
5.511880
 20
9.293680
  0
SEQEND
  8
0
  0
TEXT
  8
0
 10
5.511880
 20
9.148040
 40
0.126431
  1
Height = .7479 in
 41
1.000000
  7
SN1
 71
     0
 72
     5
 11
6.668774
 21
9.148040
  0
POLYLINE
  8
0
  6
CONTINUOUS
 66
     1
 40
0.000000
 41
0.000000
  0
VERTEX
  8
0
  6
CONTINUOUS
 10
3.930080
 20
5.476680
  0
VERTEX
  8
0
  6
CONTINUOUS
 10
4.356440
 20
4.624400
  0
VERTEX
  8
0
  6
CONTINUOUS
 10
4.782360
 20
4.624400
  0
SEQEND
  8
0
  0
SOLID
  8
0
 10
3.986400
 20
5.434880
 11
3.930080
 21
5.476680
 12
3.944160
 22
5.448960
 13
3.930520
 23
5.406720
  0
POLYLINE
  8
0
  6
CONTINUOUS
 66
     1
 40
0.000000
 41
0.000000
  0
VERTEX
  8
0
  6
CONTINUOUS
 10
3.986400
 20
5.434880
  0
VERTEX
  8
0
  6
CONTINUOUS
 10
3.930080
 20
5.476680
  0
VERTEX
  8
0
  6
CONTINUOUS
 10
3.930520
 20
5.406720
  0
VERTEX
  8
0
  6
CONTINUOUS
 10
3.944160
 20
5.448960
  0
VERTEX
  8
0
  6
CONTINUOUS
 10
3.986400
 20
5.434880
  0
SEQEND
  8
0
  0
LINE
  8
0
  6
CONTINUOUS
 10
4.782360
 20
4.727360
 11
4.782360
 21
4.483160
  0
SOLID
  8
0
 62
     7
 10
4.876080
 20
4.727360
 11
5.950120
 21
4.727360
 12
4.876080
 22
4.483160
 13
5.950120
 23
4.483160
  0
POLYLINE
  8
0
  6
CONTINUOUS
 66
     1
 40
0.000000
 41
0.000000
  0
VERTEX
  8
0
  6
CONTINUOUS
 10
4.876080
 20
4.727360
  0
VERTEX
  8
0
  6
CONTINUOUS
 10
5.950120
 20
4.727360
  0
VERTEX
  8
0
  6
CONTINUOUS
 10
5.950120
 20
4.483160
  0
VERTEX
  8
0
  6
CONTINUOUS
 10
4.876080
 20
4.483160
  0
VERTEX
  8
0
  6
CONTINUOUS
 10
4.876080
 20
4.727360
  0
SEQEND
  8
0
  0
SOLID
  8
0
 62
     7
 10
4.904240
 20
4.699200
 11
5.921960
 21
4.699200
 12
4.904240
 22
4.507360
 13
5.921960
 23
4.507360
  0
POLYLINE
  8
0
 62
     7
  6
CONTINUOUS
 66
     1
 40
0.000000
 41
0.000000
  0
VERTEX
  8
0
 62
     7
  6
CONTINUOUS
 10
4.904240
 20
4.699200
  0
VERTEX
  8
0
 62
     7
  6
CONTINUOUS
 10
5.921960
 20
4.699200
  0
VERTEX
  8
0
 62
     7
  6
CONTINUOUS
 10
5.921960
 20
4.507360
  0
VERTEX
  8
0
 62
     7
  6
CONTINUOUS
 10
4.904240
 20
4.507360
  0
VERTEX
  8
0
 62
     7
  6
CONTINUOUS
 10
4.904240
 20
4.699200
  0
SEQEND
  8
0
  0
SOLID
  8
0
 62
     7
 10
4.904240
 20
4.699200
 11
4.904240
 21
4.507360
 12
5.921520
 22
4.699200
 13
5.921520
 23
4.507360
  0
POLYLINE
  8
0
 62
     7
  6
CONTINUOUS
 66
     1
 40
0.000000
 41
0.000000
  0
VERTEX
  8
0
 62
     7
  6
CONTINUOUS
 10
4.904240
 20
4.699200
  0
VERTEX
  8
0
 62
     7
  6
CONTINUOUS
 10
4.904240
 20
4.507360
  0
VERTEX
  8
0
 62
     7
  6
CONTINUOUS
 10
5.921520
 20
4.507360
  0
VERTEX
  8
0
 62
     7
  6
CONTINUOUS
 10
5.921520
 20
4.699200
  0
VERTEX
  8
0
 62
     7
  6
CONTINUOUS
 10
4.904240
 20
4.699200
  0
SEQEND
  8
0
  0
TEXT
  8
0
 10
4.904240
 20
4.553560
 40
0.126431
  1
Height = .8759 in
 41
1.000000
  7
SN1
 71
     0
 72
     5
 11
6.061134
 21
4.553560
  0
ENDSEC
  0
EOF
