  0
SECTION
  2
HEADER
  9
$ACADVER
  1
AC1006
  9
$EXTMIN
 10
1.827760
 20
0.457160
  9
$EXTMAX
 10
7.187840
 20
3.681040
  9
$LTSCALE
 40
0.044000
  9
$PDMODE
 70
    35
  9
$PDSIZE
 40
0.035200
  0
ENDSEC
  0
SECTION
  2
TABLES
  0
TABLE
  2
LTYPE
 70
     9
  0
LTYPE
  2
CONTINUOUS
 70
    64
  3
Solid line
 72
    65
 73
     0
 40
0.000000
  0
LTYPE
  2
DASHED
 70
    64
  3
__ __ __ __ __ __ __ __ __ __ __ __ __ __ __
 72
    65
 73
     2
 40
0.000330
 49
0.000220
 49
-0.000110
  0
LTYPE
  2
HIDDEN
 70
    64
  3
 _ _ _ _ _ _ _ _ _ _ _ _ _ _ _ _ _ _ _ _ _ _
 72
    65
 73
     2
 40
0.000165
 49
0.000110
 49
-0.000055
  0
LTYPE
  2
CENTER
 70
    64
  3
____ _ ____ _ ____ _ ____ _ ____ _ ____ _ ____
 72
    65
 73
     4
 40
0.000880
 49
0.000550
 49
-0.000110
 49
0.000110
 49
-0.000110
  0
LTYPE
  2
PHANTOM
 70
    64
  3
_____ _ _ _____ _ _ _____ _ _ _____ _ _ ____
 72
    65
 73
     6
 40
0.001100
 49
0.000550
 49
-0.000110
 49
0.000110
 49
-0.000110
 49
0.000110
 49
-0.000110
  0
LTYPE
  2
DOT
 70
    64
  3
...............................................
 72
    65
 73
     2
 40
0.000110
 49
0.000000
 49
-0.000110
  0
LTYPE
  2
DASHDOT
 70
    64
  3
__ . __ . __ . __ . __ . __ . __ . __ . __ . __
 72
    65
 73
     4
 40
0.000440
 49
0.000220
 49
-0.000110
 49
0.000000
 49
-0.000110
  0
LTYPE
  2
BORDER
 70
    64
  3
__ __ . __ __ . __ __ . __ __ . __ __ . __ __
 72
    65
 73
     6
 40
0.000770
 49
0.000220
 49
-0.000110
 49
0.000220
 49
-0.000110
 49
0.000000
 49
-0.000110
  0
LTYPE
  2
DIVIDE
 70
    64
  3
__ . . __ . . __ . . __ . . __ . . __ . . __
 72
    65
 73
     6
 40
0.000550
 49
0.000220
 49
-0.000110
 49
0.000000
 49
-0.000110
 49
0.000000
 49
-0.000110
  0
LTYPE
  2
DOTDOT
 70
    64
  3
 . .  . .  . .  . .  . .  . . 
 72
    65
 73
     5
 40
0.000242
 49
-0.000110
 49
0.000000
 49
-0.000110
 49
0.000000
 49
-0.000110
  0
ENDTAB
  0
TABLE
  2
STYLE
 70
     2
  0
STYLE
 70
     0
  2
SN0
 40
0.000000
 41
0.000440
 50
0.000000
 71
     0
 42
0.000000
  3
ROMAND
  0
STYLE
 70
    68
  2
SV0
 40
0.000000
 41
0.000440
 50
0.000000
 71
     0
 42
0.000000
  3
ROMAND
  0
ENDTAB
  0
TABLE
  2
LAYER
 70
     3
  0
LAYER
  2
FOREGROUND
 70
    64
 62
     7
  6
CONTINUOUS
  0
LAYER
  2
BACKGROUND
 70
    65
 62
    -7
  6
CONTINUOUS
  0
LAYER
  2
0
 70
    64
 62
     7
  6
CONTINUOUS
  0
ENDTAB
  0
ENDSEC
  0
SECTION
  2
ENTITIES
  0
POLYLINE
  8
FOREGROUND
  6
CONTINUOUS
 66
     1
 40
0.000000
 41
0.000000
  0
VERTEX
  8
FOREGROUND
  6
CONTINUOUS
 10
0.000000
 20
4.138200
  0
VERTEX
  8
FOREGROUND
  6
CONTINUOUS
 10
8.499920
 20
4.138200
  0
VERTEX
  8
FOREGROUND
  6
CONTINUOUS
 10
8.499920
 20
-6.861800
  0
VERTEX
  8
FOREGROUND
  6
CONTINUOUS
 10
0.000000
 20
-6.861800
  0
VERTEX
  8
FOREGROUND
  6
CONTINUOUS
 10
0.000000
 20
4.138200
  0
SEQEND
  8
0
  0
POLYLINE
  8
FOREGROUND
  6
CONTINUOUS
 66
     1
 40
0.000000
 41
0.000000
  0
VERTEX
  8
FOREGROUND
  6
CONTINUOUS
 10
0.000000
 20
4.138200
  0
VERTEX
  8
FOREGROUND
  6
CONTINUOUS
 10
8.499920
 20
4.138200
  0
VERTEX
  8
FOREGROUND
  6
CONTINUOUS
 10
8.499920
 20
-6.861800
  0
VERTEX
  8
FOREGROUND
  6
CONTINUOUS
 10
0.000000
 20
-6.861800
  0
VERTEX
  8
FOREGROUND
  6
CONTINUOUS
 10
0.000000
 20
4.138200
  0
SEQEND
  8
0
  0
SOLID
  8
0
 62
    15
 10
3.276680
 20
2.043800
 11
3.922160
 21
1.679040
 12
3.245440
 22
1.980440
 13
3.891360
 23
1.616120
  0
POLYLINE
  8
0
  6
CONTINUOUS
 66
     1
 40
0.000000
 41
0.000000
  0
VERTEX
  8
0
  6
CONTINUOUS
 10
3.276680
 20
2.043800
  0
VERTEX
  8
0
  6
CONTINUOUS
 10
3.922160
 20
1.679040
  0
VERTEX
  8
0
  6
CONTINUOUS
 10
3.891360
 20
1.616120
  0
VERTEX
  8
0
  6
CONTINUOUS
 10
3.245440
 20
1.980440
  0
VERTEX
  8
0
  6
CONTINUOUS
 10
3.276680
 20
2.043800
  0
SEQEND
  8
0
  0
SOLID
  8
0
 62
    15
 10
4.110920
 20
3.680600
 11
4.756400
 21
3.316280
 12
4.101240
 22
2.896080
 13
4.746720
 23
2.531760
  0
POLYLINE
  8
0
  6
CONTINUOUS
 66
     1
 40
0.000000
 41
0.000000
  0
VERTEX
  8
0
  6
CONTINUOUS
 10
4.110920
 20
3.680600
  0
VERTEX
  8
0
  6
CONTINUOUS
 10
4.756400
 20
3.316280
  0
VERTEX
  8
0
  6
CONTINUOUS
 10
4.746720
 20
2.531760
  0
VERTEX
  8
0
  6
CONTINUOUS
 10
4.101240
 20
2.896080
  0
VERTEX
  8
0
  6
CONTINUOUS
 10
4.110920
 20
3.680600
  0
SEQEND
  8
0
  0
SOLID
  8
0
 62
    15
 10
4.101240
 20
2.896080
 11
4.746720
 21
2.531760
 12
4.011040
 22
2.868800
 13
4.656520
 23
2.504040
  0
POLYLINE
  8
0
  6
CONTINUOUS
 66
     1
 40
0.000000
 41
0.000000
  0
VERTEX
  8
0
  6
CONTINUOUS
 10
4.101240
 20
2.896080
  0
VERTEX
  8
0
  6
CONTINUOUS
 10
4.746720
 20
2.531760
  0
VERTEX
  8
0
  6
CONTINUOUS
 10
4.656520
 20
2.504040
  0
VERTEX
  8
0
  6
CONTINUOUS
 10
4.011040
 20
2.868800
  0
VERTEX
  8
0
  6
CONTINUOUS
 10
4.101240
 20
2.896080
  0
SEQEND
  8
0
  0
SOLID
  8
0
 62
    15
 10
4.011040
 20
2.868800
 11
4.656520
 21
2.504040
 12
3.926560
 22
2.831840
 13
4.572480
 23
2.467520
  0
POLYLINE
  8
0
  6
CONTINUOUS
 66
     1
 40
0.000000
 41
0.000000
  0
VERTEX
  8
0
  6
CONTINUOUS
 10
4.011040
 20
2.868800
  0
VERTEX
  8
0
  6
CONTINUOUS
 10
4.656520
 20
2.504040
  0
VERTEX
  8
0
  6
CONTINUOUS
 10
4.572480
 20
2.467520
  0
VERTEX
  8
0
  6
CONTINUOUS
 10
3.926560
 20
2.831840
  0
VERTEX
  8
0
  6
CONTINUOUS
 10
4.011040
 20
2.868800
  0
SEQEND
  8
0
  0
SOLID
  8
0
 62
    15
 10
3.926560
 20
2.831840
 11
4.572480
 21
2.467520
 12
3.774320
 22
2.734600
 13
4.419800
 23
2.370280
  0
POLYLINE
  8
0
  6
CONTINUOUS
 66
     1
 40
0.000000
 41
0.000000
  0
VERTEX
  8
0
  6
CONTINUOUS
 10
3.926560
 20
2.831840
  0
VERTEX
  8
0
  6
CONTINUOUS
 10
4.572480
 20
2.467520
  0
VERTEX
  8
0
  6
CONTINUOUS
 10
4.419800
 20
2.370280
  0
VERTEX
  8
0
  6
CONTINUOUS
 10
3.774320
 20
2.734600
  0
VERTEX
  8
0
  6
CONTINUOUS
 10
3.926560
 20
2.831840
  0
SEQEND
  8
0
  0
SOLID
  8
0
 62
    15
 10
3.774320
 20
2.734600
 11
4.419800
 21
2.370280
 12
3.642320
 22
2.612720
 13
4.287800
 23
2.248400
  0
POLYLINE
  8
0
  6
CONTINUOUS
 66
     1
 40
0.000000
 41
0.000000
  0
VERTEX
  8
0
  6
CONTINUOUS
 10
3.774320
 20
2.734600
  0
VERTEX
  8
0
  6
CONTINUOUS
 10
4.419800
 20
2.370280
  0
VERTEX
  8
0
  6
CONTINUOUS
 10
4.287800
 20
2.248400
  0
VERTEX
  8
0
  6
CONTINUOUS
 10
3.642320
 20
2.612720
  0
VERTEX
  8
0
  6
CONTINUOUS
 10
3.774320
 20
2.734600
  0
SEQEND
  8
0
  0
SOLID
  8
0
 62
    15
 10
3.642320
 20
2.612720
 11
4.287800
 21
2.248400
 12
3.527920
 22
2.474560
 13
4.173840
 23
2.110240
  0
POLYLINE
  8
0
  6
CONTINUOUS
 66
     1
 40
0.000000
 41
0.000000
  0
VERTEX
  8
0
  6
CONTINUOUS
 10
3.642320
 20
2.612720
  0
VERTEX
  8
0
  6
CONTINUOUS
 10
4.287800
 20
2.248400
  0
VERTEX
  8
0
  6
CONTINUOUS
 10
4.173840
 20
2.110240
  0
VERTEX
  8
0
  6
CONTINUOUS
 10
3.527920
 20
2.474560
  0
VERTEX
  8
0
  6
CONTINUOUS
 10
3.642320
 20
2.612720
  0
SEQEND
  8
0
  0
SOLID
  8
0
 62
    15
 10
3.527920
 20
2.474560
 11
4.173840
 21
2.110240
 12
3.430240
 22
2.328040
 13
4.076160
 23
1.963720
  0
POLYLINE
  8
0
  6
CONTINUOUS
 66
     1
 40
0.000000
 41
0.000000
  0
VERTEX
  8
0
  6
CONTINUOUS
 10
3.527920
 20
2.474560
  0
VERTEX
  8
0
  6
CONTINUOUS
 10
4.173840
 20
2.110240
  0
VERTEX
  8
0
  6
CONTINUOUS
 10
4.076160
 20
1.963720
  0
VERTEX
  8
0
  6
CONTINUOUS
 10
3.430240
 20
2.328040
  0
VERTEX
  8
0
  6
CONTINUOUS
 10
3.527920
 20
2.474560
  0
SEQEND
  8
0
  0
SOLID
  8
0
 62
    15
 10
3.430240
 20
2.328040
 11
4.076160
 21
1.963720
 12
3.347080
 22
2.181520
 13
3.993000
 23
1.817200
  0
POLYLINE
  8
0
  6
CONTINUOUS
 66
     1
 40
0.000000
 41
0.000000
  0
VERTEX
  8
0
  6
CONTINUOUS
 10
3.430240
 20
2.328040
  0
VERTEX
  8
0
  6
CONTINUOUS
 10
4.076160
 20
1.963720
  0
VERTEX
  8
0
  6
CONTINUOUS
 10
3.993000
 20
1.817200
  0
VERTEX
  8
0
  6
CONTINUOUS
 10
3.347080
 20
2.181520
  0
VERTEX
  8
0
  6
CONTINUOUS
 10
3.430240
 20
2.328040
  0
SEQEND
  8
0
  0
SOLID
  8
0
 62
    15
 10
3.347080
 20
2.181520
 11
3.993000
 21
1.817200
 12
3.276680
 22
2.043800
 13
3.922160
 23
1.679040
  0
POLYLINE
  8
0
  6
CONTINUOUS
 66
     1
 40
0.000000
 41
0.000000
  0
VERTEX
  8
0
  6
CONTINUOUS
 10
3.347080
 20
2.181520
  0
VERTEX
  8
0
  6
CONTINUOUS
 10
3.993000
 20
1.817200
  0
VERTEX
  8
0
  6
CONTINUOUS
 10
3.922160
 20
1.679040
  0
VERTEX
  8
0
  6
CONTINUOUS
 10
3.276680
 20
2.043800
  0
VERTEX
  8
0
  6
CONTINUOUS
 10
3.347080
 20
2.181520
  0
SEQEND
  8
0
  0
SOLID
  8
0
 62
    15
 10
2.333320
 20
0.849200
 11
2.978800
 21
0.484440
 12
1.828640
 22
0.850960
 13
2.474120
 23
0.486640
  0
POLYLINE
  8
0
  6
CONTINUOUS
 66
     1
 40
0.000000
 41
0.000000
  0
VERTEX
  8
0
  6
CONTINUOUS
 10
2.333320
 20
0.849200
  0
VERTEX
  8
0
  6
CONTINUOUS
 10
2.978800
 20
0.484440
  0
VERTEX
  8
0
  6
CONTINUOUS
 10
2.474120
 20
0.486640
  0
VERTEX
  8
0
  6
CONTINUOUS
 10
1.828640
 20
0.850960
  0
VERTEX
  8
0
  6
CONTINUOUS
 10
2.333320
 20
0.849200
  0
SEQEND
  8
0
  0
SOLID
  8
0
 62
    15
 10
3.245440
 20
1.980440
 11
3.891360
 21
1.616120
 12
3.216840
 22
1.922360
 13
3.862760
 23
1.558040
  0
POLYLINE
  8
0
  6
CONTINUOUS
 66
     1
 40
0.000000
 41
0.000000
  0
VERTEX
  8
0
  6
CONTINUOUS
 10
3.245440
 20
1.980440
  0
VERTEX
  8
0
  6
CONTINUOUS
 10
3.891360
 20
1.616120
  0
VERTEX
  8
0
  6
CONTINUOUS
 10
3.862760
 20
1.558040
  0
VERTEX
  8
0
  6
CONTINUOUS
 10
3.216840
 20
1.922360
  0
VERTEX
  8
0
  6
CONTINUOUS
 10
3.245440
 20
1.980440
  0
SEQEND
  8
0
  0
SOLID
  8
0
 62
    15
 10
3.216840
 20
1.922360
 11
3.862760
 21
1.558040
 12
3.088360
 22
1.704120
 13
3.734280
 23
1.339800
  0
POLYLINE
  8
0
  6
CONTINUOUS
 66
     1
 40
0.000000
 41
0.000000
  0
VERTEX
  8
0
  6
CONTINUOUS
 10
3.216840
 20
1.922360
  0
VERTEX
  8
0
  6
CONTINUOUS
 10
3.862760
 20
1.558040
  0
VERTEX
  8
0
  6
CONTINUOUS
 10
3.734280
 20
1.339800
  0
VERTEX
  8
0
  6
CONTINUOUS
 10
3.088360
 20
1.704120
  0
VERTEX
  8
0
  6
CONTINUOUS
 10
3.216840
 20
1.922360
  0
SEQEND
  8
0
  0
SOLID
  8
0
 62
    15
 10
3.088360
 20
1.704120
 11
3.734280
 21
1.339800
 12
3.007400
 22
1.600280
 13
3.652880
 23
1.235960
  0
POLYLINE
  8
0
  6
CONTINUOUS
 66
     1
 40
0.000000
 41
0.000000
  0
VERTEX
  8
0
  6
CONTINUOUS
 10
3.088360
 20
1.704120
  0
VERTEX
  8
0
  6
CONTINUOUS
 10
3.734280
 20
1.339800
  0
VERTEX
  8
0
  6
CONTINUOUS
 10
3.652880
 20
1.235960
  0
VERTEX
  8
0
  6
CONTINUOUS
 10
3.007400
 20
1.600280
  0
VERTEX
  8
0
  6
CONTINUOUS
 10
3.088360
 20
1.704120
  0
SEQEND
  8
0
  0
SOLID
  8
0
 62
    15
 10
3.007400
 20
1.600280
 11
3.652880
 21
1.235960
 12
2.911920
 22
1.503480
 13
3.557840
 23
1.139160
  0
POLYLINE
  8
0
  6
CONTINUOUS
 66
     1
 40
0.000000
 41
0.000000
  0
VERTEX
  8
0
  6
CONTINUOUS
 10
3.007400
 20
1.600280
  0
VERTEX
  8
0
  6
CONTINUOUS
 10
3.652880
 20
1.235960
  0
VERTEX
  8
0
  6
CONTINUOUS
 10
3.557840
 20
1.139160
  0
VERTEX
  8
0
  6
CONTINUOUS
 10
2.911920
 20
1.503480
  0
VERTEX
  8
0
  6
CONTINUOUS
 10
3.007400
 20
1.600280
  0
SEQEND
  8
0
  0
SOLID
  8
0
 62
    15
 10
2.911920
 20
1.503480
 11
3.557840
 21
1.139160
 12
2.801040
 22
1.416360
 13
3.446520
 23
1.052040
  0
POLYLINE
  8
0
  6
CONTINUOUS
 66
     1
 40
0.000000
 41
0.000000
  0
VERTEX
  8
0
  6
CONTINUOUS
 10
2.911920
 20
1.503480
  0
VERTEX
  8
0
  6
CONTINUOUS
 10
3.557840
 20
1.139160
  0
VERTEX
  8
0
  6
CONTINUOUS
 10
3.446520
 20
1.052040
  0
VERTEX
  8
0
  6
CONTINUOUS
 10
2.801040
 20
1.416360
  0
VERTEX
  8
0
  6
CONTINUOUS
 10
2.911920
 20
1.503480
  0
SEQEND
  8
0
  0
SOLID
  8
0
 62
    15
 10
2.801040
 20
1.416360
 11
3.446520
 21
1.052040
 12
2.672120
 22
1.341560
 13
3.317600
 23
0.976800
  0
POLYLINE
  8
0
  6
CONTINUOUS
 66
     1
 40
0.000000
 41
0.000000
  0
VERTEX
  8
0
  6
CONTINUOUS
 10
2.801040
 20
1.416360
  0
VERTEX
  8
0
  6
CONTINUOUS
 10
3.446520
 20
1.052040
  0
VERTEX
  8
0
  6
CONTINUOUS
 10
3.317600
 20
0.976800
  0
VERTEX
  8
0
  6
CONTINUOUS
 10
2.672120
 20
1.341560
  0
VERTEX
  8
0
  6
CONTINUOUS
 10
2.801040
 20
1.416360
  0
SEQEND
  8
0
  0
SOLID
  8
0
 62
    15
 10
2.672120
 20
1.341560
 11
3.317600
 21
0.976800
 12
2.523400
 22
1.280840
 13
3.168880
 23
0.916520
  0
POLYLINE
  8
0
  6
CONTINUOUS
 66
     1
 40
0.000000
 41
0.000000
  0
VERTEX
  8
0
  6
CONTINUOUS
 10
2.672120
 20
1.341560
  0
VERTEX
  8
0
  6
CONTINUOUS
 10
3.317600
 20
0.976800
  0
VERTEX
  8
0
  6
CONTINUOUS
 10
3.168880
 20
0.916520
  0
VERTEX
  8
0
  6
CONTINUOUS
 10
2.523400
 20
1.280840
  0
VERTEX
  8
0
  6
CONTINUOUS
 10
2.672120
 20
1.341560
  0
SEQEND
  8
0
  0
SOLID
  8
0
 62
    15
 10
2.523400
 20
1.280840
 11
3.168880
 21
0.916520
 12
2.352680
 22
1.237280
 13
2.998160
 23
0.872960
  0
POLYLINE
  8
0
  6
CONTINUOUS
 66
     1
 40
0.000000
 41
0.000000
  0
VERTEX
  8
0
  6
CONTINUOUS
 10
2.523400
 20
1.280840
  0
VERTEX
  8
0
  6
CONTINUOUS
 10
3.168880
 20
0.916520
  0
VERTEX
  8
0
  6
CONTINUOUS
 10
2.998160
 20
0.872960
  0
VERTEX
  8
0
  6
CONTINUOUS
 10
2.352680
 20
1.237280
  0
VERTEX
  8
0
  6
CONTINUOUS
 10
2.523400
 20
1.280840
  0
SEQEND
  8
0
  0
SOLID
  8
0
 62
    15
 10
2.352680
 20
1.237280
 11
2.998160
 21
0.872960
 12
2.333320
 22
0.849200
 13
2.978800
 23
0.484440
  0
POLYLINE
  8
0
  6
CONTINUOUS
 66
     1
 40
0.000000
 41
0.000000
  0
VERTEX
  8
0
  6
CONTINUOUS
 10
2.352680
 20
1.237280
  0
VERTEX
  8
0
  6
CONTINUOUS
 10
2.998160
 20
0.872960
  0
VERTEX
  8
0
  6
CONTINUOUS
 10
2.978800
 20
0.484440
  0
VERTEX
  8
0
  6
CONTINUOUS
 10
2.333320
 20
0.849200
  0
VERTEX
  8
0
  6
CONTINUOUS
 10
2.352680
 20
1.237280
  0
SEQEND
  8
0
  0
POLYLINE
  8
0
  6
CONTINUOUS
 66
     1
 40
0.000000
 41
0.000000
  0
VERTEX
  8
0
  6
CONTINUOUS
 10
2.333320
 20
0.849200
  0
VERTEX
  8
0
  6
CONTINUOUS
 10
1.828640
 20
0.850960
  0
VERTEX
  8
0
  6
CONTINUOUS
 10
1.831280
 20
1.222760
  0
VERTEX
  8
0
  6
CONTINUOUS
 10
3.945040
 20
3.671800
  0
VERTEX
  8
0
  6
CONTINUOUS
 10
4.110920
 20
3.680600
  0
VERTEX
  8
0
  6
CONTINUOUS
 10
4.101240
 20
2.896080
  0
VERTEX
  8
0
  6
CONTINUOUS
 10
4.011040
 20
2.868800
  0
VERTEX
  8
0
  6
CONTINUOUS
 10
3.926560
 20
2.831840
  0
VERTEX
  8
0
  6
CONTINUOUS
 10
3.774320
 20
2.734600
  0
VERTEX
  8
0
  6
CONTINUOUS
 10
3.642320
 20
2.612720
  0
VERTEX
  8
0
  6
CONTINUOUS
 10
3.527920
 20
2.474560
  0
VERTEX
  8
0
  6
CONTINUOUS
 10
3.430240
 20
2.328040
  0
VERTEX
  8
0
  6
CONTINUOUS
 10
3.347080
 20
2.181520
  0
VERTEX
  8
0
  6
CONTINUOUS
 10
3.276680
 20
2.043800
  0
VERTEX
  8
0
  6
CONTINUOUS
 10
3.245440
 20
1.980440
  0
VERTEX
  8
0
  6
CONTINUOUS
 10
3.216840
 20
1.922360
  0
VERTEX
  8
0
  6
CONTINUOUS
 10
3.088360
 20
1.704120
  0
VERTEX
  8
0
  6
CONTINUOUS
 10
3.007400
 20
1.600280
  0
VERTEX
  8
0
  6
CONTINUOUS
 10
2.911920
 20
1.503480
  0
VERTEX
  8
0
  6
CONTINUOUS
 10
2.801040
 20
1.416360
  0
VERTEX
  8
0
  6
CONTINUOUS
 10
2.672120
 20
1.341560
  0
VERTEX
  8
0
  6
CONTINUOUS
 10
2.523400
 20
1.280840
  0
VERTEX
  8
0
  6
CONTINUOUS
 10
2.352680
 20
1.237280
  0
VERTEX
  8
0
  6
CONTINUOUS
 10
2.333320
 20
0.849200
  0
SEQEND
  8
0
  0
TEXT
  8
0
 10
3.472040
 20
0.692560
 40
0.138072
  1
BA  804
 41
1.000000
  7
SN0
 71
     0
 72
     5
 11
4.062453
 21
0.692560
  0
TEXT
  8
0
 10
3.316280
 20
0.500720
 40
0.138072
  1
5/8" x 3-5/8"
 41
1.000000
  7
SN0
 71
     0
 72
     5
 11
4.217577
 21
0.500720
  0
POLYLINE
  8
0
  6
CONTINUOUS
 66
     1
 40
0.014080
 41
0.014080
  0
VERTEX
  8
0
  6
CONTINUOUS
 10
5.422560
 20
1.140920
  0
VERTEX
  8
0
  6
CONTINUOUS
 10
5.510560
 20
1.160280
  0
VERTEX
  8
0
  6
CONTINUOUS
 10
5.592840
 20
1.184480
  0
VERTEX
  8
0
  6
CONTINUOUS
 10
5.669840
 20
1.212640
  0
VERTEX
  8
0
  6
CONTINUOUS
 10
5.741560
 20
1.244760
  0
VERTEX
  8
0
  6
CONTINUOUS
 10
5.808440
 20
1.280840
  0
VERTEX
  8
0
  6
CONTINUOUS
 10
5.870480
 20
1.320000
  0
VERTEX
  8
0
  6
CONTINUOUS
 10
5.928120
 20
1.362240
  0
VERTEX
  8
0
  6
CONTINUOUS
 10
5.981800
 20
1.407120
  0
VERTEX
  8
0
  6
CONTINUOUS
 10
6.031080
 20
1.454640
  0
VERTEX
  8
0
  6
CONTINUOUS
 10
6.076840
 20
1.503920
  0
VERTEX
  8
0
  6
CONTINUOUS
 10
6.119080
 20
1.554960
  0
VERTEX
  8
0
  6
CONTINUOUS
 10
6.158240
 20
1.607760
  0
VERTEX
  8
0
  6
CONTINUOUS
 10
6.211040
 20
1.688720
  0
VERTEX
  8
0
  6
CONTINUOUS
 10
6.258120
 20
1.771000
  0
VERTEX
  8
0
  6
CONTINUOUS
 10
6.330720
 20
1.915320
  0
VERTEX
  8
0
  6
CONTINUOUS
 10
6.416960
 20
2.085160
  0
VERTEX
  8
0
  6
CONTINUOUS
 10
6.478120
 20
2.194720
  0
VERTEX
  8
0
  6
CONTINUOUS
 10
6.523000
 20
2.268640
  0
VERTEX
  8
0
  6
CONTINUOUS
 10
6.571840
 20
2.342120
  0
VERTEX
  8
0
  6
CONTINUOUS
 10
6.624640
 20
2.413840
  0
VERTEX
  8
0
  6
CONTINUOUS
 10
6.681840
 20
2.483360
  0
VERTEX
  8
0
  6
CONTINUOUS
 10
6.743000
 20
2.548920
  0
VERTEX
  8
0
  6
CONTINUOUS
 10
6.775560
 20
2.580160
  0
VERTEX
  8
0
  6
CONTINUOUS
 10
6.809440
 20
2.610080
  0
VERTEX
  8
0
  6
CONTINUOUS
 10
6.880280
 20
2.665520
  0
VERTEX
  8
0
  6
CONTINUOUS
 10
6.917680
 20
2.690600
  0
VERTEX
  8
0
  6
CONTINUOUS
 10
6.956400
 20
2.713920
  0
VERTEX
  8
0
  6
CONTINUOUS
 10
7.017120
 20
2.745600
  0
VERTEX
  8
0
  6
CONTINUOUS
 10
7.080920
 20
2.772440
  0
VERTEX
  8
0
  6
CONTINUOUS
 10
7.147800
 20
2.794000
  0
VERTEX
  8
0
  6
CONTINUOUS
 10
7.170680
 20
2.799720
  0
VERTEX
  8
0
  6
CONTINUOUS
 10
7.180360
 20
3.584240
  0
VERTEX
  8
0
  6
CONTINUOUS
 10
7.014920
 20
3.575440
  0
VERTEX
  8
0
  6
CONTINUOUS
 10
4.900720
 20
1.126400
  0
VERTEX
  8
0
  6
CONTINUOUS
 10
4.898080
 20
0.754600
  0
VERTEX
  8
0
  6
CONTINUOUS
 10
5.403200
 20
0.752400
  0
VERTEX
  8
0
  6
CONTINUOUS
 10
5.422560
 20
1.140920
  0
SEQEND
  8
0
  0
ENDSEC
  0
EOF
