  0
SECTION
  2
HEADER
  9
$ACADVER
  1
AC1006
  9
$EXTMIN
 10
1.815000
 20
0.798600
  9
$EXTMAX
 10
7.824520
 20
6.457880
  9
$LTSCALE
 40
0.044000
  9
$PDMODE
 70
    35
  9
$PDSIZE
 40
0.035200
  0
ENDSEC
  0
SECTION
  2
TABLES
  0
TABLE
  2
LTYPE
 70
     9
  0
LTYPE
  2
CONTINUOUS
 70
    64
  3
Solid line
 72
    65
 73
     0
 40
0.000000
  0
LTYPE
  2
DASHED
 70
    64
  3
__ __ __ __ __ __ __ __ __ __ __ __ __ __ __
 72
    65
 73
     2
 40
0.000330
 49
0.000220
 49
-0.000110
  0
LTYPE
  2
HIDDEN
 70
    64
  3
 _ _ _ _ _ _ _ _ _ _ _ _ _ _ _ _ _ _ _ _ _ _
 72
    65
 73
     2
 40
0.000165
 49
0.000110
 49
-0.000055
  0
LTYPE
  2
CENTER
 70
    64
  3
____ _ ____ _ ____ _ ____ _ ____ _ ____ _ ____
 72
    65
 73
     4
 40
0.000880
 49
0.000550
 49
-0.000110
 49
0.000110
 49
-0.000110
  0
LTYPE
  2
PHANTOM
 70
    64
  3
_____ _ _ _____ _ _ _____ _ _ _____ _ _ ____
 72
    65
 73
     6
 40
0.001100
 49
0.000550
 49
-0.000110
 49
0.000110
 49
-0.000110
 49
0.000110
 49
-0.000110
  0
LTYPE
  2
DOT
 70
    64
  3
...............................................
 72
    65
 73
     2
 40
0.000110
 49
0.000000
 49
-0.000110
  0
LTYPE
  2
DASHDOT
 70
    64
  3
__ . __ . __ . __ . __ . __ . __ . __ . __ . __
 72
    65
 73
     4
 40
0.000440
 49
0.000220
 49
-0.000110
 49
0.000000
 49
-0.000110
  0
LTYPE
  2
BORDER
 70
    64
  3
__ __ . __ __ . __ __ . __ __ . __ __ . __ __
 72
    65
 73
     6
 40
0.000770
 49
0.000220
 49
-0.000110
 49
0.000220
 49
-0.000110
 49
0.000000
 49
-0.000110
  0
LTYPE
  2
DIVIDE
 70
    64
  3
__ . . __ . . __ . . __ . . __ . . __ . . __
 72
    65
 73
     6
 40
0.000550
 49
0.000220
 49
-0.000110
 49
0.000000
 49
-0.000110
 49
0.000000
 49
-0.000110
  0
LTYPE
  2
DOTDOT
 70
    64
  3
 . .  . .  . .  . .  . .  . . 
 72
    65
 73
     5
 40
0.000242
 49
-0.000110
 49
0.000000
 49
-0.000110
 49
0.000000
 49
-0.000110
  0
ENDTAB
  0
TABLE
  2
STYLE
 70
     2
  0
STYLE
 70
     0
  2
SN0
 40
0.000000
 41
0.000440
 50
0.000000
 71
     0
 42
0.000000
  3
ROMAND
  0
STYLE
 70
    68
  2
SV0
 40
0.000000
 41
0.000440
 50
0.000000
 71
     0
 42
0.000000
  3
ROMAND
  0
ENDTAB
  0
TABLE
  2
LAYER
 70
     3
  0
LAYER
  2
FOREGROUND
 70
    64
 62
     7
  6
CONTINUOUS
  0
LAYER
  2
BACKGROUND
 70
    65
 62
    -7
  6
CONTINUOUS
  0
LAYER
  2
0
 70
    64
 62
     7
  6
CONTINUOUS
  0
ENDTAB
  0
ENDSEC
  0
SECTION
  2
ENTITIES
  0
POLYLINE
  8
FOREGROUND
  6
CONTINUOUS
 66
     1
 40
0.000000
 41
0.000000
  0
VERTEX
  8
FOREGROUND
  6
CONTINUOUS
 10
0.000000
 20
7.256480
  0
VERTEX
  8
FOREGROUND
  6
CONTINUOUS
 10
8.499920
 20
7.256480
  0
VERTEX
  8
FOREGROUND
  6
CONTINUOUS
 10
8.499920
 20
-3.743520
  0
VERTEX
  8
FOREGROUND
  6
CONTINUOUS
 10
0.000000
 20
-3.743520
  0
VERTEX
  8
FOREGROUND
  6
CONTINUOUS
 10
0.000000
 20
7.256480
  0
SEQEND
  8
0
  0
POLYLINE
  8
FOREGROUND
  6
CONTINUOUS
 66
     1
 40
0.000000
 41
0.000000
  0
VERTEX
  8
FOREGROUND
  6
CONTINUOUS
 10
0.000000
 20
7.256480
  0
VERTEX
  8
FOREGROUND
  6
CONTINUOUS
 10
8.499920
 20
7.256480
  0
VERTEX
  8
FOREGROUND
  6
CONTINUOUS
 10
8.499920
 20
-3.743520
  0
VERTEX
  8
FOREGROUND
  6
CONTINUOUS
 10
0.000000
 20
-3.743520
  0
VERTEX
  8
FOREGROUND
  6
CONTINUOUS
 10
0.000000
 20
7.256480
  0
SEQEND
  8
0
  0
POLYLINE
  8
0
  6
CONTINUOUS
 66
     1
 40
0.000000
 41
0.000000
  0
VERTEX
  8
0
  6
CONTINUOUS
 10
2.377320
 20
5.940000
  0
VERTEX
  8
0
  6
CONTINUOUS
 10
1.815880
 20
5.940000
  0
VERTEX
  8
0
  6
CONTINUOUS
 10
1.817200
 20
5.969040
  0
VERTEX
  8
0
  6
CONTINUOUS
 10
1.821600
 20
5.996760
  0
VERTEX
  8
0
  6
CONTINUOUS
 10
1.833040
 20
6.036800
  0
VERTEX
  8
0
  6
CONTINUOUS
 10
1.849760
 20
6.074640
  0
VERTEX
  8
0
  6
CONTINUOUS
 10
1.871760
 20
6.108960
  0
VERTEX
  8
0
  6
CONTINUOUS
 10
1.898160
 20
6.139320
  0
VERTEX
  8
0
  6
CONTINUOUS
 10
1.928960
 20
6.166160
  0
VERTEX
  8
0
  6
CONTINUOUS
 10
1.963280
 20
6.188160
  0
VERTEX
  8
0
  6
CONTINUOUS
 10
2.000680
 20
6.204880
  0
VERTEX
  8
0
  6
CONTINUOUS
 10
2.040720
 20
6.216320
  0
VERTEX
  8
0
  6
CONTINUOUS
 10
2.068440
 20
6.220720
  0
VERTEX
  8
0
  6
CONTINUOUS
 10
2.097480
 20
6.222040
  0
VERTEX
  8
0
  6
CONTINUOUS
 10
2.126520
 20
6.220720
  0
VERTEX
  8
0
  6
CONTINUOUS
 10
2.154240
 20
6.216320
  0
VERTEX
  8
0
  6
CONTINUOUS
 10
2.194280
 20
6.204880
  0
VERTEX
  8
0
  6
CONTINUOUS
 10
2.219800
 20
6.194320
  0
VERTEX
  8
0
  6
CONTINUOUS
 10
2.255000
 20
6.174080
  0
VERTEX
  8
0
  6
CONTINUOUS
 10
2.277000
 20
6.157800
  0
VERTEX
  8
0
  6
CONTINUOUS
 10
2.306040
 20
6.129640
  0
VERTEX
  8
0
  6
CONTINUOUS
 10
2.323640
 20
6.108960
  0
VERTEX
  8
0
  6
CONTINUOUS
 10
2.345640
 20
6.074640
  0
VERTEX
  8
0
  6
CONTINUOUS
 10
2.362360
 20
6.036800
  0
VERTEX
  8
0
  6
CONTINUOUS
 10
2.373800
 20
5.996760
  0
VERTEX
  8
0
  6
CONTINUOUS
 10
2.378200
 20
5.969040
  0
VERTEX
  8
0
  6
CONTINUOUS
 10
2.379520
 20
5.940000
  0
VERTEX
  8
0
  6
CONTINUOUS
 10
2.377320
 20
5.940000
  0
SEQEND
  8
0
  0
POLYLINE
  8
0
  6
CONTINUOUS
 66
     1
 40
0.000000
 41
0.000000
  0
VERTEX
  8
0
  6
CONTINUOUS
 10
3.941520
 20
6.020520
  0
VERTEX
  8
0
  6
CONTINUOUS
 10
3.993440
 20
6.094880
  0
VERTEX
  8
0
  6
CONTINUOUS
 10
4.048000
 20
6.161320
  0
VERTEX
  8
0
  6
CONTINUOUS
 10
4.104320
 20
6.220280
  0
VERTEX
  8
0
  6
CONTINUOUS
 10
4.142600
 20
6.255480
  0
VERTEX
  8
0
  6
CONTINUOUS
 10
4.202000
 20
6.302560
  0
VERTEX
  8
0
  6
CONTINUOUS
 10
4.262280
 20
6.342160
  0
VERTEX
  8
0
  6
CONTINUOUS
 10
4.303200
 20
6.365040
  0
VERTEX
  8
0
  6
CONTINUOUS
 10
4.365240
 20
6.393640
  0
VERTEX
  8
0
  6
CONTINUOUS
 10
4.428160
 20
6.416520
  0
VERTEX
  8
0
  6
CONTINUOUS
 10
4.491960
 20
6.432800
  0
VERTEX
  8
0
  6
CONTINUOUS
 10
4.534200
 20
6.440280
  0
VERTEX
  8
0
  6
CONTINUOUS
 10
4.576880
 20
6.445560
  0
VERTEX
  8
0
  6
CONTINUOUS
 10
4.619560
 20
6.448200
  0
VERTEX
  8
0
  6
CONTINUOUS
 10
4.661800
 20
6.448640
  0
VERTEX
  8
0
  6
CONTINUOUS
 10
4.704480
 20
6.446880
  0
VERTEX
  8
0
  6
CONTINUOUS
 10
4.746720
 20
6.442480
  0
VERTEX
  8
0
  6
CONTINUOUS
 10
4.788520
 20
6.436320
  0
VERTEX
  8
0
  6
CONTINUOUS
 10
4.829880
 20
6.427960
  0
VERTEX
  8
0
  6
CONTINUOUS
 10
4.870800
 20
6.417400
  0
VERTEX
  8
0
  6
CONTINUOUS
 10
4.911720
 20
6.405080
  0
VERTEX
  8
0
  6
CONTINUOUS
 10
4.951760
 20
6.391000
  0
VERTEX
  8
0
  6
CONTINUOUS
 10
4.991360
 20
6.375160
  0
VERTEX
  8
0
  6
CONTINUOUS
 10
5.067920
 20
6.337760
  0
VERTEX
  8
0
  6
CONTINUOUS
 10
5.105320
 20
6.317080
  0
VERTEX
  8
0
  6
CONTINUOUS
 10
5.177040
 20
6.270440
  0
VERTEX
  8
0
  6
CONTINUOUS
 10
5.247000
 20
6.219840
  0
VERTEX
  8
0
  6
CONTINUOUS
 10
5.307280
 20
6.184200
  0
VERTEX
  8
0
  6
CONTINUOUS
 10
5.375480
 20
6.151200
  0
VERTEX
  8
0
  6
CONTINUOUS
 10
5.450280
 20
6.121720
  0
VERTEX
  8
0
  6
CONTINUOUS
 10
5.531240
 20
6.095760
  0
VERTEX
  8
0
  6
CONTINUOUS
 10
5.588440
 20
6.080360
  0
VERTEX
  8
0
  6
CONTINUOUS
 10
5.678640
 20
6.061000
  0
VERTEX
  8
0
  6
CONTINUOUS
 10
5.773240
 20
6.046040
  0
VERTEX
  8
0
  6
CONTINUOUS
 10
5.871800
 20
6.035480
  0
VERTEX
  8
0
  6
CONTINUOUS
 10
5.973440
 20
6.030200
  0
VERTEX
  8
0
  6
CONTINUOUS
 10
6.042520
 20
6.029320
  0
VERTEX
  8
0
  6
CONTINUOUS
 10
6.112920
 20
6.031080
  0
VERTEX
  8
0
  6
CONTINUOUS
 10
6.183760
 20
6.035040
  0
VERTEX
  8
0
  6
CONTINUOUS
 10
6.255480
 20
6.042080
  0
VERTEX
  8
0
  6
CONTINUOUS
 10
6.363720
 20
6.057040
  0
VERTEX
  8
0
  6
CONTINUOUS
 10
6.471960
 20
6.078600
  0
VERTEX
  8
0
  6
CONTINUOUS
 10
6.579760
 20
6.106760
  0
VERTEX
  8
0
  6
CONTINUOUS
 10
6.686680
 20
6.141520
  0
VERTEX
  8
0
  6
CONTINUOUS
 10
6.756640
 20
6.168800
  0
VERTEX
  8
0
  6
CONTINUOUS
 10
6.826160
 20
6.199600
  0
VERTEX
  8
0
  6
CONTINUOUS
 10
6.894360
 20
6.233480
  0
VERTEX
  8
0
  6
CONTINUOUS
 10
6.961240
 20
6.270880
  0
VERTEX
  8
0
  6
CONTINUOUS
 10
7.026360
 20
6.311800
  0
VERTEX
  8
0
  6
CONTINUOUS
 10
7.090160
 20
6.356680
  0
VERTEX
  8
0
  6
CONTINUOUS
 10
7.151760
 20
6.404640
  0
VERTEX
  8
0
  6
CONTINUOUS
 10
7.211160
 20
6.457000
  0
VERTEX
  8
0
  6
CONTINUOUS
 10
7.824080
 20
6.028880
  0
VERTEX
  8
0
  6
CONTINUOUS
 10
7.391120
 20
5.375040
  0
VERTEX
  8
0
  6
CONTINUOUS
 10
3.388440
 20
5.375040
  0
VERTEX
  8
0
  6
CONTINUOUS
 10
2.832720
 20
5.734080
  0
VERTEX
  8
0
  6
CONTINUOUS
 10
3.313200
 20
6.447320
  0
VERTEX
  8
0
  6
CONTINUOUS
 10
3.941520
 20
6.020520
  0
SEQEND
  8
0
  0
TEXT
  8
0
 10
5.176600
 20
1.034440
 40
0.138274
  1
BA  802 1-1/8" x 5"
 41
1.000000
  7
SN0
 71
     0
 72
     5
 11
6.575917
 21
1.034440
  0
TEXT
  8
0
 10
5.176600
 20
0.843040
 40
0.138274
  1
BA  803 9/16"
 41
1.000000
  7
SN0
 71
     0
 72
     5
 11
6.194913
 21
0.843040
  0
SOLID
  8
0
 62
    15
 10
4.915680
 20
3.067240
 11
5.556320
 21
2.706880
 12
4.902920
 22
2.968680
 13
5.543560
 23
2.608320
  0
POLYLINE
  8
0
  6
CONTINUOUS
 66
     1
 40
0.000000
 41
0.000000
  0
VERTEX
  8
0
  6
CONTINUOUS
 10
4.915680
 20
3.067240
  0
VERTEX
  8
0
  6
CONTINUOUS
 10
5.556320
 20
2.706880
  0
VERTEX
  8
0
  6
CONTINUOUS
 10
5.543560
 20
2.608320
  0
VERTEX
  8
0
  6
CONTINUOUS
 10
4.902920
 20
2.968680
  0
VERTEX
  8
0
  6
CONTINUOUS
 10
4.915680
 20
3.067240
  0
SEQEND
  8
0
  0
SOLID
  8
0
 62
    15
 10
6.183320
 20
5.166040
 11
6.824400
 21
4.805240
 12
6.195640
 22
4.418040
 13
6.836720
 23
4.057240
  0
POLYLINE
  8
0
  6
CONTINUOUS
 66
     1
 40
0.000000
 41
0.000000
  0
VERTEX
  8
0
  6
CONTINUOUS
 10
6.183320
 20
5.166040
  0
VERTEX
  8
0
  6
CONTINUOUS
 10
6.824400
 20
4.805240
  0
VERTEX
  8
0
  6
CONTINUOUS
 10
6.836720
 20
4.057240
  0
VERTEX
  8
0
  6
CONTINUOUS
 10
6.195640
 20
4.418040
  0
VERTEX
  8
0
  6
CONTINUOUS
 10
6.183320
 20
5.166040
  0
SEQEND
  8
0
  0
SOLID
  8
0
 62
    15
 10
6.195640
 20
4.418040
 11
6.836720
 21
4.057240
 12
6.044720
 22
4.374040
 13
6.685360
 23
4.013240
  0
POLYLINE
  8
0
  6
CONTINUOUS
 66
     1
 40
0.000000
 41
0.000000
  0
VERTEX
  8
0
  6
CONTINUOUS
 10
6.195640
 20
4.418040
  0
VERTEX
  8
0
  6
CONTINUOUS
 10
6.836720
 20
4.057240
  0
VERTEX
  8
0
  6
CONTINUOUS
 10
6.685360
 20
4.013240
  0
VERTEX
  8
0
  6
CONTINUOUS
 10
6.044720
 20
4.374040
  0
VERTEX
  8
0
  6
CONTINUOUS
 10
6.195640
 20
4.418040
  0
SEQEND
  8
0
  0
SOLID
  8
0
 62
    15
 10
6.044720
 20
4.374040
 11
6.685360
 21
4.013240
 12
5.901720
 22
4.315080
 13
6.542360
 23
3.954280
  0
POLYLINE
  8
0
  6
CONTINUOUS
 66
     1
 40
0.000000
 41
0.000000
  0
VERTEX
  8
0
  6
CONTINUOUS
 10
6.044720
 20
4.374040
  0
VERTEX
  8
0
  6
CONTINUOUS
 10
6.685360
 20
4.013240
  0
VERTEX
  8
0
  6
CONTINUOUS
 10
6.542360
 20
3.954280
  0
VERTEX
  8
0
  6
CONTINUOUS
 10
5.901720
 20
4.315080
  0
VERTEX
  8
0
  6
CONTINUOUS
 10
6.044720
 20
4.374040
  0
SEQEND
  8
0
  0
SOLID
  8
0
 62
    15
 10
5.901720
 20
4.315080
 11
6.542360
 21
3.954280
 12
5.641240
 22
4.159760
 13
6.281880
 23
3.798960
  0
POLYLINE
  8
0
  6
CONTINUOUS
 66
     1
 40
0.000000
 41
0.000000
  0
VERTEX
  8
0
  6
CONTINUOUS
 10
5.901720
 20
4.315080
  0
VERTEX
  8
0
  6
CONTINUOUS
 10
6.542360
 20
3.954280
  0
VERTEX
  8
0
  6
CONTINUOUS
 10
6.281880
 20
3.798960
  0
VERTEX
  8
0
  6
CONTINUOUS
 10
5.641240
 20
4.159760
  0
VERTEX
  8
0
  6
CONTINUOUS
 10
5.901720
 20
4.315080
  0
SEQEND
  8
0
  0
SOLID
  8
0
 62
    15
 10
5.641240
 20
4.159760
 11
6.281880
 21
3.798960
 12
5.415960
 22
3.965720
 13
6.056600
 23
3.604920
  0
POLYLINE
  8
0
  6
CONTINUOUS
 66
     1
 40
0.000000
 41
0.000000
  0
VERTEX
  8
0
  6
CONTINUOUS
 10
5.641240
 20
4.159760
  0
VERTEX
  8
0
  6
CONTINUOUS
 10
6.281880
 20
3.798960
  0
VERTEX
  8
0
  6
CONTINUOUS
 10
6.056600
 20
3.604920
  0
VERTEX
  8
0
  6
CONTINUOUS
 10
5.415960
 20
3.965720
  0
VERTEX
  8
0
  6
CONTINUOUS
 10
5.641240
 20
4.159760
  0
SEQEND
  8
0
  0
SOLID
  8
0
 62
    15
 10
5.415960
 20
3.965720
 11
6.056600
 21
3.604920
 12
5.228520
 22
3.746160
 13
5.869600
 23
3.385360
  0
POLYLINE
  8
0
  6
CONTINUOUS
 66
     1
 40
0.000000
 41
0.000000
  0
VERTEX
  8
0
  6
CONTINUOUS
 10
5.415960
 20
3.965720
  0
VERTEX
  8
0
  6
CONTINUOUS
 10
6.056600
 20
3.604920
  0
VERTEX
  8
0
  6
CONTINUOUS
 10
5.869600
 20
3.385360
  0
VERTEX
  8
0
  6
CONTINUOUS
 10
5.228520
 20
3.746160
  0
VERTEX
  8
0
  6
CONTINUOUS
 10
5.415960
 20
3.965720
  0
SEQEND
  8
0
  0
SOLID
  8
0
 62
    15
 10
5.228520
 20
3.746160
 11
5.869600
 21
3.385360
 12
5.081120
 22
3.514280
 13
5.722200
 23
3.153480
  0
POLYLINE
  8
0
  6
CONTINUOUS
 66
     1
 40
0.000000
 41
0.000000
  0
VERTEX
  8
0
  6
CONTINUOUS
 10
5.228520
 20
3.746160
  0
VERTEX
  8
0
  6
CONTINUOUS
 10
5.869600
 20
3.385360
  0
VERTEX
  8
0
  6
CONTINUOUS
 10
5.722200
 20
3.153480
  0
VERTEX
  8
0
  6
CONTINUOUS
 10
5.081120
 20
3.514280
  0
VERTEX
  8
0
  6
CONTINUOUS
 10
5.228520
 20
3.746160
  0
SEQEND
  8
0
  0
SOLID
  8
0
 62
    15
 10
5.081120
 20
3.514280
 11
5.722200
 21
3.153480
 12
4.976400
 22
3.283720
 13
5.617040
 23
2.922920
  0
POLYLINE
  8
0
  6
CONTINUOUS
 66
     1
 40
0.000000
 41
0.000000
  0
VERTEX
  8
0
  6
CONTINUOUS
 10
5.081120
 20
3.514280
  0
VERTEX
  8
0
  6
CONTINUOUS
 10
5.722200
 20
3.153480
  0
VERTEX
  8
0
  6
CONTINUOUS
 10
5.617040
 20
2.922920
  0
VERTEX
  8
0
  6
CONTINUOUS
 10
4.976400
 20
3.283720
  0
VERTEX
  8
0
  6
CONTINUOUS
 10
5.081120
 20
3.514280
  0
SEQEND
  8
0
  0
SOLID
  8
0
 62
    15
 10
4.976400
 20
3.283720
 11
5.617040
 21
2.922920
 12
4.915680
 22
3.067240
 13
5.556320
 23
2.706880
  0
POLYLINE
  8
0
  6
CONTINUOUS
 66
     1
 40
0.000000
 41
0.000000
  0
VERTEX
  8
0
  6
CONTINUOUS
 10
4.976400
 20
3.283720
  0
VERTEX
  8
0
  6
CONTINUOUS
 10
5.617040
 20
2.922920
  0
VERTEX
  8
0
  6
CONTINUOUS
 10
5.556320
 20
2.706880
  0
VERTEX
  8
0
  6
CONTINUOUS
 10
4.915680
 20
3.067240
  0
VERTEX
  8
0
  6
CONTINUOUS
 10
4.976400
 20
3.283720
  0
SEQEND
  8
0
  0
SOLID
  8
0
 62
    15
 10
4.007960
 20
1.191960
 11
4.649040
 21
0.831600
 12
3.148200
 22
1.192840
 13
3.789280
 23
0.832040
  0
POLYLINE
  8
0
  6
CONTINUOUS
 66
     1
 40
0.000000
 41
0.000000
  0
VERTEX
  8
0
  6
CONTINUOUS
 10
4.007960
 20
1.191960
  0
VERTEX
  8
0
  6
CONTINUOUS
 10
4.649040
 20
0.831600
  0
VERTEX
  8
0
  6
CONTINUOUS
 10
3.789280
 20
0.832040
  0
VERTEX
  8
0
  6
CONTINUOUS
 10
3.148200
 20
1.192840
  0
VERTEX
  8
0
  6
CONTINUOUS
 10
4.007960
 20
1.191960
  0
SEQEND
  8
0
  0
SOLID
  8
0
 62
    15
 10
4.902920
 20
2.968680
 11
5.543560
 21
2.608320
 12
4.902040
 22
2.878920
 13
5.542680
 23
2.518120
  0
POLYLINE
  8
0
  6
CONTINUOUS
 66
     1
 40
0.000000
 41
0.000000
  0
VERTEX
  8
0
  6
CONTINUOUS
 10
4.902920
 20
2.968680
  0
VERTEX
  8
0
  6
CONTINUOUS
 10
5.543560
 20
2.608320
  0
VERTEX
  8
0
  6
CONTINUOUS
 10
5.542680
 20
2.518120
  0
VERTEX
  8
0
  6
CONTINUOUS
 10
4.902040
 20
2.878920
  0
VERTEX
  8
0
  6
CONTINUOUS
 10
4.902920
 20
2.968680
  0
SEQEND
  8
0
  0
SOLID
  8
0
 62
    15
 10
4.902040
 20
2.878920
 11
5.542680
 21
2.518120
 12
4.898520
 22
2.708200
 13
5.539600
 23
2.347400
  0
POLYLINE
  8
0
  6
CONTINUOUS
 66
     1
 40
0.000000
 41
0.000000
  0
VERTEX
  8
0
  6
CONTINUOUS
 10
4.902040
 20
2.878920
  0
VERTEX
  8
0
  6
CONTINUOUS
 10
5.542680
 20
2.518120
  0
VERTEX
  8
0
  6
CONTINUOUS
 10
5.539600
 20
2.347400
  0
VERTEX
  8
0
  6
CONTINUOUS
 10
4.898520
 20
2.708200
  0
VERTEX
  8
0
  6
CONTINUOUS
 10
4.902040
 20
2.878920
  0
SEQEND
  8
0
  0
SOLID
  8
0
 62
    15
 10
4.898520
 20
2.708200
 11
5.539600
 21
2.347400
 12
4.866840
 22
2.541000
 13
5.507920
 23
2.180200
  0
POLYLINE
  8
0
  6
CONTINUOUS
 66
     1
 40
0.000000
 41
0.000000
  0
VERTEX
  8
0
  6
CONTINUOUS
 10
4.898520
 20
2.708200
  0
VERTEX
  8
0
  6
CONTINUOUS
 10
5.539600
 20
2.347400
  0
VERTEX
  8
0
  6
CONTINUOUS
 10
5.507920
 20
2.180200
  0
VERTEX
  8
0
  6
CONTINUOUS
 10
4.866840
 20
2.541000
  0
VERTEX
  8
0
  6
CONTINUOUS
 10
4.898520
 20
2.708200
  0
SEQEND
  8
0
  0
SOLID
  8
0
 62
    15
 10
4.866840
 20
2.541000
 11
5.507920
 21
2.180200
 12
4.805680
 22
2.383040
 13
5.446320
 23
2.022240
  0
POLYLINE
  8
0
  6
CONTINUOUS
 66
     1
 40
0.000000
 41
0.000000
  0
VERTEX
  8
0
  6
CONTINUOUS
 10
4.866840
 20
2.541000
  0
VERTEX
  8
0
  6
CONTINUOUS
 10
5.507920
 20
2.180200
  0
VERTEX
  8
0
  6
CONTINUOUS
 10
5.446320
 20
2.022240
  0
VERTEX
  8
0
  6
CONTINUOUS
 10
4.805680
 20
2.383040
  0
VERTEX
  8
0
  6
CONTINUOUS
 10
4.866840
 20
2.541000
  0
SEQEND
  8
0
  0
SOLID
  8
0
 62
    15
 10
4.805680
 20
2.383040
 11
5.446320
 21
2.022240
 12
4.713280
 22
2.240480
 13
5.354360
 23
1.880120
  0
POLYLINE
  8
0
  6
CONTINUOUS
 66
     1
 40
0.000000
 41
0.000000
  0
VERTEX
  8
0
  6
CONTINUOUS
 10
4.805680
 20
2.383040
  0
VERTEX
  8
0
  6
CONTINUOUS
 10
5.446320
 20
2.022240
  0
VERTEX
  8
0
  6
CONTINUOUS
 10
5.354360
 20
1.880120
  0
VERTEX
  8
0
  6
CONTINUOUS
 10
4.713280
 20
2.240480
  0
VERTEX
  8
0
  6
CONTINUOUS
 10
4.805680
 20
2.383040
  0
SEQEND
  8
0
  0
SOLID
  8
0
 62
    15
 10
4.713280
 20
2.240480
 11
5.354360
 21
1.880120
 12
4.588760
 22
2.120360
 13
5.229400
 23
1.759560
  0
POLYLINE
  8
0
  6
CONTINUOUS
 66
     1
 40
0.000000
 41
0.000000
  0
VERTEX
  8
0
  6
CONTINUOUS
 10
4.713280
 20
2.240480
  0
VERTEX
  8
0
  6
CONTINUOUS
 10
5.354360
 20
1.880120
  0
VERTEX
  8
0
  6
CONTINUOUS
 10
5.229400
 20
1.759560
  0
VERTEX
  8
0
  6
CONTINUOUS
 10
4.588760
 20
2.120360
  0
VERTEX
  8
0
  6
CONTINUOUS
 10
4.713280
 20
2.240480
  0
SEQEND
  8
0
  0
SOLID
  8
0
 62
    15
 10
4.588760
 20
2.120360
 11
5.229400
 21
1.759560
 12
4.429920
 22
2.027960
 13
5.070560
 23
1.667160
  0
POLYLINE
  8
0
  6
CONTINUOUS
 66
     1
 40
0.000000
 41
0.000000
  0
VERTEX
  8
0
  6
CONTINUOUS
 10
4.588760
 20
2.120360
  0
VERTEX
  8
0
  6
CONTINUOUS
 10
5.229400
 20
1.759560
  0
VERTEX
  8
0
  6
CONTINUOUS
 10
5.070560
 20
1.667160
  0
VERTEX
  8
0
  6
CONTINUOUS
 10
4.429920
 20
2.027960
  0
VERTEX
  8
0
  6
CONTINUOUS
 10
4.588760
 20
2.120360
  0
SEQEND
  8
0
  0
SOLID
  8
0
 62
    15
 10
4.429920
 20
2.027960
 11
5.070560
 21
1.667160
 12
4.235880
 22
1.969440
 13
4.876960
 23
1.608640
  0
POLYLINE
  8
0
  6
CONTINUOUS
 66
     1
 40
0.000000
 41
0.000000
  0
VERTEX
  8
0
  6
CONTINUOUS
 10
4.429920
 20
2.027960
  0
VERTEX
  8
0
  6
CONTINUOUS
 10
5.070560
 20
1.667160
  0
VERTEX
  8
0
  6
CONTINUOUS
 10
4.876960
 20
1.608640
  0
VERTEX
  8
0
  6
CONTINUOUS
 10
4.235880
 20
1.969440
  0
VERTEX
  8
0
  6
CONTINUOUS
 10
4.429920
 20
2.027960
  0
SEQEND
  8
0
  0
SOLID
  8
0
 62
    15
 10
4.235880
 20
1.969440
 11
4.876960
 21
1.608640
 12
4.005320
 22
1.951400
 13
4.646400
 23
1.591040
  0
POLYLINE
  8
0
  6
CONTINUOUS
 66
     1
 40
0.000000
 41
0.000000
  0
VERTEX
  8
0
  6
CONTINUOUS
 10
4.235880
 20
1.969440
  0
VERTEX
  8
0
  6
CONTINUOUS
 10
4.876960
 20
1.608640
  0
VERTEX
  8
0
  6
CONTINUOUS
 10
4.646400
 20
1.591040
  0
VERTEX
  8
0
  6
CONTINUOUS
 10
4.005320
 20
1.951400
  0
VERTEX
  8
0
  6
CONTINUOUS
 10
4.235880
 20
1.969440
  0
SEQEND
  8
0
  0
SOLID
  8
0
 62
    15
 10
4.005320
 20
1.951400
 11
4.646400
 21
1.591040
 12
4.007960
 22
1.191960
 13
4.649040
 23
0.831600
  0
POLYLINE
  8
0
  6
CONTINUOUS
 66
     1
 40
0.000000
 41
0.000000
  0
VERTEX
  8
0
  6
CONTINUOUS
 10
4.005320
 20
1.951400
  0
VERTEX
  8
0
  6
CONTINUOUS
 10
4.646400
 20
1.591040
  0
VERTEX
  8
0
  6
CONTINUOUS
 10
4.649040
 20
0.831600
  0
VERTEX
  8
0
  6
CONTINUOUS
 10
4.007960
 20
1.191960
  0
VERTEX
  8
0
  6
CONTINUOUS
 10
4.005320
 20
1.951400
  0
SEQEND
  8
0
  0
POLYLINE
  8
0
  6
CONTINUOUS
 66
     1
 40
0.000000
 41
0.000000
  0
VERTEX
  8
0
  6
CONTINUOUS
 10
4.007960
 20
1.191960
  0
VERTEX
  8
0
  6
CONTINUOUS
 10
3.148200
 20
1.192840
  0
VERTEX
  8
0
  6
CONTINUOUS
 10
3.160960
 20
1.854160
  0
VERTEX
  8
0
  6
CONTINUOUS
 10
5.399240
 20
5.172640
  0
VERTEX
  8
0
  6
CONTINUOUS
 10
6.183320
 20
5.166040
  0
VERTEX
  8
0
  6
CONTINUOUS
 10
6.195640
 20
4.418040
  0
VERTEX
  8
0
  6
CONTINUOUS
 10
6.044720
 20
4.374040
  0
VERTEX
  8
0
  6
CONTINUOUS
 10
5.901720
 20
4.315080
  0
VERTEX
  8
0
  6
CONTINUOUS
 10
5.641240
 20
4.159760
  0
VERTEX
  8
0
  6
CONTINUOUS
 10
5.415960
 20
3.965720
  0
VERTEX
  8
0
  6
CONTINUOUS
 10
5.228520
 20
3.746160
  0
VERTEX
  8
0
  6
CONTINUOUS
 10
5.081120
 20
3.514280
  0
VERTEX
  8
0
  6
CONTINUOUS
 10
4.976400
 20
3.283720
  0
VERTEX
  8
0
  6
CONTINUOUS
 10
4.915680
 20
3.067240
  0
VERTEX
  8
0
  6
CONTINUOUS
 10
4.902920
 20
2.968680
  0
VERTEX
  8
0
  6
CONTINUOUS
 10
4.902040
 20
2.878920
  0
VERTEX
  8
0
  6
CONTINUOUS
 10
4.898520
 20
2.708200
  0
VERTEX
  8
0
  6
CONTINUOUS
 10
4.866840
 20
2.541000
  0
VERTEX
  8
0
  6
CONTINUOUS
 10
4.805680
 20
2.383040
  0
VERTEX
  8
0
  6
CONTINUOUS
 10
4.713280
 20
2.240480
  0
VERTEX
  8
0
  6
CONTINUOUS
 10
4.588760
 20
2.120360
  0
VERTEX
  8
0
  6
CONTINUOUS
 10
4.429920
 20
2.027960
  0
VERTEX
  8
0
  6
CONTINUOUS
 10
4.235880
 20
1.969440
  0
VERTEX
  8
0
  6
CONTINUOUS
 10
4.005320
 20
1.951400
  0
VERTEX
  8
0
  6
CONTINUOUS
 10
4.007960
 20
1.191960
  0
SEQEND
  8
0
  0
SOLID
  8
0
 62
     7
 10
4.283840
 20
1.505240
 11
4.941200
 21
1.124640
 12
4.276800
 22
1.478400
 13
4.934160
 23
1.097800
  0
POLYLINE
  8
0
  6
CONTINUOUS
 66
     1
 40
0.000000
 41
0.000000
  0
VERTEX
  8
0
  6
CONTINUOUS
 10
4.283840
 20
1.505240
  0
VERTEX
  8
0
  6
CONTINUOUS
 10
4.941200
 20
1.124640
  0
VERTEX
  8
0
  6
CONTINUOUS
 10
4.934160
 20
1.097800
  0
VERTEX
  8
0
  6
CONTINUOUS
 10
4.276800
 20
1.478400
  0
VERTEX
  8
0
  6
CONTINUOUS
 10
4.283840
 20
1.505240
  0
SEQEND
  8
0
  0
SOLID
  8
0
 62
    15
 10
4.165040
 20
1.795640
 11
4.822840
 21
1.415480
 12
4.187040
 22
1.779800
 13
4.844400
 23
1.399200
  0
POLYLINE
  8
0
  6
CONTINUOUS
 66
     1
 40
0.000000
 41
0.000000
  0
VERTEX
  8
0
  6
CONTINUOUS
 10
4.165040
 20
1.795640
  0
VERTEX
  8
0
  6
CONTINUOUS
 10
4.822840
 20
1.415480
  0
VERTEX
  8
0
  6
CONTINUOUS
 10
4.844400
 20
1.399200
  0
VERTEX
  8
0
  6
CONTINUOUS
 10
4.187040
 20
1.779800
  0
VERTEX
  8
0
  6
CONTINUOUS
 10
4.165040
 20
1.795640
  0
SEQEND
  8
0
  0
SOLID
  8
0
 62
    15
 10
4.187040
 20
1.779800
 11
4.844400
 21
1.399200
 12
4.206840
 22
1.761320
 13
4.864640
 23
1.381160
  0
POLYLINE
  8
0
  6
CONTINUOUS
 66
     1
 40
0.000000
 41
0.000000
  0
VERTEX
  8
0
  6
CONTINUOUS
 10
4.187040
 20
1.779800
  0
VERTEX
  8
0
  6
CONTINUOUS
 10
4.844400
 20
1.399200
  0
VERTEX
  8
0
  6
CONTINUOUS
 10
4.864640
 20
1.381160
  0
VERTEX
  8
0
  6
CONTINUOUS
 10
4.206840
 20
1.761320
  0
VERTEX
  8
0
  6
CONTINUOUS
 10
4.187040
 20
1.779800
  0
SEQEND
  8
0
  0
SOLID
  8
0
 62
    15
 10
4.206840
 20
1.761320
 11
4.864640
 21
1.381160
 12
4.225320
 22
1.741520
 13
4.882680
 23
1.360920
  0
POLYLINE
  8
0
  6
CONTINUOUS
 66
     1
 40
0.000000
 41
0.000000
  0
VERTEX
  8
0
  6
CONTINUOUS
 10
4.206840
 20
1.761320
  0
VERTEX
  8
0
  6
CONTINUOUS
 10
4.864640
 20
1.381160
  0
VERTEX
  8
0
  6
CONTINUOUS
 10
4.882680
 20
1.360920
  0
VERTEX
  8
0
  6
CONTINUOUS
 10
4.225320
 20
1.741520
  0
VERTEX
  8
0
  6
CONTINUOUS
 10
4.206840
 20
1.761320
  0
SEQEND
  8
0
  0
SOLID
  8
0
 62
    15
 10
4.225320
 20
1.741520
 11
4.882680
 21
1.360920
 12
4.241160
 22
1.719520
 13
4.898960
 23
1.339360
  0
POLYLINE
  8
0
  6
CONTINUOUS
 66
     1
 40
0.000000
 41
0.000000
  0
VERTEX
  8
0
  6
CONTINUOUS
 10
4.225320
 20
1.741520
  0
VERTEX
  8
0
  6
CONTINUOUS
 10
4.882680
 20
1.360920
  0
VERTEX
  8
0
  6
CONTINUOUS
 10
4.898960
 20
1.339360
  0
VERTEX
  8
0
  6
CONTINUOUS
 10
4.241160
 20
1.719520
  0
VERTEX
  8
0
  6
CONTINUOUS
 10
4.225320
 20
1.741520
  0
SEQEND
  8
0
  0
SOLID
  8
0
 62
    15
 10
4.241160
 20
1.719520
 11
4.898960
 21
1.339360
 12
4.255680
 22
1.696640
 13
4.913040
 23
1.316040
  0
POLYLINE
  8
0
  6
CONTINUOUS
 66
     1
 40
0.000000
 41
0.000000
  0
VERTEX
  8
0
  6
CONTINUOUS
 10
4.241160
 20
1.719520
  0
VERTEX
  8
0
  6
CONTINUOUS
 10
4.898960
 20
1.339360
  0
VERTEX
  8
0
  6
CONTINUOUS
 10
4.913040
 20
1.316040
  0
VERTEX
  8
0
  6
CONTINUOUS
 10
4.255680
 20
1.696640
  0
VERTEX
  8
0
  6
CONTINUOUS
 10
4.241160
 20
1.719520
  0
SEQEND
  8
0
  0
SOLID
  8
0
 62
    15
 10
4.255680
 20
1.696640
 11
4.913040
 21
1.316040
 12
4.267120
 22
1.672000
 13
4.924920
 23
1.291400
  0
POLYLINE
  8
0
  6
CONTINUOUS
 66
     1
 40
0.000000
 41
0.000000
  0
VERTEX
  8
0
  6
CONTINUOUS
 10
4.255680
 20
1.696640
  0
VERTEX
  8
0
  6
CONTINUOUS
 10
4.913040
 20
1.316040
  0
VERTEX
  8
0
  6
CONTINUOUS
 10
4.924920
 20
1.291400
  0
VERTEX
  8
0
  6
CONTINUOUS
 10
4.267120
 20
1.672000
  0
VERTEX
  8
0
  6
CONTINUOUS
 10
4.255680
 20
1.696640
  0
SEQEND
  8
0
  0
SOLID
  8
0
 62
    15
 10
4.267120
 20
1.672000
 11
4.924920
 21
1.291400
 12
4.276800
 22
1.646040
 13
4.934160
 23
1.265440
  0
POLYLINE
  8
0
  6
CONTINUOUS
 66
     1
 40
0.000000
 41
0.000000
  0
VERTEX
  8
0
  6
CONTINUOUS
 10
4.267120
 20
1.672000
  0
VERTEX
  8
0
  6
CONTINUOUS
 10
4.924920
 20
1.291400
  0
VERTEX
  8
0
  6
CONTINUOUS
 10
4.934160
 20
1.265440
  0
VERTEX
  8
0
  6
CONTINUOUS
 10
4.276800
 20
1.646040
  0
VERTEX
  8
0
  6
CONTINUOUS
 10
4.267120
 20
1.672000
  0
SEQEND
  8
0
  0
SOLID
  8
0
 62
    15
 10
4.276800
 20
1.646040
 11
4.934160
 21
1.265440
 12
4.283840
 22
1.618760
 13
4.941200
 23
1.238600
  0
POLYLINE
  8
0
  6
CONTINUOUS
 66
     1
 40
0.000000
 41
0.000000
  0
VERTEX
  8
0
  6
CONTINUOUS
 10
4.276800
 20
1.646040
  0
VERTEX
  8
0
  6
CONTINUOUS
 10
4.934160
 20
1.265440
  0
VERTEX
  8
0
  6
CONTINUOUS
 10
4.941200
 20
1.238600
  0
VERTEX
  8
0
  6
CONTINUOUS
 10
4.283840
 20
1.618760
  0
VERTEX
  8
0
  6
CONTINUOUS
 10
4.276800
 20
1.646040
  0
SEQEND
  8
0
  0
SOLID
  8
0
 62
    15
 10
4.283840
 20
1.618760
 11
4.941200
 21
1.238600
 12
4.288240
 22
1.591040
 13
4.945600
 23
1.210440
  0
POLYLINE
  8
0
  6
CONTINUOUS
 66
     1
 40
0.000000
 41
0.000000
  0
VERTEX
  8
0
  6
CONTINUOUS
 10
4.283840
 20
1.618760
  0
VERTEX
  8
0
  6
CONTINUOUS
 10
4.941200
 20
1.238600
  0
VERTEX
  8
0
  6
CONTINUOUS
 10
4.945600
 20
1.210440
  0
VERTEX
  8
0
  6
CONTINUOUS
 10
4.288240
 20
1.591040
  0
VERTEX
  8
0
  6
CONTINUOUS
 10
4.283840
 20
1.618760
  0
SEQEND
  8
0
  0
SOLID
  8
0
 62
    15
 10
4.288240
 20
1.591040
 11
4.945600
 21
1.210440
 12
4.289560
 22
1.562000
 13
4.946920
 23
1.181840
  0
POLYLINE
  8
0
  6
CONTINUOUS
 66
     1
 40
0.000000
 41
0.000000
  0
VERTEX
  8
0
  6
CONTINUOUS
 10
4.288240
 20
1.591040
  0
VERTEX
  8
0
  6
CONTINUOUS
 10
4.945600
 20
1.210440
  0
VERTEX
  8
0
  6
CONTINUOUS
 10
4.946920
 20
1.181840
  0
VERTEX
  8
0
  6
CONTINUOUS
 10
4.289560
 20
1.562000
  0
VERTEX
  8
0
  6
CONTINUOUS
 10
4.288240
 20
1.591040
  0
SEQEND
  8
0
  0
SOLID
  8
0
 62
    15
 10
4.289560
 20
1.562000
 11
4.946920
 21
1.181840
 12
4.288240
 22
1.533400
 13
4.945600
 23
1.152800
  0
POLYLINE
  8
0
  6
CONTINUOUS
 66
     1
 40
0.000000
 41
0.000000
  0
VERTEX
  8
0
  6
CONTINUOUS
 10
4.289560
 20
1.562000
  0
VERTEX
  8
0
  6
CONTINUOUS
 10
4.946920
 20
1.181840
  0
VERTEX
  8
0
  6
CONTINUOUS
 10
4.945600
 20
1.152800
  0
VERTEX
  8
0
  6
CONTINUOUS
 10
4.288240
 20
1.533400
  0
VERTEX
  8
0
  6
CONTINUOUS
 10
4.289560
 20
1.562000
  0
SEQEND
  8
0
  0
SOLID
  8
0
 62
    15
 10
4.288240
 20
1.533400
 11
4.945600
 21
1.152800
 12
4.283840
 22
1.505240
 13
4.941200
 23
1.124640
  0
POLYLINE
  8
0
  6
CONTINUOUS
 66
     1
 40
0.000000
 41
0.000000
  0
VERTEX
  8
0
  6
CONTINUOUS
 10
4.288240
 20
1.533400
  0
VERTEX
  8
0
  6
CONTINUOUS
 10
4.945600
 20
1.152800
  0
VERTEX
  8
0
  6
CONTINUOUS
 10
4.941200
 20
1.124640
  0
VERTEX
  8
0
  6
CONTINUOUS
 10
4.283840
 20
1.505240
  0
VERTEX
  8
0
  6
CONTINUOUS
 10
4.288240
 20
1.533400
  0
SEQEND
  8
0
  0
SOLID
  8
0
 62
    15
 10
4.142160
 20
1.810160
 11
4.799520
 21
1.429560
 12
4.165040
 22
1.795640
 13
4.822840
 23
1.415480
  0
POLYLINE
  8
0
  6
CONTINUOUS
 66
     1
 40
0.000000
 41
0.000000
  0
VERTEX
  8
0
  6
CONTINUOUS
 10
4.142160
 20
1.810160
  0
VERTEX
  8
0
  6
CONTINUOUS
 10
4.799520
 20
1.429560
  0
VERTEX
  8
0
  6
CONTINUOUS
 10
4.822840
 20
1.415480
  0
VERTEX
  8
0
  6
CONTINUOUS
 10
4.165040
 20
1.795640
  0
VERTEX
  8
0
  6
CONTINUOUS
 10
4.142160
 20
1.810160
  0
SEQEND
  8
0
  0
SOLID
  8
0
 62
     7
 10
4.276800
 20
1.478400
 11
4.934160
 21
1.097800
 12
4.267120
 22
1.452440
 13
4.924920
 23
1.071840
  0
POLYLINE
  8
0
  6
CONTINUOUS
 66
     1
 40
0.000000
 41
0.000000
  0
VERTEX
  8
0
  6
CONTINUOUS
 10
4.276800
 20
1.478400
  0
VERTEX
  8
0
  6
CONTINUOUS
 10
4.934160
 20
1.097800
  0
VERTEX
  8
0
  6
CONTINUOUS
 10
4.924920
 20
1.071840
  0
VERTEX
  8
0
  6
CONTINUOUS
 10
4.267120
 20
1.452440
  0
VERTEX
  8
0
  6
CONTINUOUS
 10
4.276800
 20
1.478400
  0
SEQEND
  8
0
  0
SOLID
  8
0
 62
     7
 10
4.267120
 20
1.452440
 11
4.924920
 21
1.071840
 12
4.255680
 22
1.427800
 13
4.913040
 23
1.047200
  0
POLYLINE
  8
0
  6
CONTINUOUS
 66
     1
 40
0.000000
 41
0.000000
  0
VERTEX
  8
0
  6
CONTINUOUS
 10
4.267120
 20
1.452440
  0
VERTEX
  8
0
  6
CONTINUOUS
 10
4.924920
 20
1.071840
  0
VERTEX
  8
0
  6
CONTINUOUS
 10
4.913040
 20
1.047200
  0
VERTEX
  8
0
  6
CONTINUOUS
 10
4.255680
 20
1.427800
  0
VERTEX
  8
0
  6
CONTINUOUS
 10
4.267120
 20
1.452440
  0
SEQEND
  8
0
  0
SOLID
  8
0
 62
     7
 10
4.255680
 20
1.427800
 11
4.913040
 21
1.047200
 12
4.241160
 22
1.404480
 13
4.898960
 23
1.023880
  0
POLYLINE
  8
0
  6
CONTINUOUS
 66
     1
 40
0.000000
 41
0.000000
  0
VERTEX
  8
0
  6
CONTINUOUS
 10
4.255680
 20
1.427800
  0
VERTEX
  8
0
  6
CONTINUOUS
 10
4.913040
 20
1.047200
  0
VERTEX
  8
0
  6
CONTINUOUS
 10
4.898960
 20
1.023880
  0
VERTEX
  8
0
  6
CONTINUOUS
 10
4.241160
 20
1.404480
  0
VERTEX
  8
0
  6
CONTINUOUS
 10
4.255680
 20
1.427800
  0
SEQEND
  8
0
  0
SOLID
  8
0
 62
     7
 10
4.241160
 20
1.404480
 11
4.898960
 21
1.023880
 12
4.225320
 22
1.382920
 13
4.882680
 23
1.002320
  0
POLYLINE
  8
0
  6
CONTINUOUS
 66
     1
 40
0.000000
 41
0.000000
  0
VERTEX
  8
0
  6
CONTINUOUS
 10
4.241160
 20
1.404480
  0
VERTEX
  8
0
  6
CONTINUOUS
 10
4.898960
 20
1.023880
  0
VERTEX
  8
0
  6
CONTINUOUS
 10
4.882680
 20
1.002320
  0
VERTEX
  8
0
  6
CONTINUOUS
 10
4.225320
 20
1.382920
  0
VERTEX
  8
0
  6
CONTINUOUS
 10
4.241160
 20
1.404480
  0
SEQEND
  8
0
  0
SOLID
  8
0
 62
     7
 10
4.225320
 20
1.382920
 11
4.882680
 21
1.002320
 12
4.206840
 22
1.362680
 13
4.864640
 23
0.982520
  0
POLYLINE
  8
0
  6
CONTINUOUS
 66
     1
 40
0.000000
 41
0.000000
  0
VERTEX
  8
0
  6
CONTINUOUS
 10
4.225320
 20
1.382920
  0
VERTEX
  8
0
  6
CONTINUOUS
 10
4.882680
 20
1.002320
  0
VERTEX
  8
0
  6
CONTINUOUS
 10
4.864640
 20
0.982520
  0
VERTEX
  8
0
  6
CONTINUOUS
 10
4.206840
 20
1.362680
  0
VERTEX
  8
0
  6
CONTINUOUS
 10
4.225320
 20
1.382920
  0
SEQEND
  8
0
  0
SOLID
  8
0
 62
     7
 10
4.206840
 20
1.362680
 11
4.864640
 21
0.982520
 12
4.187040
 22
1.344640
 13
4.844400
 23
0.964040
  0
POLYLINE
  8
0
  6
CONTINUOUS
 66
     1
 40
0.000000
 41
0.000000
  0
VERTEX
  8
0
  6
CONTINUOUS
 10
4.206840
 20
1.362680
  0
VERTEX
  8
0
  6
CONTINUOUS
 10
4.864640
 20
0.982520
  0
VERTEX
  8
0
  6
CONTINUOUS
 10
4.844400
 20
0.964040
  0
VERTEX
  8
0
  6
CONTINUOUS
 10
4.187040
 20
1.344640
  0
VERTEX
  8
0
  6
CONTINUOUS
 10
4.206840
 20
1.362680
  0
SEQEND
  8
0
  0
SOLID
  8
0
 62
     7
 10
4.187040
 20
1.344640
 11
4.844400
 21
0.964040
 12
4.165040
 22
1.328360
 13
4.822840
 23
0.947760
  0
POLYLINE
  8
0
  6
CONTINUOUS
 66
     1
 40
0.000000
 41
0.000000
  0
VERTEX
  8
0
  6
CONTINUOUS
 10
4.187040
 20
1.344640
  0
VERTEX
  8
0
  6
CONTINUOUS
 10
4.844400
 20
0.964040
  0
VERTEX
  8
0
  6
CONTINUOUS
 10
4.822840
 20
0.947760
  0
VERTEX
  8
0
  6
CONTINUOUS
 10
4.165040
 20
1.328360
  0
VERTEX
  8
0
  6
CONTINUOUS
 10
4.187040
 20
1.344640
  0
SEQEND
  8
0
  0
SOLID
  8
0
 62
     7
 10
4.165040
 20
1.328360
 11
4.822840
 21
0.947760
 12
4.142160
 22
1.314280
 13
4.799520
 23
0.933680
  0
POLYLINE
  8
0
  6
CONTINUOUS
 66
     1
 40
0.000000
 41
0.000000
  0
VERTEX
  8
0
  6
CONTINUOUS
 10
4.165040
 20
1.328360
  0
VERTEX
  8
0
  6
CONTINUOUS
 10
4.822840
 20
0.947760
  0
VERTEX
  8
0
  6
CONTINUOUS
 10
4.799520
 20
0.933680
  0
VERTEX
  8
0
  6
CONTINUOUS
 10
4.142160
 20
1.314280
  0
VERTEX
  8
0
  6
CONTINUOUS
 10
4.165040
 20
1.328360
  0
SEQEND
  8
0
  0
SOLID
  8
0
 62
     7
 10
4.142160
 20
1.314280
 11
4.799520
 21
0.933680
 12
4.117520
 22
1.302400
 13
4.774880
 23
0.921800
  0
POLYLINE
  8
0
  6
CONTINUOUS
 66
     1
 40
0.000000
 41
0.000000
  0
VERTEX
  8
0
  6
CONTINUOUS
 10
4.142160
 20
1.314280
  0
VERTEX
  8
0
  6
CONTINUOUS
 10
4.799520
 20
0.933680
  0
VERTEX
  8
0
  6
CONTINUOUS
 10
4.774880
 20
0.921800
  0
VERTEX
  8
0
  6
CONTINUOUS
 10
4.117520
 20
1.302400
  0
VERTEX
  8
0
  6
CONTINUOUS
 10
4.142160
 20
1.314280
  0
SEQEND
  8
0
  0
SOLID
  8
0
 62
     7
 10
4.117520
 20
1.302400
 11
4.774880
 21
0.921800
 12
4.091560
 22
1.292720
 13
4.748920
 23
0.912560
  0
POLYLINE
  8
0
  6
CONTINUOUS
 66
     1
 40
0.000000
 41
0.000000
  0
VERTEX
  8
0
  6
CONTINUOUS
 10
4.117520
 20
1.302400
  0
VERTEX
  8
0
  6
CONTINUOUS
 10
4.774880
 20
0.921800
  0
VERTEX
  8
0
  6
CONTINUOUS
 10
4.748920
 20
0.912560
  0
VERTEX
  8
0
  6
CONTINUOUS
 10
4.091560
 20
1.292720
  0
VERTEX
  8
0
  6
CONTINUOUS
 10
4.117520
 20
1.302400
  0
SEQEND
  8
0
  0
SOLID
  8
0
 62
     7
 10
4.091560
 20
1.292720
 11
4.748920
 21
0.912560
 12
4.064280
 22
1.285680
 13
4.722080
 23
0.905520
  0
POLYLINE
  8
0
  6
CONTINUOUS
 66
     1
 40
0.000000
 41
0.000000
  0
VERTEX
  8
0
  6
CONTINUOUS
 10
4.091560
 20
1.292720
  0
VERTEX
  8
0
  6
CONTINUOUS
 10
4.748920
 20
0.912560
  0
VERTEX
  8
0
  6
CONTINUOUS
 10
4.722080
 20
0.905520
  0
VERTEX
  8
0
  6
CONTINUOUS
 10
4.064280
 20
1.285680
  0
VERTEX
  8
0
  6
CONTINUOUS
 10
4.091560
 20
1.292720
  0
SEQEND
  8
0
  0
SOLID
  8
0
 62
     7
 10
4.064280
 20
1.285680
 11
4.722080
 21
0.905520
 12
4.036560
 22
1.281720
 13
4.693920
 23
0.901120
  0
POLYLINE
  8
0
  6
CONTINUOUS
 66
     1
 40
0.000000
 41
0.000000
  0
VERTEX
  8
0
  6
CONTINUOUS
 10
4.064280
 20
1.285680
  0
VERTEX
  8
0
  6
CONTINUOUS
 10
4.722080
 20
0.905520
  0
VERTEX
  8
0
  6
CONTINUOUS
 10
4.693920
 20
0.901120
  0
VERTEX
  8
0
  6
CONTINUOUS
 10
4.036560
 20
1.281720
  0
VERTEX
  8
0
  6
CONTINUOUS
 10
4.064280
 20
1.285680
  0
SEQEND
  8
0
  0
SOLID
  8
0
 62
    15
 10
4.036560
 20
1.281720
 11
4.693920
 21
0.901120
 12
4.007520
 22
1.280400
 13
4.665320
 23
0.899800
  0
POLYLINE
  8
0
  6
CONTINUOUS
 66
     1
 40
0.000000
 41
0.000000
  0
VERTEX
  8
0
  6
CONTINUOUS
 10
4.036560
 20
1.281720
  0
VERTEX
  8
0
  6
CONTINUOUS
 10
4.693920
 20
0.901120
  0
VERTEX
  8
0
  6
CONTINUOUS
 10
4.665320
 20
0.899800
  0
VERTEX
  8
0
  6
CONTINUOUS
 10
4.007520
 20
1.280400
  0
VERTEX
  8
0
  6
CONTINUOUS
 10
4.036560
 20
1.281720
  0
SEQEND
  8
0
  0
POLYLINE
  8
0
  6
CONTINUOUS
 66
     1
 40
0.000000
 41
0.000000
  0
VERTEX
  8
0
  6
CONTINUOUS
 10
4.007520
 20
1.282160
  0
VERTEX
  8
0
  6
CONTINUOUS
 10
4.007520
 20
1.844040
  0
VERTEX
  8
0
  6
CONTINUOUS
 10
4.036560
 20
1.842720
  0
VERTEX
  8
0
  6
CONTINUOUS
 10
4.064280
 20
1.838320
  0
VERTEX
  8
0
  6
CONTINUOUS
 10
4.091560
 20
1.831280
  0
VERTEX
  8
0
  6
CONTINUOUS
 10
4.117520
 20
1.821600
  0
VERTEX
  8
0
  6
CONTINUOUS
 10
4.142160
 20
1.810160
  0
VERTEX
  8
0
  6
CONTINUOUS
 10
4.165040
 20
1.795640
  0
VERTEX
  8
0
  6
CONTINUOUS
 10
4.187040
 20
1.779800
  0
VERTEX
  8
0
  6
CONTINUOUS
 10
4.206840
 20
1.761320
  0
VERTEX
  8
0
  6
CONTINUOUS
 10
4.225320
 20
1.741520
  0
VERTEX
  8
0
  6
CONTINUOUS
 10
4.241160
 20
1.719520
  0
VERTEX
  8
0
  6
CONTINUOUS
 10
4.255680
 20
1.696640
  0
VERTEX
  8
0
  6
CONTINUOUS
 10
4.267120
 20
1.672000
  0
VERTEX
  8
0
  6
CONTINUOUS
 10
4.276800
 20
1.646040
  0
VERTEX
  8
0
  6
CONTINUOUS
 10
4.283840
 20
1.618760
  0
VERTEX
  8
0
  6
CONTINUOUS
 10
4.288240
 20
1.591040
  0
VERTEX
  8
0
  6
CONTINUOUS
 10
4.289560
 20
1.562000
  0
VERTEX
  8
0
  6
CONTINUOUS
 10
4.288240
 20
1.533400
  0
VERTEX
  8
0
  6
CONTINUOUS
 10
4.283840
 20
1.505240
  0
VERTEX
  8
0
  6
CONTINUOUS
 10
4.276800
 20
1.478400
  0
VERTEX
  8
0
  6
CONTINUOUS
 10
4.267120
 20
1.452440
  0
VERTEX
  8
0
  6
CONTINUOUS
 10
4.255680
 20
1.427800
  0
VERTEX
  8
0
  6
CONTINUOUS
 10
4.241160
 20
1.404480
  0
VERTEX
  8
0
  6
CONTINUOUS
 10
4.225320
 20
1.382920
  0
VERTEX
  8
0
  6
CONTINUOUS
 10
4.206840
 20
1.362680
  0
VERTEX
  8
0
  6
CONTINUOUS
 10
4.187040
 20
1.344640
  0
VERTEX
  8
0
  6
CONTINUOUS
 10
4.165040
 20
1.328360
  0
VERTEX
  8
0
  6
CONTINUOUS
 10
4.142160
 20
1.314280
  0
VERTEX
  8
0
  6
CONTINUOUS
 10
4.117520
 20
1.302400
  0
VERTEX
  8
0
  6
CONTINUOUS
 10
4.091560
 20
1.292720
  0
VERTEX
  8
0
  6
CONTINUOUS
 10
4.064280
 20
1.285680
  0
VERTEX
  8
0
  6
CONTINUOUS
 10
4.036560
 20
1.281720
  0
VERTEX
  8
0
  6
CONTINUOUS
 10
4.007520
 20
1.280400
  0
VERTEX
  8
0
  6
CONTINUOUS
 10
4.007520
 20
1.282160
  0
SEQEND
  8
0
  0
TEXT
  8
0
 10
3.219040
 20
1.284800
 40
0.138274
  1
802
 41
1.000000
  7
SN0
 71
     0
 72
     5
 11
3.496079
 21
1.284800
  0
ENDSEC
  0
EOF
