  0
SECTION
  2
HEADER
  9
$ACADVER
  1
AC1006
  9
$EXTMIN
 10
3.555640
 20
0.498960
  9
$EXTMAX
 10
6.714840
 20
3.226960
  9
$LTSCALE
 40
0.044000
  9
$PDMODE
 70
    35
  9
$PDSIZE
 40
0.035200
  0
ENDSEC
  0
SECTION
  2
TABLES
  0
TABLE
  2
LTYPE
 70
     9
  0
LTYPE
  2
CONTINUOUS
 70
    64
  3
Solid line
 72
    65
 73
     0
 40
0.000000
  0
LTYPE
  2
DASHED
 70
    64
  3
__ __ __ __ __ __ __ __ __ __ __ __ __ __ __
 72
    65
 73
     2
 40
0.000330
 49
0.000220
 49
-0.000110
  0
LTYPE
  2
HIDDEN
 70
    64
  3
 _ _ _ _ _ _ _ _ _ _ _ _ _ _ _ _ _ _ _ _ _ _
 72
    65
 73
     2
 40
0.000165
 49
0.000110
 49
-0.000055
  0
LTYPE
  2
CENTER
 70
    64
  3
____ _ ____ _ ____ _ ____ _ ____ _ ____ _ ____
 72
    65
 73
     4
 40
0.000880
 49
0.000550
 49
-0.000110
 49
0.000110
 49
-0.000110
  0
LTYPE
  2
PHANTOM
 70
    64
  3
_____ _ _ _____ _ _ _____ _ _ _____ _ _ ____
 72
    65
 73
     6
 40
0.001100
 49
0.000550
 49
-0.000110
 49
0.000110
 49
-0.000110
 49
0.000110
 49
-0.000110
  0
LTYPE
  2
DOT
 70
    64
  3
...............................................
 72
    65
 73
     2
 40
0.000110
 49
0.000000
 49
-0.000110
  0
LTYPE
  2
DASHDOT
 70
    64
  3
__ . __ . __ . __ . __ . __ . __ . __ . __ . __
 72
    65
 73
     4
 40
0.000440
 49
0.000220
 49
-0.000110
 49
0.000000
 49
-0.000110
  0
LTYPE
  2
BORDER
 70
    64
  3
__ __ . __ __ . __ __ . __ __ . __ __ . __ __
 72
    65
 73
     6
 40
0.000770
 49
0.000220
 49
-0.000110
 49
0.000220
 49
-0.000110
 49
0.000000
 49
-0.000110
  0
LTYPE
  2
DIVIDE
 70
    64
  3
__ . . __ . . __ . . __ . . __ . . __ . . __
 72
    65
 73
     6
 40
0.000550
 49
0.000220
 49
-0.000110
 49
0.000000
 49
-0.000110
 49
0.000000
 49
-0.000110
  0
LTYPE
  2
DOTDOT
 70
    64
  3
 . .  . .  . .  . .  . .  . . 
 72
    65
 73
     5
 40
0.000242
 49
-0.000110
 49
0.000000
 49
-0.000110
 49
0.000000
 49
-0.000110
  0
ENDTAB
  0
TABLE
  2
STYLE
 70
     2
  0
STYLE
 70
     0
  2
SN0
 40
0.000000
 41
0.000440
 50
0.000000
 71
     0
 42
0.000000
  3
ROMAND
  0
STYLE
 70
    68
  2
SV0
 40
0.000000
 41
0.000440
 50
0.000000
 71
     0
 42
0.000000
  3
ROMAND
  0
ENDTAB
  0
TABLE
  2
LAYER
 70
     3
  0
LAYER
  2
FOREGROUND
 70
    64
 62
     7
  6
CONTINUOUS
  0
LAYER
  2
BACKGROUND
 70
    65
 62
    -7
  6
CONTINUOUS
  0
LAYER
  2
0
 70
    64
 62
     7
  6
CONTINUOUS
  0
ENDTAB
  0
ENDSEC
  0
SECTION
  2
ENTITIES
  0
POLYLINE
  8
FOREGROUND
  6
CONTINUOUS
 66
     1
 40
0.000000
 41
0.000000
  0
VERTEX
  8
FOREGROUND
  6
CONTINUOUS
 10
0.000000
 20
3.725920
  0
VERTEX
  8
FOREGROUND
  6
CONTINUOUS
 10
8.499920
 20
3.725920
  0
VERTEX
  8
FOREGROUND
  6
CONTINUOUS
 10
8.499920
 20
-7.274080
  0
VERTEX
  8
FOREGROUND
  6
CONTINUOUS
 10
0.000000
 20
-7.274080
  0
VERTEX
  8
FOREGROUND
  6
CONTINUOUS
 10
0.000000
 20
3.725920
  0
SEQEND
  8
0
  0
POLYLINE
  8
FOREGROUND
  6
CONTINUOUS
 66
     1
 40
0.000000
 41
0.000000
  0
VERTEX
  8
FOREGROUND
  6
CONTINUOUS
 10
0.000000
 20
3.725920
  0
VERTEX
  8
FOREGROUND
  6
CONTINUOUS
 10
8.499920
 20
3.725920
  0
VERTEX
  8
FOREGROUND
  6
CONTINUOUS
 10
8.499920
 20
-7.274080
  0
VERTEX
  8
FOREGROUND
  6
CONTINUOUS
 10
0.000000
 20
-7.274080
  0
VERTEX
  8
FOREGROUND
  6
CONTINUOUS
 10
0.000000
 20
3.725920
  0
SEQEND
  8
0
  0
SOLID
  8
0
 62
    15
 10
4.059880
 20
2.261600
 11
4.713720
 21
2.639120
 12
4.055480
 22
2.235640
 13
4.709760
 23
2.613600
  0
POLYLINE
  8
0
  6
CONTINUOUS
 66
     1
 40
0.000000
 41
0.000000
  0
VERTEX
  8
0
  6
CONTINUOUS
 10
4.059880
 20
2.261600
  0
VERTEX
  8
0
  6
CONTINUOUS
 10
4.713720
 20
2.639120
  0
VERTEX
  8
0
  6
CONTINUOUS
 10
4.709760
 20
2.613600
  0
VERTEX
  8
0
  6
CONTINUOUS
 10
4.055480
 20
2.235640
  0
VERTEX
  8
0
  6
CONTINUOUS
 10
4.059880
 20
2.261600
  0
SEQEND
  8
0
  0
SOLID
  8
0
 62
    15
 10
3.556520
 20
2.804120
 11
4.210800
 21
3.181640
 12
3.623840
 22
2.804120
 13
4.277680
 23
3.181640
  0
POLYLINE
  8
0
  6
CONTINUOUS
 66
     1
 40
0.000000
 41
0.000000
  0
VERTEX
  8
0
  6
CONTINUOUS
 10
3.556520
 20
2.804120
  0
VERTEX
  8
0
  6
CONTINUOUS
 10
4.210800
 20
3.181640
  0
VERTEX
  8
0
  6
CONTINUOUS
 10
4.277680
 20
3.181640
  0
VERTEX
  8
0
  6
CONTINUOUS
 10
3.623840
 20
2.804120
  0
VERTEX
  8
0
  6
CONTINUOUS
 10
3.556520
 20
2.804120
  0
SEQEND
  8
0
  0
SOLID
  8
0
 62
    15
 10
3.623840
 20
2.804120
 11
4.277680
 21
3.181640
 12
3.649800
 22
2.757040
 13
4.304080
 23
3.135000
  0
POLYLINE
  8
0
  6
CONTINUOUS
 66
     1
 40
0.000000
 41
0.000000
  0
VERTEX
  8
0
  6
CONTINUOUS
 10
3.623840
 20
2.804120
  0
VERTEX
  8
0
  6
CONTINUOUS
 10
4.277680
 20
3.181640
  0
VERTEX
  8
0
  6
CONTINUOUS
 10
4.304080
 20
3.135000
  0
VERTEX
  8
0
  6
CONTINUOUS
 10
3.649800
 20
2.757040
  0
VERTEX
  8
0
  6
CONTINUOUS
 10
3.623840
 20
2.804120
  0
SEQEND
  8
0
  0
SOLID
  8
0
 62
    15
 10
3.649800
 20
2.757040
 11
4.304080
 21
3.135000
 12
3.688960
 22
2.720520
 13
4.343240
 23
3.098040
  0
POLYLINE
  8
0
  6
CONTINUOUS
 66
     1
 40
0.000000
 41
0.000000
  0
VERTEX
  8
0
  6
CONTINUOUS
 10
3.649800
 20
2.757040
  0
VERTEX
  8
0
  6
CONTINUOUS
 10
4.304080
 20
3.135000
  0
VERTEX
  8
0
  6
CONTINUOUS
 10
4.343240
 20
3.098040
  0
VERTEX
  8
0
  6
CONTINUOUS
 10
3.688960
 20
2.720520
  0
VERTEX
  8
0
  6
CONTINUOUS
 10
3.649800
 20
2.757040
  0
SEQEND
  8
0
  0
SOLID
  8
0
 62
    15
 10
3.688960
 20
2.720520
 11
4.343240
 21
3.098040
 12
3.715360
 22
2.705120
 13
4.369640
 23
3.083080
  0
POLYLINE
  8
0
  6
CONTINUOUS
 66
     1
 40
0.000000
 41
0.000000
  0
VERTEX
  8
0
  6
CONTINUOUS
 10
3.688960
 20
2.720520
  0
VERTEX
  8
0
  6
CONTINUOUS
 10
4.343240
 20
3.098040
  0
VERTEX
  8
0
  6
CONTINUOUS
 10
4.369640
 20
3.083080
  0
VERTEX
  8
0
  6
CONTINUOUS
 10
3.715360
 20
2.705120
  0
VERTEX
  8
0
  6
CONTINUOUS
 10
3.688960
 20
2.720520
  0
SEQEND
  8
0
  0
SOLID
  8
0
 62
    15
 10
3.715360
 20
2.705120
 11
4.369640
 21
3.083080
 12
3.747480
 22
2.691920
 13
4.401760
 23
3.069440
  0
POLYLINE
  8
0
  6
CONTINUOUS
 66
     1
 40
0.000000
 41
0.000000
  0
VERTEX
  8
0
  6
CONTINUOUS
 10
3.715360
 20
2.705120
  0
VERTEX
  8
0
  6
CONTINUOUS
 10
4.369640
 20
3.083080
  0
VERTEX
  8
0
  6
CONTINUOUS
 10
4.401760
 20
3.069440
  0
VERTEX
  8
0
  6
CONTINUOUS
 10
3.747480
 20
2.691920
  0
VERTEX
  8
0
  6
CONTINUOUS
 10
3.715360
 20
2.705120
  0
SEQEND
  8
0
  0
SOLID
  8
0
 62
    15
 10
3.747480
 20
2.691920
 11
4.401760
 21
3.069440
 12
3.785760
 22
2.680040
 13
4.440040
 23
3.057560
  0
POLYLINE
  8
0
  6
CONTINUOUS
 66
     1
 40
0.000000
 41
0.000000
  0
VERTEX
  8
0
  6
CONTINUOUS
 10
3.747480
 20
2.691920
  0
VERTEX
  8
0
  6
CONTINUOUS
 10
4.401760
 20
3.069440
  0
VERTEX
  8
0
  6
CONTINUOUS
 10
4.440040
 20
3.057560
  0
VERTEX
  8
0
  6
CONTINUOUS
 10
3.785760
 20
2.680040
  0
VERTEX
  8
0
  6
CONTINUOUS
 10
3.747480
 20
2.691920
  0
SEQEND
  8
0
  0
SOLID
  8
0
 62
    15
 10
3.785760
 20
2.680040
 11
4.440040
 21
3.057560
 12
3.831520
 22
2.669480
 13
4.485360
 23
3.047440
  0
POLYLINE
  8
0
  6
CONTINUOUS
 66
     1
 40
0.000000
 41
0.000000
  0
VERTEX
  8
0
  6
CONTINUOUS
 10
3.785760
 20
2.680040
  0
VERTEX
  8
0
  6
CONTINUOUS
 10
4.440040
 20
3.057560
  0
VERTEX
  8
0
  6
CONTINUOUS
 10
4.485360
 20
3.047440
  0
VERTEX
  8
0
  6
CONTINUOUS
 10
3.831520
 20
2.669480
  0
VERTEX
  8
0
  6
CONTINUOUS
 10
3.785760
 20
2.680040
  0
SEQEND
  8
0
  0
SOLID
  8
0
 62
    15
 10
3.831520
 20
2.669480
 11
4.485360
 21
3.047440
 12
3.875960
 22
2.655400
 13
4.529800
 23
3.032920
  0
POLYLINE
  8
0
  6
CONTINUOUS
 66
     1
 40
0.000000
 41
0.000000
  0
VERTEX
  8
0
  6
CONTINUOUS
 10
3.831520
 20
2.669480
  0
VERTEX
  8
0
  6
CONTINUOUS
 10
4.485360
 20
3.047440
  0
VERTEX
  8
0
  6
CONTINUOUS
 10
4.529800
 20
3.032920
  0
VERTEX
  8
0
  6
CONTINUOUS
 10
3.875960
 20
2.655400
  0
VERTEX
  8
0
  6
CONTINUOUS
 10
3.831520
 20
2.669480
  0
SEQEND
  8
0
  0
SOLID
  8
0
 62
    15
 10
3.875960
 20
2.655400
 11
4.529800
 21
3.032920
 12
3.911600
 22
2.633840
 13
4.565440
 23
3.011360
  0
POLYLINE
  8
0
  6
CONTINUOUS
 66
     1
 40
0.000000
 41
0.000000
  0
VERTEX
  8
0
  6
CONTINUOUS
 10
3.875960
 20
2.655400
  0
VERTEX
  8
0
  6
CONTINUOUS
 10
4.529800
 20
3.032920
  0
VERTEX
  8
0
  6
CONTINUOUS
 10
4.565440
 20
3.011360
  0
VERTEX
  8
0
  6
CONTINUOUS
 10
3.911600
 20
2.633840
  0
VERTEX
  8
0
  6
CONTINUOUS
 10
3.875960
 20
2.655400
  0
SEQEND
  8
0
  0
SOLID
  8
0
 62
    15
 10
3.911600
 20
2.633840
 11
4.565440
 21
3.011360
 12
3.939760
 22
2.606560
 13
4.593600
 23
2.984080
  0
POLYLINE
  8
0
  6
CONTINUOUS
 66
     1
 40
0.000000
 41
0.000000
  0
VERTEX
  8
0
  6
CONTINUOUS
 10
3.911600
 20
2.633840
  0
VERTEX
  8
0
  6
CONTINUOUS
 10
4.565440
 20
3.011360
  0
VERTEX
  8
0
  6
CONTINUOUS
 10
4.593600
 20
2.984080
  0
VERTEX
  8
0
  6
CONTINUOUS
 10
3.939760
 20
2.606560
  0
VERTEX
  8
0
  6
CONTINUOUS
 10
3.911600
 20
2.633840
  0
SEQEND
  8
0
  0
SOLID
  8
0
 62
    15
 10
3.939760
 20
2.606560
 11
4.593600
 21
2.984080
 12
3.961760
 22
2.576640
 13
4.616040
 23
2.954160
  0
POLYLINE
  8
0
  6
CONTINUOUS
 66
     1
 40
0.000000
 41
0.000000
  0
VERTEX
  8
0
  6
CONTINUOUS
 10
3.939760
 20
2.606560
  0
VERTEX
  8
0
  6
CONTINUOUS
 10
4.593600
 20
2.984080
  0
VERTEX
  8
0
  6
CONTINUOUS
 10
4.616040
 20
2.954160
  0
VERTEX
  8
0
  6
CONTINUOUS
 10
3.961760
 20
2.576640
  0
VERTEX
  8
0
  6
CONTINUOUS
 10
3.939760
 20
2.606560
  0
SEQEND
  8
0
  0
SOLID
  8
0
 62
    15
 10
3.961760
 20
2.576640
 11
4.616040
 21
2.954160
 12
3.993000
 22
2.515480
 13
4.646840
 23
2.893000
  0
POLYLINE
  8
0
  6
CONTINUOUS
 66
     1
 40
0.000000
 41
0.000000
  0
VERTEX
  8
0
  6
CONTINUOUS
 10
3.961760
 20
2.576640
  0
VERTEX
  8
0
  6
CONTINUOUS
 10
4.616040
 20
2.954160
  0
VERTEX
  8
0
  6
CONTINUOUS
 10
4.646840
 20
2.893000
  0
VERTEX
  8
0
  6
CONTINUOUS
 10
3.993000
 20
2.515480
  0
VERTEX
  8
0
  6
CONTINUOUS
 10
3.961760
 20
2.576640
  0
SEQEND
  8
0
  0
SOLID
  8
0
 62
    15
 10
3.993000
 20
2.515480
 11
4.646840
 21
2.893000
 12
3.999160
 22
2.501840
 13
4.653000
 23
2.879360
  0
POLYLINE
  8
0
  6
CONTINUOUS
 66
     1
 40
0.000000
 41
0.000000
  0
VERTEX
  8
0
  6
CONTINUOUS
 10
3.993000
 20
2.515480
  0
VERTEX
  8
0
  6
CONTINUOUS
 10
4.646840
 20
2.893000
  0
VERTEX
  8
0
  6
CONTINUOUS
 10
4.653000
 20
2.879360
  0
VERTEX
  8
0
  6
CONTINUOUS
 10
3.999160
 20
2.501840
  0
VERTEX
  8
0
  6
CONTINUOUS
 10
3.993000
 20
2.515480
  0
SEQEND
  8
0
  0
SOLID
  8
0
 62
    15
 10
3.999160
 20
2.501840
 11
4.653000
 21
2.879360
 12
4.004440
 22
2.489080
 13
4.658720
 23
2.866600
  0
POLYLINE
  8
0
  6
CONTINUOUS
 66
     1
 40
0.000000
 41
0.000000
  0
VERTEX
  8
0
  6
CONTINUOUS
 10
3.999160
 20
2.501840
  0
VERTEX
  8
0
  6
CONTINUOUS
 10
4.653000
 20
2.879360
  0
VERTEX
  8
0
  6
CONTINUOUS
 10
4.658720
 20
2.866600
  0
VERTEX
  8
0
  6
CONTINUOUS
 10
4.004440
 20
2.489080
  0
VERTEX
  8
0
  6
CONTINUOUS
 10
3.999160
 20
2.501840
  0
SEQEND
  8
0
  0
SOLID
  8
0
 62
    15
 10
4.004440
 20
2.489080
 11
4.658720
 21
2.866600
 12
4.015440
 22
2.467960
 13
4.669720
 23
2.845480
  0
POLYLINE
  8
0
  6
CONTINUOUS
 66
     1
 40
0.000000
 41
0.000000
  0
VERTEX
  8
0
  6
CONTINUOUS
 10
4.004440
 20
2.489080
  0
VERTEX
  8
0
  6
CONTINUOUS
 10
4.658720
 20
2.866600
  0
VERTEX
  8
0
  6
CONTINUOUS
 10
4.669720
 20
2.845480
  0
VERTEX
  8
0
  6
CONTINUOUS
 10
4.015440
 20
2.467960
  0
VERTEX
  8
0
  6
CONTINUOUS
 10
4.004440
 20
2.489080
  0
SEQEND
  8
0
  0
SOLID
  8
0
 62
    15
 10
4.015440
 20
2.467960
 11
4.669720
 21
2.845480
 12
4.035240
 22
2.438480
 13
4.689520
 23
2.816000
  0
POLYLINE
  8
0
  6
CONTINUOUS
 66
     1
 40
0.000000
 41
0.000000
  0
VERTEX
  8
0
  6
CONTINUOUS
 10
4.015440
 20
2.467960
  0
VERTEX
  8
0
  6
CONTINUOUS
 10
4.669720
 20
2.845480
  0
VERTEX
  8
0
  6
CONTINUOUS
 10
4.689520
 20
2.816000
  0
VERTEX
  8
0
  6
CONTINUOUS
 10
4.035240
 20
2.438480
  0
VERTEX
  8
0
  6
CONTINUOUS
 10
4.015440
 20
2.467960
  0
SEQEND
  8
0
  0
SOLID
  8
0
 62
    15
 10
4.035240
 20
2.438480
 11
4.689520
 21
2.816000
 12
4.055040
 22
2.419120
 13
4.709320
 23
2.797080
  0
POLYLINE
  8
0
  6
CONTINUOUS
 66
     1
 40
0.000000
 41
0.000000
  0
VERTEX
  8
0
  6
CONTINUOUS
 10
4.035240
 20
2.438480
  0
VERTEX
  8
0
  6
CONTINUOUS
 10
4.689520
 20
2.816000
  0
VERTEX
  8
0
  6
CONTINUOUS
 10
4.709320
 20
2.797080
  0
VERTEX
  8
0
  6
CONTINUOUS
 10
4.055040
 20
2.419120
  0
VERTEX
  8
0
  6
CONTINUOUS
 10
4.035240
 20
2.438480
  0
SEQEND
  8
0
  0
SOLID
  8
0
 62
    15
 10
4.055040
 20
2.419120
 11
4.709320
 21
2.797080
 12
4.081440
 22
2.408120
 13
4.735720
 23
2.786080
  0
POLYLINE
  8
0
  6
CONTINUOUS
 66
     1
 40
0.000000
 41
0.000000
  0
VERTEX
  8
0
  6
CONTINUOUS
 10
4.055040
 20
2.419120
  0
VERTEX
  8
0
  6
CONTINUOUS
 10
4.709320
 20
2.797080
  0
VERTEX
  8
0
  6
CONTINUOUS
 10
4.735720
 20
2.786080
  0
VERTEX
  8
0
  6
CONTINUOUS
 10
4.081440
 20
2.408120
  0
VERTEX
  8
0
  6
CONTINUOUS
 10
4.055040
 20
2.419120
  0
SEQEND
  8
0
  0
SOLID
  8
0
 62
    15
 10
4.081440
 20
2.408120
 11
4.735720
 21
2.786080
 12
4.121480
 22
2.403720
 13
4.775760
 23
2.781240
  0
POLYLINE
  8
0
  6
CONTINUOUS
 66
     1
 40
0.000000
 41
0.000000
  0
VERTEX
  8
0
  6
CONTINUOUS
 10
4.081440
 20
2.408120
  0
VERTEX
  8
0
  6
CONTINUOUS
 10
4.735720
 20
2.786080
  0
VERTEX
  8
0
  6
CONTINUOUS
 10
4.775760
 20
2.781240
  0
VERTEX
  8
0
  6
CONTINUOUS
 10
4.121480
 20
2.403720
  0
VERTEX
  8
0
  6
CONTINUOUS
 10
4.081440
 20
2.408120
  0
SEQEND
  8
0
  0
SOLID
  8
0
 62
    15
 10
4.095080
 20
2.304280
 11
4.748920
 21
2.682240
 12
4.072640
 22
2.284480
 13
4.726920
 23
2.662000
  0
POLYLINE
  8
0
  6
CONTINUOUS
 66
     1
 40
0.000000
 41
0.000000
  0
VERTEX
  8
0
  6
CONTINUOUS
 10
4.095080
 20
2.304280
  0
VERTEX
  8
0
  6
CONTINUOUS
 10
4.748920
 20
2.682240
  0
VERTEX
  8
0
  6
CONTINUOUS
 10
4.726920
 20
2.662000
  0
VERTEX
  8
0
  6
CONTINUOUS
 10
4.072640
 20
2.284480
  0
VERTEX
  8
0
  6
CONTINUOUS
 10
4.095080
 20
2.304280
  0
SEQEND
  8
0
  0
SOLID
  8
0
 62
    15
 10
4.121480
 20
2.403720
 11
4.775760
 21
2.781240
 12
4.127200
 22
2.321000
 13
4.781480
 23
2.698520
  0
POLYLINE
  8
0
  6
CONTINUOUS
 66
     1
 40
0.000000
 41
0.000000
  0
VERTEX
  8
0
  6
CONTINUOUS
 10
4.121480
 20
2.403720
  0
VERTEX
  8
0
  6
CONTINUOUS
 10
4.775760
 20
2.781240
  0
VERTEX
  8
0
  6
CONTINUOUS
 10
4.781480
 20
2.698520
  0
VERTEX
  8
0
  6
CONTINUOUS
 10
4.127200
 20
2.321000
  0
VERTEX
  8
0
  6
CONTINUOUS
 10
4.121480
 20
2.403720
  0
SEQEND
  8
0
  0
SOLID
  8
0
 62
    15
 10
4.072640
 20
2.284480
 11
4.726920
 21
2.662000
 12
4.059880
 22
2.261600
 13
4.713720
 23
2.639120
  0
POLYLINE
  8
0
  6
CONTINUOUS
 66
     1
 40
0.000000
 41
0.000000
  0
VERTEX
  8
0
  6
CONTINUOUS
 10
4.072640
 20
2.284480
  0
VERTEX
  8
0
  6
CONTINUOUS
 10
4.726920
 20
2.662000
  0
VERTEX
  8
0
  6
CONTINUOUS
 10
4.713720
 20
2.639120
  0
VERTEX
  8
0
  6
CONTINUOUS
 10
4.059880
 20
2.261600
  0
VERTEX
  8
0
  6
CONTINUOUS
 10
4.072640
 20
2.284480
  0
SEQEND
  8
0
  0
SOLID
  8
0
 62
    15
 10
4.358200
 20
1.041480
 11
5.012480
 21
1.419000
 12
4.358200
 22
0.954360
 13
5.012480
 23
1.331880
  0
POLYLINE
  8
0
  6
CONTINUOUS
 66
     1
 40
0.000000
 41
0.000000
  0
VERTEX
  8
0
  6
CONTINUOUS
 10
4.358200
 20
1.041480
  0
VERTEX
  8
0
  6
CONTINUOUS
 10
5.012480
 20
1.419000
  0
VERTEX
  8
0
  6
CONTINUOUS
 10
5.012480
 20
1.331880
  0
VERTEX
  8
0
  6
CONTINUOUS
 10
4.358200
 20
0.954360
  0
VERTEX
  8
0
  6
CONTINUOUS
 10
4.358200
 20
1.041480
  0
SEQEND
  8
0
  0
SOLID
  8
0
 62
    15
 10
4.055480
 20
2.235640
 11
4.709760
 21
2.613600
 12
4.058560
 22
2.207480
 13
4.712840
 23
2.585000
  0
POLYLINE
  8
0
  6
CONTINUOUS
 66
     1
 40
0.000000
 41
0.000000
  0
VERTEX
  8
0
  6
CONTINUOUS
 10
4.055480
 20
2.235640
  0
VERTEX
  8
0
  6
CONTINUOUS
 10
4.709760
 20
2.613600
  0
VERTEX
  8
0
  6
CONTINUOUS
 10
4.712840
 20
2.585000
  0
VERTEX
  8
0
  6
CONTINUOUS
 10
4.058560
 20
2.207480
  0
VERTEX
  8
0
  6
CONTINUOUS
 10
4.055480
 20
2.235640
  0
SEQEND
  8
0
  0
SOLID
  8
0
 62
    15
 10
4.058560
 20
2.207480
 11
4.712840
 21
2.585000
 12
4.068680
 22
2.177120
 13
4.722960
 23
2.554640
  0
POLYLINE
  8
0
  6
CONTINUOUS
 66
     1
 40
0.000000
 41
0.000000
  0
VERTEX
  8
0
  6
CONTINUOUS
 10
4.058560
 20
2.207480
  0
VERTEX
  8
0
  6
CONTINUOUS
 10
4.712840
 20
2.585000
  0
VERTEX
  8
0
  6
CONTINUOUS
 10
4.722960
 20
2.554640
  0
VERTEX
  8
0
  6
CONTINUOUS
 10
4.068680
 20
2.177120
  0
VERTEX
  8
0
  6
CONTINUOUS
 10
4.058560
 20
2.207480
  0
SEQEND
  8
0
  0
SOLID
  8
0
 62
    15
 10
4.068680
 20
2.177120
 11
4.722960
 21
2.554640
 12
4.084520
 22
2.145000
 13
4.738800
 23
2.522520
  0
POLYLINE
  8
0
  6
CONTINUOUS
 66
     1
 40
0.000000
 41
0.000000
  0
VERTEX
  8
0
  6
CONTINUOUS
 10
4.068680
 20
2.177120
  0
VERTEX
  8
0
  6
CONTINUOUS
 10
4.722960
 20
2.554640
  0
VERTEX
  8
0
  6
CONTINUOUS
 10
4.738800
 20
2.522520
  0
VERTEX
  8
0
  6
CONTINUOUS
 10
4.084520
 20
2.145000
  0
VERTEX
  8
0
  6
CONTINUOUS
 10
4.068680
 20
2.177120
  0
SEQEND
  8
0
  0
SOLID
  8
0
 62
    15
 10
4.084520
 20
2.145000
 11
4.738800
 21
2.522520
 12
4.105640
 22
2.111120
 13
4.759920
 23
2.488640
  0
POLYLINE
  8
0
  6
CONTINUOUS
 66
     1
 40
0.000000
 41
0.000000
  0
VERTEX
  8
0
  6
CONTINUOUS
 10
4.084520
 20
2.145000
  0
VERTEX
  8
0
  6
CONTINUOUS
 10
4.738800
 20
2.522520
  0
VERTEX
  8
0
  6
CONTINUOUS
 10
4.759920
 20
2.488640
  0
VERTEX
  8
0
  6
CONTINUOUS
 10
4.105640
 20
2.111120
  0
VERTEX
  8
0
  6
CONTINUOUS
 10
4.084520
 20
2.145000
  0
SEQEND
  8
0
  0
SOLID
  8
0
 62
    15
 10
4.105640
 20
2.111120
 11
4.759920
 21
2.488640
 12
4.159320
 22
2.039840
 13
4.813160
 23
2.417360
  0
POLYLINE
  8
0
  6
CONTINUOUS
 66
     1
 40
0.000000
 41
0.000000
  0
VERTEX
  8
0
  6
CONTINUOUS
 10
4.105640
 20
2.111120
  0
VERTEX
  8
0
  6
CONTINUOUS
 10
4.759920
 20
2.488640
  0
VERTEX
  8
0
  6
CONTINUOUS
 10
4.813160
 20
2.417360
  0
VERTEX
  8
0
  6
CONTINUOUS
 10
4.159320
 20
2.039840
  0
VERTEX
  8
0
  6
CONTINUOUS
 10
4.105640
 20
2.111120
  0
SEQEND
  8
0
  0
SOLID
  8
0
 62
    15
 10
4.159320
 20
2.039840
 11
4.813160
 21
2.417360
 12
4.222240
 22
1.965920
 13
4.876520
 23
2.343440
  0
POLYLINE
  8
0
  6
CONTINUOUS
 66
     1
 40
0.000000
 41
0.000000
  0
VERTEX
  8
0
  6
CONTINUOUS
 10
4.159320
 20
2.039840
  0
VERTEX
  8
0
  6
CONTINUOUS
 10
4.813160
 20
2.417360
  0
VERTEX
  8
0
  6
CONTINUOUS
 10
4.876520
 20
2.343440
  0
VERTEX
  8
0
  6
CONTINUOUS
 10
4.222240
 20
1.965920
  0
VERTEX
  8
0
  6
CONTINUOUS
 10
4.159320
 20
2.039840
  0
SEQEND
  8
0
  0
SOLID
  8
0
 62
    15
 10
4.222240
 20
1.965920
 11
4.876520
 21
2.343440
 12
4.288240
 22
1.891120
 13
4.942520
 23
2.269080
  0
POLYLINE
  8
0
  6
CONTINUOUS
 66
     1
 40
0.000000
 41
0.000000
  0
VERTEX
  8
0
  6
CONTINUOUS
 10
4.222240
 20
1.965920
  0
VERTEX
  8
0
  6
CONTINUOUS
 10
4.876520
 20
2.343440
  0
VERTEX
  8
0
  6
CONTINUOUS
 10
4.942520
 20
2.269080
  0
VERTEX
  8
0
  6
CONTINUOUS
 10
4.288240
 20
1.891120
  0
VERTEX
  8
0
  6
CONTINUOUS
 10
4.222240
 20
1.965920
  0
SEQEND
  8
0
  0
SOLID
  8
0
 62
    15
 10
4.288240
 20
1.891120
 11
4.942520
 21
2.269080
 12
4.350280
 22
1.818520
 13
5.004560
 23
2.196480
  0
POLYLINE
  8
0
  6
CONTINUOUS
 66
     1
 40
0.000000
 41
0.000000
  0
VERTEX
  8
0
  6
CONTINUOUS
 10
4.288240
 20
1.891120
  0
VERTEX
  8
0
  6
CONTINUOUS
 10
4.942520
 20
2.269080
  0
VERTEX
  8
0
  6
CONTINUOUS
 10
5.004560
 20
2.196480
  0
VERTEX
  8
0
  6
CONTINUOUS
 10
4.350280
 20
1.818520
  0
VERTEX
  8
0
  6
CONTINUOUS
 10
4.288240
 20
1.891120
  0
SEQEND
  8
0
  0
SOLID
  8
0
 62
    15
 10
4.350280
 20
1.818520
 11
5.004560
 21
2.196480
 12
4.406600
 22
1.744600
 13
5.060880
 23
2.122120
  0
POLYLINE
  8
0
  6
CONTINUOUS
 66
     1
 40
0.000000
 41
0.000000
  0
VERTEX
  8
0
  6
CONTINUOUS
 10
4.350280
 20
1.818520
  0
VERTEX
  8
0
  6
CONTINUOUS
 10
5.004560
 20
2.196480
  0
VERTEX
  8
0
  6
CONTINUOUS
 10
5.060880
 20
2.122120
  0
VERTEX
  8
0
  6
CONTINUOUS
 10
4.406600
 20
1.744600
  0
VERTEX
  8
0
  6
CONTINUOUS
 10
4.350280
 20
1.818520
  0
SEQEND
  8
0
  0
SOLID
  8
0
 62
    15
 10
4.406600
 20
1.744600
 11
5.060880
 21
2.122120
 12
4.454560
 22
1.672440
 13
5.108840
 23
2.049960
  0
POLYLINE
  8
0
  6
CONTINUOUS
 66
     1
 40
0.000000
 41
0.000000
  0
VERTEX
  8
0
  6
CONTINUOUS
 10
4.406600
 20
1.744600
  0
VERTEX
  8
0
  6
CONTINUOUS
 10
5.060880
 20
2.122120
  0
VERTEX
  8
0
  6
CONTINUOUS
 10
5.108840
 20
2.049960
  0
VERTEX
  8
0
  6
CONTINUOUS
 10
4.454560
 20
1.672440
  0
VERTEX
  8
0
  6
CONTINUOUS
 10
4.406600
 20
1.744600
  0
SEQEND
  8
0
  0
SOLID
  8
0
 62
    15
 10
4.454560
 20
1.672440
 11
5.108840
 21
2.049960
 12
4.494600
 22
1.602040
 13
5.148440
 23
1.979560
  0
POLYLINE
  8
0
  6
CONTINUOUS
 66
     1
 40
0.000000
 41
0.000000
  0
VERTEX
  8
0
  6
CONTINUOUS
 10
4.454560
 20
1.672440
  0
VERTEX
  8
0
  6
CONTINUOUS
 10
5.108840
 20
2.049960
  0
VERTEX
  8
0
  6
CONTINUOUS
 10
5.148440
 20
1.979560
  0
VERTEX
  8
0
  6
CONTINUOUS
 10
4.494600
 20
1.602040
  0
VERTEX
  8
0
  6
CONTINUOUS
 10
4.454560
 20
1.672440
  0
SEQEND
  8
0
  0
SOLID
  8
0
 62
    15
 10
4.494600
 20
1.602040
 11
5.148440
 21
1.979560
 12
4.526280
 22
1.533840
 13
5.180120
 23
1.911800
  0
POLYLINE
  8
0
  6
CONTINUOUS
 66
     1
 40
0.000000
 41
0.000000
  0
VERTEX
  8
0
  6
CONTINUOUS
 10
4.494600
 20
1.602040
  0
VERTEX
  8
0
  6
CONTINUOUS
 10
5.148440
 20
1.979560
  0
VERTEX
  8
0
  6
CONTINUOUS
 10
5.180120
 20
1.911800
  0
VERTEX
  8
0
  6
CONTINUOUS
 10
4.526280
 20
1.533840
  0
VERTEX
  8
0
  6
CONTINUOUS
 10
4.494600
 20
1.602040
  0
SEQEND
  8
0
  0
SOLID
  8
0
 62
    15
 10
4.526280
 20
1.533840
 11
5.180120
 21
1.911800
 12
4.550040
 22
1.468720
 13
5.204320
 23
1.846240
  0
POLYLINE
  8
0
  6
CONTINUOUS
 66
     1
 40
0.000000
 41
0.000000
  0
VERTEX
  8
0
  6
CONTINUOUS
 10
4.526280
 20
1.533840
  0
VERTEX
  8
0
  6
CONTINUOUS
 10
5.180120
 20
1.911800
  0
VERTEX
  8
0
  6
CONTINUOUS
 10
5.204320
 20
1.846240
  0
VERTEX
  8
0
  6
CONTINUOUS
 10
4.550040
 20
1.468720
  0
VERTEX
  8
0
  6
CONTINUOUS
 10
4.526280
 20
1.533840
  0
SEQEND
  8
0
  0
SOLID
  8
0
 62
    15
 10
4.550040
 20
1.468720
 11
5.204320
 21
1.846240
 12
4.566760
 22
1.406680
 13
5.220600
 23
1.784200
  0
POLYLINE
  8
0
  6
CONTINUOUS
 66
     1
 40
0.000000
 41
0.000000
  0
VERTEX
  8
0
  6
CONTINUOUS
 10
4.550040
 20
1.468720
  0
VERTEX
  8
0
  6
CONTINUOUS
 10
5.204320
 20
1.846240
  0
VERTEX
  8
0
  6
CONTINUOUS
 10
5.220600
 20
1.784200
  0
VERTEX
  8
0
  6
CONTINUOUS
 10
4.566760
 20
1.406680
  0
VERTEX
  8
0
  6
CONTINUOUS
 10
4.550040
 20
1.468720
  0
SEQEND
  8
0
  0
SOLID
  8
0
 62
    15
 10
4.566760
 20
1.406680
 11
5.220600
 21
1.784200
 12
4.576000
 22
1.348160
 13
5.229840
 23
1.725680
  0
POLYLINE
  8
0
  6
CONTINUOUS
 66
     1
 40
0.000000
 41
0.000000
  0
VERTEX
  8
0
  6
CONTINUOUS
 10
4.566760
 20
1.406680
  0
VERTEX
  8
0
  6
CONTINUOUS
 10
5.220600
 20
1.784200
  0
VERTEX
  8
0
  6
CONTINUOUS
 10
5.229840
 20
1.725680
  0
VERTEX
  8
0
  6
CONTINUOUS
 10
4.576000
 20
1.348160
  0
VERTEX
  8
0
  6
CONTINUOUS
 10
4.566760
 20
1.406680
  0
SEQEND
  8
0
  0
SOLID
  8
0
 62
    15
 10
4.576000
 20
1.348160
 11
5.229840
 21
1.725680
 12
4.578200
 22
1.293600
 13
5.232040
 23
1.671120
  0
POLYLINE
  8
0
  6
CONTINUOUS
 66
     1
 40
0.000000
 41
0.000000
  0
VERTEX
  8
0
  6
CONTINUOUS
 10
4.576000
 20
1.348160
  0
VERTEX
  8
0
  6
CONTINUOUS
 10
5.229840
 20
1.725680
  0
VERTEX
  8
0
  6
CONTINUOUS
 10
5.232040
 20
1.671120
  0
VERTEX
  8
0
  6
CONTINUOUS
 10
4.578200
 20
1.293600
  0
VERTEX
  8
0
  6
CONTINUOUS
 10
4.576000
 20
1.348160
  0
SEQEND
  8
0
  0
SOLID
  8
0
 62
    15
 10
4.578200
 20
1.293600
 11
5.232040
 21
1.671120
 12
4.573360
 22
1.243000
 13
5.227200
 23
1.620960
  0
POLYLINE
  8
0
  6
CONTINUOUS
 66
     1
 40
0.000000
 41
0.000000
  0
VERTEX
  8
0
  6
CONTINUOUS
 10
4.578200
 20
1.293600
  0
VERTEX
  8
0
  6
CONTINUOUS
 10
5.232040
 20
1.671120
  0
VERTEX
  8
0
  6
CONTINUOUS
 10
5.227200
 20
1.620960
  0
VERTEX
  8
0
  6
CONTINUOUS
 10
4.573360
 20
1.243000
  0
VERTEX
  8
0
  6
CONTINUOUS
 10
4.578200
 20
1.293600
  0
SEQEND
  8
0
  0
SOLID
  8
0
 62
    15
 10
4.573360
 20
1.243000
 11
5.227200
 21
1.620960
 12
4.561920
 22
1.197240
 13
5.216200
 23
1.575200
  0
POLYLINE
  8
0
  6
CONTINUOUS
 66
     1
 40
0.000000
 41
0.000000
  0
VERTEX
  8
0
  6
CONTINUOUS
 10
4.573360
 20
1.243000
  0
VERTEX
  8
0
  6
CONTINUOUS
 10
5.227200
 20
1.620960
  0
VERTEX
  8
0
  6
CONTINUOUS
 10
5.216200
 20
1.575200
  0
VERTEX
  8
0
  6
CONTINUOUS
 10
4.561920
 20
1.197240
  0
VERTEX
  8
0
  6
CONTINUOUS
 10
4.573360
 20
1.243000
  0
SEQEND
  8
0
  0
SOLID
  8
0
 62
    15
 10
4.561920
 20
1.197240
 11
5.216200
 21
1.575200
 12
4.544320
 22
1.156760
 13
5.198600
 23
1.534280
  0
POLYLINE
  8
0
  6
CONTINUOUS
 66
     1
 40
0.000000
 41
0.000000
  0
VERTEX
  8
0
  6
CONTINUOUS
 10
4.561920
 20
1.197240
  0
VERTEX
  8
0
  6
CONTINUOUS
 10
5.216200
 20
1.575200
  0
VERTEX
  8
0
  6
CONTINUOUS
 10
5.198600
 20
1.534280
  0
VERTEX
  8
0
  6
CONTINUOUS
 10
4.544320
 20
1.156760
  0
VERTEX
  8
0
  6
CONTINUOUS
 10
4.561920
 20
1.197240
  0
SEQEND
  8
0
  0
SOLID
  8
0
 62
    15
 10
4.369200
 20
1.041920
 11
5.023480
 21
1.419440
 12
4.369200
 22
1.041480
 13
5.023480
 23
1.419000
  0
POLYLINE
  8
0
  6
CONTINUOUS
 66
     1
 40
0.000000
 41
0.000000
  0
VERTEX
  8
0
  6
CONTINUOUS
 10
4.369200
 20
1.041920
  0
VERTEX
  8
0
  6
CONTINUOUS
 10
5.023480
 20
1.419440
  0
VERTEX
  8
0
  6
CONTINUOUS
 10
5.023480
 20
1.419000
  0
VERTEX
  8
0
  6
CONTINUOUS
 10
4.369200
 20
1.041480
  0
VERTEX
  8
0
  6
CONTINUOUS
 10
4.369200
 20
1.041920
  0
SEQEND
  8
0
  0
SOLID
  8
0
 62
    15
 10
4.491080
 20
1.092080
 11
5.144920
 21
1.469600
 12
4.455880
 22
1.068760
 13
5.109720
 23
1.446280
  0
POLYLINE
  8
0
  6
CONTINUOUS
 66
     1
 40
0.000000
 41
0.000000
  0
VERTEX
  8
0
  6
CONTINUOUS
 10
4.491080
 20
1.092080
  0
VERTEX
  8
0
  6
CONTINUOUS
 10
5.144920
 20
1.469600
  0
VERTEX
  8
0
  6
CONTINUOUS
 10
5.109720
 20
1.446280
  0
VERTEX
  8
0
  6
CONTINUOUS
 10
4.455880
 20
1.068760
  0
VERTEX
  8
0
  6
CONTINUOUS
 10
4.491080
 20
1.092080
  0
SEQEND
  8
0
  0
SOLID
  8
0
 62
    15
 10
4.520560
 20
1.121560
 11
5.174840
 21
1.499080
 12
4.491080
 22
1.092080
 13
5.144920
 23
1.469600
  0
POLYLINE
  8
0
  6
CONTINUOUS
 66
     1
 40
0.000000
 41
0.000000
  0
VERTEX
  8
0
  6
CONTINUOUS
 10
4.520560
 20
1.121560
  0
VERTEX
  8
0
  6
CONTINUOUS
 10
5.174840
 20
1.499080
  0
VERTEX
  8
0
  6
CONTINUOUS
 10
5.144920
 20
1.469600
  0
VERTEX
  8
0
  6
CONTINUOUS
 10
4.491080
 20
1.092080
  0
VERTEX
  8
0
  6
CONTINUOUS
 10
4.520560
 20
1.121560
  0
SEQEND
  8
0
  0
SOLID
  8
0
 62
    15
 10
4.544320
 20
1.156760
 11
5.198600
 21
1.534280
 12
4.520560
 22
1.121560
 13
5.174840
 23
1.499080
  0
POLYLINE
  8
0
  6
CONTINUOUS
 66
     1
 40
0.000000
 41
0.000000
  0
VERTEX
  8
0
  6
CONTINUOUS
 10
4.544320
 20
1.156760
  0
VERTEX
  8
0
  6
CONTINUOUS
 10
5.198600
 20
1.534280
  0
VERTEX
  8
0
  6
CONTINUOUS
 10
5.174840
 20
1.499080
  0
VERTEX
  8
0
  6
CONTINUOUS
 10
4.520560
 20
1.121560
  0
VERTEX
  8
0
  6
CONTINUOUS
 10
4.544320
 20
1.156760
  0
SEQEND
  8
0
  0
POLYLINE
  8
0
  6
CONTINUOUS
 66
     1
 40
0.000000
 41
0.000000
  0
VERTEX
  8
0
  6
CONTINUOUS
 10
4.369200
 20
1.041480
  0
VERTEX
  8
0
  6
CONTINUOUS
 10
4.358200
 20
1.041480
  0
VERTEX
  8
0
  6
CONTINUOUS
 10
4.358200
 20
0.954360
  0
VERTEX
  8
0
  6
CONTINUOUS
 10
3.556520
 20
0.954360
  0
VERTEX
  8
0
  6
CONTINUOUS
 10
3.556520
 20
2.804120
  0
VERTEX
  8
0
  6
CONTINUOUS
 10
3.623840
 20
2.804120
  0
VERTEX
  8
0
  6
CONTINUOUS
 10
3.649800
 20
2.757040
  0
VERTEX
  8
0
  6
CONTINUOUS
 10
3.688960
 20
2.720520
  0
VERTEX
  8
0
  6
CONTINUOUS
 10
3.715360
 20
2.705120
  0
VERTEX
  8
0
  6
CONTINUOUS
 10
3.747480
 20
2.691920
  0
VERTEX
  8
0
  6
CONTINUOUS
 10
3.785760
 20
2.680040
  0
VERTEX
  8
0
  6
CONTINUOUS
 10
3.831520
 20
2.669480
  0
VERTEX
  8
0
  6
CONTINUOUS
 10
3.875960
 20
2.655400
  0
VERTEX
  8
0
  6
CONTINUOUS
 10
3.911600
 20
2.633840
  0
VERTEX
  8
0
  6
CONTINUOUS
 10
3.939760
 20
2.606560
  0
VERTEX
  8
0
  6
CONTINUOUS
 10
3.961760
 20
2.576640
  0
VERTEX
  8
0
  6
CONTINUOUS
 10
3.999160
 20
2.501840
  0
VERTEX
  8
0
  6
CONTINUOUS
 10
4.015440
 20
2.467960
  0
VERTEX
  8
0
  6
CONTINUOUS
 10
4.035240
 20
2.438480
  0
VERTEX
  8
0
  6
CONTINUOUS
 10
4.055040
 20
2.419120
  0
VERTEX
  8
0
  6
CONTINUOUS
 10
4.081440
 20
2.408120
  0
VERTEX
  8
0
  6
CONTINUOUS
 10
4.121480
 20
2.403720
  0
VERTEX
  8
0
  6
CONTINUOUS
 10
4.127200
 20
2.321000
  0
VERTEX
  8
0
  6
CONTINUOUS
 10
4.095080
 20
2.304280
  0
VERTEX
  8
0
  6
CONTINUOUS
 10
4.072640
 20
2.284480
  0
VERTEX
  8
0
  6
CONTINUOUS
 10
4.059880
 20
2.261600
  0
VERTEX
  8
0
  6
CONTINUOUS
 10
4.055480
 20
2.235640
  0
VERTEX
  8
0
  6
CONTINUOUS
 10
4.058560
 20
2.207480
  0
VERTEX
  8
0
  6
CONTINUOUS
 10
4.068680
 20
2.177120
  0
VERTEX
  8
0
  6
CONTINUOUS
 10
4.084520
 20
2.145000
  0
VERTEX
  8
0
  6
CONTINUOUS
 10
4.105640
 20
2.111120
  0
VERTEX
  8
0
  6
CONTINUOUS
 10
4.159320
 20
2.039840
  0
VERTEX
  8
0
  6
CONTINUOUS
 10
4.350280
 20
1.818520
  0
VERTEX
  8
0
  6
CONTINUOUS
 10
4.406600
 20
1.744600
  0
VERTEX
  8
0
  6
CONTINUOUS
 10
4.454560
 20
1.672440
  0
VERTEX
  8
0
  6
CONTINUOUS
 10
4.494600
 20
1.602040
  0
VERTEX
  8
0
  6
CONTINUOUS
 10
4.526280
 20
1.533840
  0
VERTEX
  8
0
  6
CONTINUOUS
 10
4.550040
 20
1.468720
  0
VERTEX
  8
0
  6
CONTINUOUS
 10
4.566760
 20
1.406680
  0
VERTEX
  8
0
  6
CONTINUOUS
 10
4.576000
 20
1.348160
  0
VERTEX
  8
0
  6
CONTINUOUS
 10
4.578200
 20
1.293600
  0
VERTEX
  8
0
  6
CONTINUOUS
 10
4.573360
 20
1.243000
  0
VERTEX
  8
0
  6
CONTINUOUS
 10
4.561920
 20
1.197240
  0
VERTEX
  8
0
  6
CONTINUOUS
 10
4.544320
 20
1.156760
  0
VERTEX
  8
0
  6
CONTINUOUS
 10
4.520560
 20
1.121560
  0
VERTEX
  8
0
  6
CONTINUOUS
 10
4.491080
 20
1.092080
  0
VERTEX
  8
0
  6
CONTINUOUS
 10
4.455880
 20
1.068760
  0
VERTEX
  8
0
  6
CONTINUOUS
 10
4.414960
 20
1.051600
  0
VERTEX
  8
0
  6
CONTINUOUS
 10
4.369200
 20
1.041480
  0
SEQEND
  8
0
  0
TEXT
  8
0
 10
4.099040
 20
0.733920
 40
0.138141
  1
BA  801
 41
1.000000
  7
SN0
 71
     0
 72
     5
 11
4.689494
 21
0.733920
  0
TEXT
  8
0
 10
4.012800
 20
0.542080
 40
0.138141
  1
1" x 1-7/8"
 41
1.000000
  7
SN0
 71
     0
 72
     5
 11
4.775589
 21
0.542080
  0
POLYLINE
  8
0
  6
CONTINUOUS
 66
     1
 40
0.014080
 41
0.014080
  0
VERTEX
  8
0
  6
CONTINUOUS
 10
6.498800
 20
1.456840
  0
VERTEX
  8
0
  6
CONTINUOUS
 10
6.522560
 20
1.460800
  0
VERTEX
  8
0
  6
CONTINUOUS
 10
6.544560
 20
1.466520
  0
VERTEX
  8
0
  6
CONTINUOUS
 10
6.585480
 20
1.483680
  0
VERTEX
  8
0
  6
CONTINUOUS
 10
6.603960
 20
1.494240
  0
VERTEX
  8
0
  6
CONTINUOUS
 10
6.636080
 20
1.520640
  0
VERTEX
  8
0
  6
CONTINUOUS
 10
6.662920
 20
1.553200
  0
VERTEX
  8
0
  6
CONTINUOUS
 10
6.683600
 20
1.591480
  0
VERTEX
  8
0
  6
CONTINUOUS
 10
6.691520
 20
1.612160
  0
VERTEX
  8
0
  6
CONTINUOUS
 10
6.698120
 20
1.634600
  0
VERTEX
  8
0
  6
CONTINUOUS
 10
6.702960
 20
1.657920
  0
VERTEX
  8
0
  6
CONTINUOUS
 10
6.707800
 20
1.708520
  0
VERTEX
  8
0
  6
CONTINUOUS
 10
6.705600
 20
1.763080
  0
VERTEX
  8
0
  6
CONTINUOUS
 10
6.702080
 20
1.792120
  0
VERTEX
  8
0
  6
CONTINUOUS
 10
6.688880
 20
1.852400
  0
VERTEX
  8
0
  6
CONTINUOUS
 10
6.680080
 20
1.883640
  0
VERTEX
  8
0
  6
CONTINUOUS
 10
6.669080
 20
1.916200
  0
VERTEX
  8
0
  6
CONTINUOUS
 10
6.640920
 20
1.982640
  0
VERTEX
  8
0
  6
CONTINUOUS
 10
6.605280
 20
2.051720
  0
VERTEX
  8
0
  6
CONTINUOUS
 10
6.561720
 20
2.123440
  0
VERTEX
  8
0
  6
CONTINUOUS
 10
6.509360
 20
2.196480
  0
VERTEX
  8
0
  6
CONTINUOUS
 10
6.450400
 20
2.269960
  0
VERTEX
  8
0
  6
CONTINUOUS
 10
6.288920
 20
2.454760
  0
VERTEX
  8
0
  6
CONTINUOUS
 10
6.247560
 20
2.508880
  0
VERTEX
  8
0
  6
CONTINUOUS
 10
6.224240
 20
2.543200
  0
VERTEX
  8
0
  6
CONTINUOUS
 10
6.205760
 20
2.576200
  0
VERTEX
  8
0
  6
CONTINUOUS
 10
6.192560
 20
2.607880
  0
VERTEX
  8
0
  6
CONTINUOUS
 10
6.185960
 20
2.636920
  0
VERTEX
  8
0
  6
CONTINUOUS
 10
6.185520
 20
2.651000
  0
VERTEX
  8
0
  6
CONTINUOUS
 10
6.186400
 20
2.664200
  0
VERTEX
  8
0
  6
CONTINUOUS
 10
6.189480
 20
2.676520
  0
VERTEX
  8
0
  6
CONTINUOUS
 10
6.195200
 20
2.688400
  0
VERTEX
  8
0
  6
CONTINUOUS
 10
6.207080
 20
2.704680
  0
VERTEX
  8
0
  6
CONTINUOUS
 10
6.224680
 20
2.719200
  0
VERTEX
  8
0
  6
CONTINUOUS
 10
6.248000
 20
2.731960
  0
VERTEX
  8
0
  6
CONTINUOUS
 10
6.257240
 20
2.735920
  0
VERTEX
  8
0
  6
CONTINUOUS
 10
6.251520
 20
2.818640
  0
VERTEX
  8
0
  6
CONTINUOUS
 10
6.219840
 20
2.821720
  0
VERTEX
  8
0
  6
CONTINUOUS
 10
6.196960
 20
2.827880
  0
VERTEX
  8
0
  6
CONTINUOUS
 10
6.179800
 20
2.838440
  0
VERTEX
  8
0
  6
CONTINUOUS
 10
6.165280
 20
2.853400
  0
VERTEX
  8
0
  6
CONTINUOUS
 10
6.140200
 20
2.892560
  0
VERTEX
  8
0
  6
CONTINUOUS
 10
6.100600
 20
2.976160
  0
VERTEX
  8
0
  6
CONTINUOUS
 10
6.081240
 20
3.006960
  0
VERTEX
  8
0
  6
CONTINUOUS
 10
6.056160
 20
3.036000
  0
VERTEX
  8
0
  6
CONTINUOUS
 10
6.024480
 20
3.060640
  0
VERTEX
  8
0
  6
CONTINUOUS
 10
5.995440
 20
3.074720
  0
VERTEX
  8
0
  6
CONTINUOUS
 10
5.973000
 20
3.082200
  0
VERTEX
  8
0
  6
CONTINUOUS
 10
5.895560
 20
3.101120
  0
VERTEX
  8
0
  6
CONTINUOUS
 10
5.860800
 20
3.113440
  0
VERTEX
  8
0
  6
CONTINUOUS
 10
5.831320
 20
3.127960
  0
VERTEX
  8
0
  6
CONTINUOUS
 10
5.807560
 20
3.143800
  0
VERTEX
  8
0
  6
CONTINUOUS
 10
5.788200
 20
3.162280
  0
VERTEX
  8
0
  6
CONTINUOUS
 10
5.772360
 20
3.182960
  0
VERTEX
  8
0
  6
CONTINUOUS
 10
5.759160
 20
3.206280
  0
VERTEX
  8
0
  6
CONTINUOUS
 10
5.753440
 20
3.219040
  0
VERTEX
  8
0
  6
CONTINUOUS
 10
5.686120
 20
3.219040
  0
VERTEX
  8
0
  6
CONTINUOUS
 10
5.686120
 20
1.369280
  0
VERTEX
  8
0
  6
CONTINUOUS
 10
6.488240
 20
1.369280
  0
VERTEX
  8
0
  6
CONTINUOUS
 10
6.488240
 20
1.456400
  0
VERTEX
  8
0
  6
CONTINUOUS
 10
6.498800
 20
1.456840
  0
SEQEND
  8
0
  0
ENDSEC
  0
EOF
