  0
SECTION
  2
HEADER
  9
$ACADVER
  1
AC1006
  9
$EXTMIN
 10
1.015960
 20
0.665280
  9
$EXTMAX
 10
7.962680
 20
6.957720
  9
$LTSCALE
 40
0.044000
  9
$PDMODE
 70
    35
  9
$PDSIZE
 40
0.035200
  0
ENDSEC
  0
SECTION
  2
TABLES
  0
TABLE
  2
LTYPE
 70
     9
  0
LTYPE
  2
CONTINUOUS
 70
    64
  3
Solid line
 72
    65
 73
     0
 40
0.000000
  0
LTYPE
  2
DASHED
 70
    64
  3
__ __ __ __ __ __ __ __ __ __ __ __ __ __ __
 72
    65
 73
     2
 40
0.000330
 49
0.000220
 49
-0.000110
  0
LTYPE
  2
HIDDEN
 70
    64
  3
 _ _ _ _ _ _ _ _ _ _ _ _ _ _ _ _ _ _ _ _ _ _
 72
    65
 73
     2
 40
0.000165
 49
0.000110
 49
-0.000055
  0
LTYPE
  2
CENTER
 70
    64
  3
____ _ ____ _ ____ _ ____ _ ____ _ ____ _ ____
 72
    65
 73
     4
 40
0.000880
 49
0.000550
 49
-0.000110
 49
0.000110
 49
-0.000110
  0
LTYPE
  2
PHANTOM
 70
    64
  3
_____ _ _ _____ _ _ _____ _ _ _____ _ _ ____
 72
    65
 73
     6
 40
0.001100
 49
0.000550
 49
-0.000110
 49
0.000110
 49
-0.000110
 49
0.000110
 49
-0.000110
  0
LTYPE
  2
DOT
 70
    64
  3
...............................................
 72
    65
 73
     2
 40
0.000110
 49
0.000000
 49
-0.000110
  0
LTYPE
  2
DASHDOT
 70
    64
  3
__ . __ . __ . __ . __ . __ . __ . __ . __ . __
 72
    65
 73
     4
 40
0.000440
 49
0.000220
 49
-0.000110
 49
0.000000
 49
-0.000110
  0
LTYPE
  2
BORDER
 70
    64
  3
__ __ . __ __ . __ __ . __ __ . __ __ . __ __
 72
    65
 73
     6
 40
0.000770
 49
0.000220
 49
-0.000110
 49
0.000220
 49
-0.000110
 49
0.000000
 49
-0.000110
  0
LTYPE
  2
DIVIDE
 70
    64
  3
__ . . __ . . __ . . __ . . __ . . __ . . __
 72
    65
 73
     6
 40
0.000550
 49
0.000220
 49
-0.000110
 49
0.000000
 49
-0.000110
 49
0.000000
 49
-0.000110
  0
LTYPE
  2
DOTDOT
 70
    64
  3
 . .  . .  . .  . .  . .  . . 
 72
    65
 73
     5
 40
0.000242
 49
-0.000110
 49
0.000000
 49
-0.000110
 49
0.000000
 49
-0.000110
  0
ENDTAB
  0
TABLE
  2
STYLE
 70
     2
  0
STYLE
 70
     0
  2
SN0
 40
0.000000
 41
0.000440
 50
0.000000
 71
     0
 42
0.000000
  3
ROMAND
  0
STYLE
 70
    68
  2
SV0
 40
0.000000
 41
0.000440
 50
0.000000
 71
     0
 42
0.000000
  3
ROMAND
  0
ENDTAB
  0
TABLE
  2
LAYER
 70
     3
  0
LAYER
  2
FOREGROUND
 70
    64
 62
     7
  6
CONTINUOUS
  0
LAYER
  2
BACKGROUND
 70
    65
 62
    -7
  6
CONTINUOUS
  0
LAYER
  2
0
 70
    64
 62
     7
  6
CONTINUOUS
  0
ENDTAB
  0
ENDSEC
  0
SECTION
  2
ENTITIES
  0
POLYLINE
  8
FOREGROUND
  6
CONTINUOUS
 66
     1
 40
0.000000
 41
0.000000
  0
VERTEX
  8
FOREGROUND
  6
CONTINUOUS
 10
0.000000
 20
7.623000
  0
VERTEX
  8
FOREGROUND
  6
CONTINUOUS
 10
8.499920
 20
7.623000
  0
VERTEX
  8
FOREGROUND
  6
CONTINUOUS
 10
8.499920
 20
-3.377000
  0
VERTEX
  8
FOREGROUND
  6
CONTINUOUS
 10
0.000000
 20
-3.377000
  0
VERTEX
  8
FOREGROUND
  6
CONTINUOUS
 10
0.000000
 20
7.623000
  0
SEQEND
  8
0
  0
POLYLINE
  8
FOREGROUND
  6
CONTINUOUS
 66
     1
 40
0.000000
 41
0.000000
  0
VERTEX
  8
FOREGROUND
  6
CONTINUOUS
 10
0.000000
 20
7.623000
  0
VERTEX
  8
FOREGROUND
  6
CONTINUOUS
 10
8.499920
 20
7.623000
  0
VERTEX
  8
FOREGROUND
  6
CONTINUOUS
 10
8.499920
 20
-3.377000
  0
VERTEX
  8
FOREGROUND
  6
CONTINUOUS
 10
0.000000
 20
-3.377000
  0
VERTEX
  8
FOREGROUND
  6
CONTINUOUS
 10
0.000000
 20
7.623000
  0
SEQEND
  8
0
  0
SOLID
  8
0
 62
    15
 10
3.784440
 20
3.564440
 11
4.428160
 21
3.951640
 12
3.954280
 22
3.466320
 13
4.597560
 23
3.853080
  0
POLYLINE
  8
0
  6
CONTINUOUS
 66
     1
 40
0.000000
 41
0.000000
  0
VERTEX
  8
0
  6
CONTINUOUS
 10
3.784440
 20
3.564440
  0
VERTEX
  8
0
  6
CONTINUOUS
 10
4.428160
 20
3.951640
  0
VERTEX
  8
0
  6
CONTINUOUS
 10
4.597560
 20
3.853080
  0
VERTEX
  8
0
  6
CONTINUOUS
 10
3.954280
 20
3.466320
  0
VERTEX
  8
0
  6
CONTINUOUS
 10
3.784440
 20
3.564440
  0
SEQEND
  8
0
  0
SOLID
  8
0
 62
    15
 10
1.613480
 20
4.563240
 11
2.256760
 21
4.950000
 12
1.756920
 22
4.603720
 13
2.400200
 23
4.990480
  0
POLYLINE
  8
0
  6
CONTINUOUS
 66
     1
 40
0.000000
 41
0.000000
  0
VERTEX
  8
0
  6
CONTINUOUS
 10
1.613480
 20
4.563240
  0
VERTEX
  8
0
  6
CONTINUOUS
 10
2.256760
 20
4.950000
  0
VERTEX
  8
0
  6
CONTINUOUS
 10
2.400200
 20
4.990480
  0
VERTEX
  8
0
  6
CONTINUOUS
 10
1.756920
 20
4.603720
  0
VERTEX
  8
0
  6
CONTINUOUS
 10
1.613480
 20
4.563240
  0
SEQEND
  8
0
  0
SOLID
  8
0
 62
    15
 10
1.756920
 20
4.603720
 11
2.400200
 21
4.990480
 12
1.908280
 22
4.624400
 13
2.551560
 23
5.011160
  0
POLYLINE
  8
0
  6
CONTINUOUS
 66
     1
 40
0.000000
 41
0.000000
  0
VERTEX
  8
0
  6
CONTINUOUS
 10
1.756920
 20
4.603720
  0
VERTEX
  8
0
  6
CONTINUOUS
 10
2.400200
 20
4.990480
  0
VERTEX
  8
0
  6
CONTINUOUS
 10
2.551560
 20
5.011160
  0
VERTEX
  8
0
  6
CONTINUOUS
 10
1.908280
 20
4.624400
  0
VERTEX
  8
0
  6
CONTINUOUS
 10
1.756920
 20
4.603720
  0
SEQEND
  8
0
  0
SOLID
  8
0
 62
    15
 10
1.908280
 20
4.624400
 11
2.551560
 21
5.011160
 12
2.064920
 22
4.623080
 13
2.708200
 23
5.009840
  0
POLYLINE
  8
0
  6
CONTINUOUS
 66
     1
 40
0.000000
 41
0.000000
  0
VERTEX
  8
0
  6
CONTINUOUS
 10
1.908280
 20
4.624400
  0
VERTEX
  8
0
  6
CONTINUOUS
 10
2.551560
 20
5.011160
  0
VERTEX
  8
0
  6
CONTINUOUS
 10
2.708200
 20
5.009840
  0
VERTEX
  8
0
  6
CONTINUOUS
 10
2.064920
 20
4.623080
  0
VERTEX
  8
0
  6
CONTINUOUS
 10
1.908280
 20
4.624400
  0
SEQEND
  8
0
  0
SOLID
  8
0
 62
    15
 10
2.064920
 20
4.623080
 11
2.708200
 21
5.009840
 12
2.225080
 22
4.598440
 13
2.868360
 23
4.985200
  0
POLYLINE
  8
0
  6
CONTINUOUS
 66
     1
 40
0.000000
 41
0.000000
  0
VERTEX
  8
0
  6
CONTINUOUS
 10
2.064920
 20
4.623080
  0
VERTEX
  8
0
  6
CONTINUOUS
 10
2.708200
 20
5.009840
  0
VERTEX
  8
0
  6
CONTINUOUS
 10
2.868360
 20
4.985200
  0
VERTEX
  8
0
  6
CONTINUOUS
 10
2.225080
 20
4.598440
  0
VERTEX
  8
0
  6
CONTINUOUS
 10
2.064920
 20
4.623080
  0
SEQEND
  8
0
  0
SOLID
  8
0
 62
    15
 10
2.225080
 20
4.598440
 11
2.868360
 21
4.985200
 12
2.386120
 22
4.548280
 13
3.029400
 23
4.935040
  0
POLYLINE
  8
0
  6
CONTINUOUS
 66
     1
 40
0.000000
 41
0.000000
  0
VERTEX
  8
0
  6
CONTINUOUS
 10
2.225080
 20
4.598440
  0
VERTEX
  8
0
  6
CONTINUOUS
 10
2.868360
 20
4.985200
  0
VERTEX
  8
0
  6
CONTINUOUS
 10
3.029400
 20
4.935040
  0
VERTEX
  8
0
  6
CONTINUOUS
 10
2.386120
 20
4.548280
  0
VERTEX
  8
0
  6
CONTINUOUS
 10
2.225080
 20
4.598440
  0
SEQEND
  8
0
  0
SOLID
  8
0
 62
    15
 10
2.386120
 20
4.548280
 11
3.029400
 21
4.935040
 12
2.545400
 22
4.470400
 13
3.189120
 23
4.857160
  0
POLYLINE
  8
0
  6
CONTINUOUS
 66
     1
 40
0.000000
 41
0.000000
  0
VERTEX
  8
0
  6
CONTINUOUS
 10
2.386120
 20
4.548280
  0
VERTEX
  8
0
  6
CONTINUOUS
 10
3.029400
 20
4.935040
  0
VERTEX
  8
0
  6
CONTINUOUS
 10
3.189120
 20
4.857160
  0
VERTEX
  8
0
  6
CONTINUOUS
 10
2.545400
 20
4.470400
  0
VERTEX
  8
0
  6
CONTINUOUS
 10
2.386120
 20
4.548280
  0
SEQEND
  8
0
  0
SOLID
  8
0
 62
    15
 10
2.545400
 20
4.470400
 11
3.189120
 21
4.857160
 12
2.689280
 22
4.385040
 13
3.333000
 23
4.771800
  0
POLYLINE
  8
0
  6
CONTINUOUS
 66
     1
 40
0.000000
 41
0.000000
  0
VERTEX
  8
0
  6
CONTINUOUS
 10
2.545400
 20
4.470400
  0
VERTEX
  8
0
  6
CONTINUOUS
 10
3.189120
 20
4.857160
  0
VERTEX
  8
0
  6
CONTINUOUS
 10
3.333000
 20
4.771800
  0
VERTEX
  8
0
  6
CONTINUOUS
 10
2.689280
 20
4.385040
  0
VERTEX
  8
0
  6
CONTINUOUS
 10
2.545400
 20
4.470400
  0
SEQEND
  8
0
  0
SOLID
  8
0
 62
    15
 10
2.689280
 20
4.385040
 11
3.333000
 21
4.771800
 12
2.807640
 22
4.310240
 13
3.450920
 23
4.697000
  0
POLYLINE
  8
0
  6
CONTINUOUS
 66
     1
 40
0.000000
 41
0.000000
  0
VERTEX
  8
0
  6
CONTINUOUS
 10
2.689280
 20
4.385040
  0
VERTEX
  8
0
  6
CONTINUOUS
 10
3.333000
 20
4.771800
  0
VERTEX
  8
0
  6
CONTINUOUS
 10
3.450920
 20
4.697000
  0
VERTEX
  8
0
  6
CONTINUOUS
 10
2.807640
 20
4.310240
  0
VERTEX
  8
0
  6
CONTINUOUS
 10
2.689280
 20
4.385040
  0
SEQEND
  8
0
  0
SOLID
  8
0
 62
    15
 10
2.807640
 20
4.310240
 11
3.450920
 21
4.697000
 12
2.904000
 22
4.244680
 13
3.547280
 23
4.631440
  0
POLYLINE
  8
0
  6
CONTINUOUS
 66
     1
 40
0.000000
 41
0.000000
  0
VERTEX
  8
0
  6
CONTINUOUS
 10
2.807640
 20
4.310240
  0
VERTEX
  8
0
  6
CONTINUOUS
 10
3.450920
 20
4.697000
  0
VERTEX
  8
0
  6
CONTINUOUS
 10
3.547280
 20
4.631440
  0
VERTEX
  8
0
  6
CONTINUOUS
 10
2.904000
 20
4.244680
  0
VERTEX
  8
0
  6
CONTINUOUS
 10
2.807640
 20
4.310240
  0
SEQEND
  8
0
  0
SOLID
  8
0
 62
    15
 10
2.904000
 20
4.244680
 11
3.547280
 21
4.631440
 12
2.982320
 22
4.186160
 13
3.625600
 23
4.572920
  0
POLYLINE
  8
0
  6
CONTINUOUS
 66
     1
 40
0.000000
 41
0.000000
  0
VERTEX
  8
0
  6
CONTINUOUS
 10
2.904000
 20
4.244680
  0
VERTEX
  8
0
  6
CONTINUOUS
 10
3.547280
 20
4.631440
  0
VERTEX
  8
0
  6
CONTINUOUS
 10
3.625600
 20
4.572920
  0
VERTEX
  8
0
  6
CONTINUOUS
 10
2.982320
 20
4.186160
  0
VERTEX
  8
0
  6
CONTINUOUS
 10
2.904000
 20
4.244680
  0
SEQEND
  8
0
  0
SOLID
  8
0
 62
    15
 10
2.982320
 20
4.186160
 11
3.625600
 21
4.572920
 12
3.101120
 22
4.085840
 13
3.744400
 23
4.472600
  0
POLYLINE
  8
0
  6
CONTINUOUS
 66
     1
 40
0.000000
 41
0.000000
  0
VERTEX
  8
0
  6
CONTINUOUS
 10
2.982320
 20
4.186160
  0
VERTEX
  8
0
  6
CONTINUOUS
 10
3.625600
 20
4.572920
  0
VERTEX
  8
0
  6
CONTINUOUS
 10
3.744400
 20
4.472600
  0
VERTEX
  8
0
  6
CONTINUOUS
 10
3.101120
 20
4.085840
  0
VERTEX
  8
0
  6
CONTINUOUS
 10
2.982320
 20
4.186160
  0
SEQEND
  8
0
  0
SOLID
  8
0
 62
    15
 10
3.101120
 20
4.085840
 11
3.744400
 21
4.472600
 12
3.195280
 22
3.995640
 13
3.838560
 23
4.382400
  0
POLYLINE
  8
0
  6
CONTINUOUS
 66
     1
 40
0.000000
 41
0.000000
  0
VERTEX
  8
0
  6
CONTINUOUS
 10
3.101120
 20
4.085840
  0
VERTEX
  8
0
  6
CONTINUOUS
 10
3.744400
 20
4.472600
  0
VERTEX
  8
0
  6
CONTINUOUS
 10
3.838560
 20
4.382400
  0
VERTEX
  8
0
  6
CONTINUOUS
 10
3.195280
 20
3.995640
  0
VERTEX
  8
0
  6
CONTINUOUS
 10
3.101120
 20
4.085840
  0
SEQEND
  8
0
  0
SOLID
  8
0
 62
    15
 10
3.195280
 20
3.995640
 11
3.838560
 21
4.382400
 12
3.296040
 22
3.901920
 13
3.939320
 23
4.288680
  0
POLYLINE
  8
0
  6
CONTINUOUS
 66
     1
 40
0.000000
 41
0.000000
  0
VERTEX
  8
0
  6
CONTINUOUS
 10
3.195280
 20
3.995640
  0
VERTEX
  8
0
  6
CONTINUOUS
 10
3.838560
 20
4.382400
  0
VERTEX
  8
0
  6
CONTINUOUS
 10
3.939320
 20
4.288680
  0
VERTEX
  8
0
  6
CONTINUOUS
 10
3.296040
 20
3.901920
  0
VERTEX
  8
0
  6
CONTINUOUS
 10
3.195280
 20
3.995640
  0
SEQEND
  8
0
  0
SOLID
  8
0
 62
    15
 10
3.296040
 20
3.901920
 11
3.939320
 21
4.288680
 12
3.435080
 22
3.791040
 13
4.078800
 23
4.177800
  0
POLYLINE
  8
0
  6
CONTINUOUS
 66
     1
 40
0.000000
 41
0.000000
  0
VERTEX
  8
0
  6
CONTINUOUS
 10
3.296040
 20
3.901920
  0
VERTEX
  8
0
  6
CONTINUOUS
 10
3.939320
 20
4.288680
  0
VERTEX
  8
0
  6
CONTINUOUS
 10
4.078800
 20
4.177800
  0
VERTEX
  8
0
  6
CONTINUOUS
 10
3.435080
 20
3.791040
  0
VERTEX
  8
0
  6
CONTINUOUS
 10
3.296040
 20
3.901920
  0
SEQEND
  8
0
  0
SOLID
  8
0
 62
    15
 10
3.435080
 20
3.791040
 11
4.078800
 21
4.177800
 12
3.528800
 22
3.725480
 13
4.172520
 23
4.112240
  0
POLYLINE
  8
0
  6
CONTINUOUS
 66
     1
 40
0.000000
 41
0.000000
  0
VERTEX
  8
0
  6
CONTINUOUS
 10
3.435080
 20
3.791040
  0
VERTEX
  8
0
  6
CONTINUOUS
 10
4.078800
 20
4.177800
  0
VERTEX
  8
0
  6
CONTINUOUS
 10
4.172520
 20
4.112240
  0
VERTEX
  8
0
  6
CONTINUOUS
 10
3.528800
 20
3.725480
  0
VERTEX
  8
0
  6
CONTINUOUS
 10
3.435080
 20
3.791040
  0
SEQEND
  8
0
  0
SOLID
  8
0
 62
    15
 10
3.528800
 20
3.725480
 11
4.172520
 21
4.112240
 12
3.644080
 22
3.650680
 13
4.287360
 23
4.037440
  0
POLYLINE
  8
0
  6
CONTINUOUS
 66
     1
 40
0.000000
 41
0.000000
  0
VERTEX
  8
0
  6
CONTINUOUS
 10
3.528800
 20
3.725480
  0
VERTEX
  8
0
  6
CONTINUOUS
 10
4.172520
 20
4.112240
  0
VERTEX
  8
0
  6
CONTINUOUS
 10
4.287360
 20
4.037440
  0
VERTEX
  8
0
  6
CONTINUOUS
 10
3.644080
 20
3.650680
  0
VERTEX
  8
0
  6
CONTINUOUS
 10
3.528800
 20
3.725480
  0
SEQEND
  8
0
  0
SOLID
  8
0
 62
    15
 10
3.644080
 20
3.650680
 11
4.287360
 21
4.037440
 12
3.784440
 22
3.564440
 13
4.428160
 23
3.951640
  0
POLYLINE
  8
0
  6
CONTINUOUS
 66
     1
 40
0.000000
 41
0.000000
  0
VERTEX
  8
0
  6
CONTINUOUS
 10
3.644080
 20
3.650680
  0
VERTEX
  8
0
  6
CONTINUOUS
 10
4.287360
 20
4.037440
  0
VERTEX
  8
0
  6
CONTINUOUS
 10
4.428160
 20
3.951640
  0
VERTEX
  8
0
  6
CONTINUOUS
 10
3.784440
 20
3.564440
  0
VERTEX
  8
0
  6
CONTINUOUS
 10
3.644080
 20
3.650680
  0
SEQEND
  8
0
  0
SOLID
  8
0
 62
    15
 10
1.479720
 20
4.504720
 11
2.123440
 21
4.891480
 12
1.613480
 22
4.563240
 13
2.256760
 23
4.950000
  0
POLYLINE
  8
0
  6
CONTINUOUS
 66
     1
 40
0.000000
 41
0.000000
  0
VERTEX
  8
0
  6
CONTINUOUS
 10
1.479720
 20
4.504720
  0
VERTEX
  8
0
  6
CONTINUOUS
 10
2.123440
 20
4.891480
  0
VERTEX
  8
0
  6
CONTINUOUS
 10
2.256760
 20
4.950000
  0
VERTEX
  8
0
  6
CONTINUOUS
 10
1.613480
 20
4.563240
  0
VERTEX
  8
0
  6
CONTINUOUS
 10
1.479720
 20
4.504720
  0
SEQEND
  8
0
  0
SOLID
  8
0
 62
    15
 10
3.954280
 20
3.466320
 11
4.597560
 21
3.853080
 12
4.330480
 22
3.283280
 13
4.973760
 23
3.670040
  0
POLYLINE
  8
0
  6
CONTINUOUS
 66
     1
 40
0.000000
 41
0.000000
  0
VERTEX
  8
0
  6
CONTINUOUS
 10
3.954280
 20
3.466320
  0
VERTEX
  8
0
  6
CONTINUOUS
 10
4.597560
 20
3.853080
  0
VERTEX
  8
0
  6
CONTINUOUS
 10
4.973760
 20
3.670040
  0
VERTEX
  8
0
  6
CONTINUOUS
 10
4.330480
 20
3.283280
  0
VERTEX
  8
0
  6
CONTINUOUS
 10
3.954280
 20
3.466320
  0
SEQEND
  8
0
  0
SOLID
  8
0
 62
    15
 10
4.330480
 20
3.283280
 11
4.973760
 21
3.670040
 12
4.706680
 22
3.142040
 13
5.350400
 23
3.528800
  0
POLYLINE
  8
0
  6
CONTINUOUS
 66
     1
 40
0.000000
 41
0.000000
  0
VERTEX
  8
0
  6
CONTINUOUS
 10
4.330480
 20
3.283280
  0
VERTEX
  8
0
  6
CONTINUOUS
 10
4.973760
 20
3.670040
  0
VERTEX
  8
0
  6
CONTINUOUS
 10
5.350400
 20
3.528800
  0
VERTEX
  8
0
  6
CONTINUOUS
 10
4.706680
 20
3.142040
  0
VERTEX
  8
0
  6
CONTINUOUS
 10
4.330480
 20
3.283280
  0
SEQEND
  8
0
  0
SOLID
  8
0
 62
    15
 10
4.706680
 20
3.142040
 11
5.350400
 21
3.528800
 12
5.067480
 22
3.021920
 13
5.711200
 23
3.408680
  0
POLYLINE
  8
0
  6
CONTINUOUS
 66
     1
 40
0.000000
 41
0.000000
  0
VERTEX
  8
0
  6
CONTINUOUS
 10
4.706680
 20
3.142040
  0
VERTEX
  8
0
  6
CONTINUOUS
 10
5.350400
 20
3.528800
  0
VERTEX
  8
0
  6
CONTINUOUS
 10
5.711200
 20
3.408680
  0
VERTEX
  8
0
  6
CONTINUOUS
 10
5.067480
 20
3.021920
  0
VERTEX
  8
0
  6
CONTINUOUS
 10
4.706680
 20
3.142040
  0
SEQEND
  8
0
  0
SOLID
  8
0
 62
    15
 10
5.067480
 20
3.021920
 11
5.711200
 21
3.408680
 12
5.397480
 22
2.901800
 13
6.041200
 23
3.288560
  0
POLYLINE
  8
0
  6
CONTINUOUS
 66
     1
 40
0.000000
 41
0.000000
  0
VERTEX
  8
0
  6
CONTINUOUS
 10
5.067480
 20
3.021920
  0
VERTEX
  8
0
  6
CONTINUOUS
 10
5.711200
 20
3.408680
  0
VERTEX
  8
0
  6
CONTINUOUS
 10
6.041200
 20
3.288560
  0
VERTEX
  8
0
  6
CONTINUOUS
 10
5.397480
 20
2.901800
  0
VERTEX
  8
0
  6
CONTINUOUS
 10
5.067480
 20
3.021920
  0
SEQEND
  8
0
  0
SOLID
  8
0
 62
    15
 10
5.397480
 20
2.901800
 11
6.041200
 21
3.288560
 12
5.680840
 22
2.761880
 13
6.324120
 23
3.148640
  0
POLYLINE
  8
0
  6
CONTINUOUS
 66
     1
 40
0.000000
 41
0.000000
  0
VERTEX
  8
0
  6
CONTINUOUS
 10
5.397480
 20
2.901800
  0
VERTEX
  8
0
  6
CONTINUOUS
 10
6.041200
 20
3.288560
  0
VERTEX
  8
0
  6
CONTINUOUS
 10
6.324120
 20
3.148640
  0
VERTEX
  8
0
  6
CONTINUOUS
 10
5.680840
 20
2.761880
  0
VERTEX
  8
0
  6
CONTINUOUS
 10
5.397480
 20
2.901800
  0
SEQEND
  8
0
  0
SOLID
  8
0
 62
    15
 10
5.680840
 20
2.761880
 11
6.324120
 21
3.148640
 12
5.800080
 22
2.678280
 13
6.443800
 23
3.065040
  0
POLYLINE
  8
0
  6
CONTINUOUS
 66
     1
 40
0.000000
 41
0.000000
  0
VERTEX
  8
0
  6
CONTINUOUS
 10
5.680840
 20
2.761880
  0
VERTEX
  8
0
  6
CONTINUOUS
 10
6.324120
 20
3.148640
  0
VERTEX
  8
0
  6
CONTINUOUS
 10
6.443800
 20
3.065040
  0
VERTEX
  8
0
  6
CONTINUOUS
 10
5.800080
 20
2.678280
  0
VERTEX
  8
0
  6
CONTINUOUS
 10
5.680840
 20
2.761880
  0
SEQEND
  8
0
  0
SOLID
  8
0
 62
    15
 10
5.800080
 20
2.678280
 11
6.443800
 21
3.065040
 12
5.902160
 22
2.581920
 13
6.545440
 23
2.968680
  0
POLYLINE
  8
0
  6
CONTINUOUS
 66
     1
 40
0.000000
 41
0.000000
  0
VERTEX
  8
0
  6
CONTINUOUS
 10
5.800080
 20
2.678280
  0
VERTEX
  8
0
  6
CONTINUOUS
 10
6.443800
 20
3.065040
  0
VERTEX
  8
0
  6
CONTINUOUS
 10
6.545440
 20
2.968680
  0
VERTEX
  8
0
  6
CONTINUOUS
 10
5.902160
 20
2.581920
  0
VERTEX
  8
0
  6
CONTINUOUS
 10
5.800080
 20
2.678280
  0
SEQEND
  8
0
  0
SOLID
  8
0
 62
    15
 10
5.902160
 20
2.581920
 11
6.545440
 21
2.968680
 12
5.984440
 22
2.470160
 13
6.628160
 23
2.856920
  0
POLYLINE
  8
0
  6
CONTINUOUS
 66
     1
 40
0.000000
 41
0.000000
  0
VERTEX
  8
0
  6
CONTINUOUS
 10
5.902160
 20
2.581920
  0
VERTEX
  8
0
  6
CONTINUOUS
 10
6.545440
 20
2.968680
  0
VERTEX
  8
0
  6
CONTINUOUS
 10
6.628160
 20
2.856920
  0
VERTEX
  8
0
  6
CONTINUOUS
 10
5.984440
 20
2.470160
  0
VERTEX
  8
0
  6
CONTINUOUS
 10
5.902160
 20
2.581920
  0
SEQEND
  8
0
  0
SOLID
  8
0
 62
    15
 10
5.984440
 20
2.470160
 11
6.628160
 21
2.856920
 12
6.045600
 22
2.340800
 13
6.689320
 23
2.727560
  0
POLYLINE
  8
0
  6
CONTINUOUS
 66
     1
 40
0.000000
 41
0.000000
  0
VERTEX
  8
0
  6
CONTINUOUS
 10
5.984440
 20
2.470160
  0
VERTEX
  8
0
  6
CONTINUOUS
 10
6.628160
 20
2.856920
  0
VERTEX
  8
0
  6
CONTINUOUS
 10
6.689320
 20
2.727560
  0
VERTEX
  8
0
  6
CONTINUOUS
 10
6.045600
 20
2.340800
  0
VERTEX
  8
0
  6
CONTINUOUS
 10
5.984440
 20
2.470160
  0
SEQEND
  8
0
  0
SOLID
  8
0
 62
    15
 10
6.045600
 20
2.340800
 11
6.689320
 21
2.727560
 12
6.083440
 22
2.191200
 13
6.726720
 23
2.577960
  0
POLYLINE
  8
0
  6
CONTINUOUS
 66
     1
 40
0.000000
 41
0.000000
  0
VERTEX
  8
0
  6
CONTINUOUS
 10
6.045600
 20
2.340800
  0
VERTEX
  8
0
  6
CONTINUOUS
 10
6.689320
 20
2.727560
  0
VERTEX
  8
0
  6
CONTINUOUS
 10
6.726720
 20
2.577960
  0
VERTEX
  8
0
  6
CONTINUOUS
 10
6.083440
 20
2.191200
  0
VERTEX
  8
0
  6
CONTINUOUS
 10
6.045600
 20
2.340800
  0
SEQEND
  8
0
  0
SOLID
  8
0
 62
    15
 10
6.083440
 20
2.191200
 11
6.726720
 21
2.577960
 12
6.096200
 22
2.018280
 13
6.739480
 23
2.405040
  0
POLYLINE
  8
0
  6
CONTINUOUS
 66
     1
 40
0.000000
 41
0.000000
  0
VERTEX
  8
0
  6
CONTINUOUS
 10
6.083440
 20
2.191200
  0
VERTEX
  8
0
  6
CONTINUOUS
 10
6.726720
 20
2.577960
  0
VERTEX
  8
0
  6
CONTINUOUS
 10
6.739480
 20
2.405040
  0
VERTEX
  8
0
  6
CONTINUOUS
 10
6.096200
 20
2.018280
  0
VERTEX
  8
0
  6
CONTINUOUS
 10
6.083440
 20
2.191200
  0
SEQEND
  8
0
  0
SOLID
  8
0
 62
    15
 10
6.096200
 20
2.018280
 11
6.739480
 21
2.405040
 12
6.083880
 22
1.846240
 13
6.727160
 23
2.233000
  0
POLYLINE
  8
0
  6
CONTINUOUS
 66
     1
 40
0.000000
 41
0.000000
  0
VERTEX
  8
0
  6
CONTINUOUS
 10
6.096200
 20
2.018280
  0
VERTEX
  8
0
  6
CONTINUOUS
 10
6.739480
 20
2.405040
  0
VERTEX
  8
0
  6
CONTINUOUS
 10
6.727160
 20
2.233000
  0
VERTEX
  8
0
  6
CONTINUOUS
 10
6.083880
 20
1.846240
  0
VERTEX
  8
0
  6
CONTINUOUS
 10
6.096200
 20
2.018280
  0
SEQEND
  8
0
  0
SOLID
  8
0
 62
    15
 10
6.083880
 20
1.846240
 11
6.727160
 21
2.233000
 12
6.050000
 22
1.697520
 13
6.693280
 23
2.084280
  0
POLYLINE
  8
0
  6
CONTINUOUS
 66
     1
 40
0.000000
 41
0.000000
  0
VERTEX
  8
0
  6
CONTINUOUS
 10
6.083880
 20
1.846240
  0
VERTEX
  8
0
  6
CONTINUOUS
 10
6.727160
 20
2.233000
  0
VERTEX
  8
0
  6
CONTINUOUS
 10
6.693280
 20
2.084280
  0
VERTEX
  8
0
  6
CONTINUOUS
 10
6.050000
 20
1.697520
  0
VERTEX
  8
0
  6
CONTINUOUS
 10
6.083880
 20
1.846240
  0
SEQEND
  8
0
  0
SOLID
  8
0
 62
    15
 10
5.997640
 20
1.571680
 11
6.640920
 21
1.958440
 12
5.929880
 22
1.465640
 13
6.573160
 23
1.852400
  0
POLYLINE
  8
0
  6
CONTINUOUS
 66
     1
 40
0.000000
 41
0.000000
  0
VERTEX
  8
0
  6
CONTINUOUS
 10
5.997640
 20
1.571680
  0
VERTEX
  8
0
  6
CONTINUOUS
 10
6.640920
 20
1.958440
  0
VERTEX
  8
0
  6
CONTINUOUS
 10
6.573160
 20
1.852400
  0
VERTEX
  8
0
  6
CONTINUOUS
 10
5.929880
 20
1.465640
  0
VERTEX
  8
0
  6
CONTINUOUS
 10
5.997640
 20
1.571680
  0
SEQEND
  8
0
  0
SOLID
  8
0
 62
    15
 10
6.050000
 20
1.697520
 11
6.693280
 21
2.084280
 12
5.997640
 22
1.571680
 13
6.640920
 23
1.958440
  0
POLYLINE
  8
0
  6
CONTINUOUS
 66
     1
 40
0.000000
 41
0.000000
  0
VERTEX
  8
0
  6
CONTINUOUS
 10
6.050000
 20
1.697520
  0
VERTEX
  8
0
  6
CONTINUOUS
 10
6.693280
 20
2.084280
  0
VERTEX
  8
0
  6
CONTINUOUS
 10
6.640920
 20
1.958440
  0
VERTEX
  8
0
  6
CONTINUOUS
 10
5.997640
 20
1.571680
  0
VERTEX
  8
0
  6
CONTINUOUS
 10
6.050000
 20
1.697520
  0
SEQEND
  8
0
  0
SOLID
  8
0
 62
    15
 10
5.929880
 20
1.465640
 11
6.573160
 21
1.852400
 12
5.849360
 22
1.378960
 13
6.492640
 23
1.765720
  0
POLYLINE
  8
0
  6
CONTINUOUS
 66
     1
 40
0.000000
 41
0.000000
  0
VERTEX
  8
0
  6
CONTINUOUS
 10
5.929880
 20
1.465640
  0
VERTEX
  8
0
  6
CONTINUOUS
 10
6.573160
 20
1.852400
  0
VERTEX
  8
0
  6
CONTINUOUS
 10
6.492640
 20
1.765720
  0
VERTEX
  8
0
  6
CONTINUOUS
 10
5.849360
 20
1.378960
  0
VERTEX
  8
0
  6
CONTINUOUS
 10
5.929880
 20
1.465640
  0
SEQEND
  8
0
  0
SOLID
  8
0
 62
    15
 10
5.849360
 20
1.378960
 11
6.492640
 21
1.765720
 12
5.759160
 22
1.309440
 13
6.402440
 23
1.696640
  0
POLYLINE
  8
0
  6
CONTINUOUS
 66
     1
 40
0.000000
 41
0.000000
  0
VERTEX
  8
0
  6
CONTINUOUS
 10
5.849360
 20
1.378960
  0
VERTEX
  8
0
  6
CONTINUOUS
 10
6.492640
 20
1.765720
  0
VERTEX
  8
0
  6
CONTINUOUS
 10
6.402440
 20
1.696640
  0
VERTEX
  8
0
  6
CONTINUOUS
 10
5.759160
 20
1.309440
  0
VERTEX
  8
0
  6
CONTINUOUS
 10
5.849360
 20
1.378960
  0
SEQEND
  8
0
  0
POLYLINE
  8
0
  6
CONTINUOUS
 66
     1
 40
0.000000
 41
0.000000
  0
VERTEX
  8
0
  6
CONTINUOUS
 10
1.104400
 20
3.453120
  0
VERTEX
  8
0
  6
CONTINUOUS
 10
1.045000
 20
3.594800
  0
VERTEX
  8
0
  6
CONTINUOUS
 10
1.016840
 20
3.734280
  0
VERTEX
  8
0
  6
CONTINUOUS
 10
1.016400
 20
3.870240
  0
VERTEX
  8
0
  6
CONTINUOUS
 10
1.041920
 20
4.000480
  0
VERTEX
  8
0
  6
CONTINUOUS
 10
1.091200
 20
4.123240
  0
VERTEX
  8
0
  6
CONTINUOUS
 10
1.162040
 20
4.236760
  0
VERTEX
  8
0
  6
CONTINUOUS
 10
1.251800
 20
4.339280
  0
VERTEX
  8
0
  6
CONTINUOUS
 10
1.358720
 20
4.429040
  0
VERTEX
  8
0
  6
CONTINUOUS
 10
1.479720
 20
4.504720
  0
VERTEX
  8
0
  6
CONTINUOUS
 10
1.613480
 20
4.563240
  0
VERTEX
  8
0
  6
CONTINUOUS
 10
1.756920
 20
4.603720
  0
VERTEX
  8
0
  6
CONTINUOUS
 10
1.908280
 20
4.624400
  0
VERTEX
  8
0
  6
CONTINUOUS
 10
2.064920
 20
4.623080
  0
VERTEX
  8
0
  6
CONTINUOUS
 10
2.225080
 20
4.598440
  0
VERTEX
  8
0
  6
CONTINUOUS
 10
2.386120
 20
4.548280
  0
VERTEX
  8
0
  6
CONTINUOUS
 10
2.545400
 20
4.470400
  0
VERTEX
  8
0
  6
CONTINUOUS
 10
2.689280
 20
4.385040
  0
VERTEX
  8
0
  6
CONTINUOUS
 10
2.807640
 20
4.310240
  0
VERTEX
  8
0
  6
CONTINUOUS
 10
2.904000
 20
4.244680
  0
VERTEX
  8
0
  6
CONTINUOUS
 10
2.982320
 20
4.186160
  0
VERTEX
  8
0
  6
CONTINUOUS
 10
3.101120
 20
4.085840
  0
VERTEX
  8
0
  6
CONTINUOUS
 10
3.195280
 20
3.995640
  0
VERTEX
  8
0
  6
CONTINUOUS
 10
3.296040
 20
3.901920
  0
VERTEX
  8
0
  6
CONTINUOUS
 10
3.435080
 20
3.791040
  0
VERTEX
  8
0
  6
CONTINUOUS
 10
3.528800
 20
3.725480
  0
VERTEX
  8
0
  6
CONTINUOUS
 10
3.644080
 20
3.650680
  0
VERTEX
  8
0
  6
CONTINUOUS
 10
3.784440
 20
3.564440
  0
VERTEX
  8
0
  6
CONTINUOUS
 10
3.954280
 20
3.466320
  0
VERTEX
  8
0
  6
CONTINUOUS
 10
4.330480
 20
3.283280
  0
VERTEX
  8
0
  6
CONTINUOUS
 10
4.706680
 20
3.142040
  0
VERTEX
  8
0
  6
CONTINUOUS
 10
5.067480
 20
3.021920
  0
VERTEX
  8
0
  6
CONTINUOUS
 10
5.397480
 20
2.901800
  0
VERTEX
  8
0
  6
CONTINUOUS
 10
5.680840
 20
2.761880
  0
VERTEX
  8
0
  6
CONTINUOUS
 10
5.800080
 20
2.678280
  0
VERTEX
  8
0
  6
CONTINUOUS
 10
5.902160
 20
2.581920
  0
VERTEX
  8
0
  6
CONTINUOUS
 10
5.984440
 20
2.470160
  0
VERTEX
  8
0
  6
CONTINUOUS
 10
6.045600
 20
2.340800
  0
VERTEX
  8
0
  6
CONTINUOUS
 10
6.083440
 20
2.191200
  0
VERTEX
  8
0
  6
CONTINUOUS
 10
6.096200
 20
2.018280
  0
VERTEX
  8
0
  6
CONTINUOUS
 10
6.083880
 20
1.846240
  0
VERTEX
  8
0
  6
CONTINUOUS
 10
6.050000
 20
1.697520
  0
VERTEX
  8
0
  6
CONTINUOUS
 10
5.997640
 20
1.571680
  0
VERTEX
  8
0
  6
CONTINUOUS
 10
5.929880
 20
1.465640
  0
VERTEX
  8
0
  6
CONTINUOUS
 10
5.849360
 20
1.378960
  0
VERTEX
  8
0
  6
CONTINUOUS
 10
5.759160
 20
1.309440
  0
VERTEX
  8
0
  6
CONTINUOUS
 10
5.561600
 20
1.215720
  0
VERTEX
  8
0
  6
CONTINUOUS
 10
5.361400
 20
1.169960
  0
VERTEX
  8
0
  6
CONTINUOUS
 10
5.181000
 20
1.159840
  0
VERTEX
  8
0
  6
CONTINUOUS
 10
5.045040
 20
1.171720
  0
VERTEX
  8
0
  6
CONTINUOUS
 10
5.000600
 20
1.181400
  0
VERTEX
  8
0
  6
CONTINUOUS
 10
4.976400
 20
1.191520
  0
VERTEX
  8
0
  6
CONTINUOUS
 10
3.934040
 20
1.795640
  0
VERTEX
  8
0
  6
CONTINUOUS
 10
3.899720
 20
2.273040
  0
VERTEX
  8
0
  6
CONTINUOUS
 10
3.145560
 20
2.277000
  0
VERTEX
  8
0
  6
CONTINUOUS
 10
1.911360
 20
3.016640
  0
VERTEX
  8
0
  6
CONTINUOUS
 10
1.848880
 20
3.455760
  0
VERTEX
  8
0
  6
CONTINUOUS
 10
1.104400
 20
3.453120
  0
SEQEND
  8
0
  0
TEXT
  8
0
 10
4.629240
 20
0.900240
 40
0.138187
  1
BA  799A, B & C
 41
1.000000
  7
SN0
 71
     0
 72
     5
 11
5.852905
 21
0.900240
  0
TEXT
  8
0
 10
4.625720
 20
0.708400
 40
0.138187
  1
1-11/16" x 5-1/2"
 41
1.000000
  7
SN0
 71
     0
 72
     5
 11
5.856679
 21
0.708400
  0
POLYLINE
  8
0
  6
CONTINUOUS
 66
     1
 40
0.000000
 41
0.000000
  0
VERTEX
  8
0
  6
CONTINUOUS
 10
2.970440
 20
5.783360
  0
VERTEX
  8
0
  6
CONTINUOUS
 10
2.937000
 20
5.854200
  0
VERTEX
  8
0
  6
CONTINUOUS
 10
2.911480
 20
5.925040
  0
VERTEX
  8
0
  6
CONTINUOUS
 10
2.893440
 20
5.995000
  0
VERTEX
  8
0
  6
CONTINUOUS
 10
2.887280
 20
6.030200
  0
VERTEX
  8
0
  6
CONTINUOUS
 10
2.882880
 20
6.064520
  0
VERTEX
  8
0
  6
CONTINUOUS
 10
2.880240
 20
6.099280
  0
VERTEX
  8
0
  6
CONTINUOUS
 10
2.879360
 20
6.133160
  0
VERTEX
  8
0
  6
CONTINUOUS
 10
2.880240
 20
6.167040
  0
VERTEX
  8
0
  6
CONTINUOUS
 10
2.886840
 20
6.233480
  0
VERTEX
  8
0
  6
CONTINUOUS
 10
2.899600
 20
6.299040
  0
VERTEX
  8
0
  6
CONTINUOUS
 10
2.918520
 20
6.362400
  0
VERTEX
  8
0
  6
CONTINUOUS
 10
2.943600
 20
6.423560
  0
VERTEX
  8
0
  6
CONTINUOUS
 10
2.973520
 20
6.482960
  0
VERTEX
  8
0
  6
CONTINUOUS
 10
3.009160
 20
6.539720
  0
VERTEX
  8
0
  6
CONTINUOUS
 10
3.049200
 20
6.593840
  0
VERTEX
  8
0
  6
CONTINUOUS
 10
3.094080
 20
6.645320
  0
VERTEX
  8
0
  6
CONTINUOUS
 10
3.143360
 20
6.693720
  0
VERTEX
  8
0
  6
CONTINUOUS
 10
3.197040
 20
6.738600
  0
VERTEX
  8
0
  6
CONTINUOUS
 10
3.254240
 20
6.779960
  0
VERTEX
  8
0
  6
CONTINUOUS
 10
3.314520
 20
6.817360
  0
VERTEX
  8
0
  6
CONTINUOUS
 10
3.378760
 20
6.851240
  0
VERTEX
  8
0
  6
CONTINUOUS
 10
3.445200
 20
6.880720
  0
VERTEX
  8
0
  6
CONTINUOUS
 10
3.514720
 20
6.905360
  0
VERTEX
  8
0
  6
CONTINUOUS
 10
3.550360
 20
6.916360
  0
VERTEX
  8
0
  6
CONTINUOUS
 10
3.623400
 20
6.933960
  0
VERTEX
  8
0
  6
CONTINUOUS
 10
3.698200
 20
6.947160
  0
VERTEX
  8
0
  6
CONTINUOUS
 10
3.774760
 20
6.954640
  0
VERTEX
  8
0
  6
CONTINUOUS
 10
3.852640
 20
6.956840
  0
VERTEX
  8
0
  6
CONTINUOUS
 10
3.891800
 20
6.955960
  0
VERTEX
  8
0
  6
CONTINUOUS
 10
3.971000
 20
6.949360
  0
VERTEX
  8
0
  6
CONTINUOUS
 10
4.011040
 20
6.944080
  0
VERTEX
  8
0
  6
CONTINUOUS
 10
4.091560
 20
6.928680
  0
VERTEX
  8
0
  6
CONTINUOUS
 10
4.172080
 20
6.906680
  0
VERTEX
  8
0
  6
CONTINUOUS
 10
4.252160
 20
6.878080
  0
VERTEX
  8
0
  6
CONTINUOUS
 10
4.332240
 20
6.842880
  0
VERTEX
  8
0
  6
CONTINUOUS
 10
4.411880
 20
6.800640
  0
VERTEX
  8
0
  6
CONTINUOUS
 10
4.587440
 20
6.695480
  0
VERTEX
  8
0
  6
CONTINUOUS
 10
4.700080
 20
6.622880
  0
VERTEX
  8
0
  6
CONTINUOUS
 10
4.791600
 20
6.559520
  0
VERTEX
  8
0
  6
CONTINUOUS
 10
4.865960
 20
6.502760
  0
VERTEX
  8
0
  6
CONTINUOUS
 10
4.941200
 20
6.439840
  0
VERTEX
  8
0
  6
CONTINUOUS
 10
5.038440
 20
6.347880
  0
VERTEX
  8
0
  6
CONTINUOUS
 10
5.134800
 20
6.256360
  0
VERTEX
  8
0
  6
CONTINUOUS
 10
5.225440
 20
6.179360
  0
VERTEX
  8
0
  6
CONTINUOUS
 10
5.323560
 20
6.105880
  0
VERTEX
  8
0
  6
CONTINUOUS
 10
5.422120
 20
6.037680
  0
VERTEX
  8
0
  6
CONTINUOUS
 10
5.577440
 20
5.939120
  0
VERTEX
  8
0
  6
CONTINUOUS
 10
5.731880
 20
5.847600
  0
VERTEX
  8
0
  6
CONTINUOUS
 10
5.867400
 20
5.770600
  0
VERTEX
  8
0
  6
CONTINUOUS
 10
5.960680
 20
5.721760
  0
VERTEX
  8
0
  6
CONTINUOUS
 10
6.102360
 20
5.654880
  0
VERTEX
  8
0
  6
CONTINUOUS
 10
6.196960
 20
5.613520
  0
VERTEX
  8
0
  6
CONTINUOUS
 10
6.291560
 20
5.575240
  0
VERTEX
  8
0
  6
CONTINUOUS
 10
6.480320
 20
5.504840
  0
VERTEX
  8
0
  6
CONTINUOUS
 10
6.756640
 20
5.410680
  0
VERTEX
  8
0
  6
CONTINUOUS
 10
7.020200
 20
5.322680
  0
VERTEX
  8
0
  6
CONTINUOUS
 10
7.185200
 20
5.263280
  0
VERTEX
  8
0
  6
CONTINUOUS
 10
7.302240
 20
5.216200
  0
VERTEX
  8
0
  6
CONTINUOUS
 10
7.412680
 20
5.166040
  0
VERTEX
  8
0
  6
CONTINUOUS
 10
7.481760
 20
5.130400
  0
VERTEX
  8
0
  6
CONTINUOUS
 10
7.579000
 20
5.072320
  0
VERTEX
  8
0
  6
CONTINUOUS
 10
7.638400
 20
5.030520
  0
VERTEX
  8
0
  6
CONTINUOUS
 10
7.693840
 20
4.985640
  0
VERTEX
  8
0
  6
CONTINUOUS
 10
7.744880
 20
4.937680
  0
VERTEX
  8
0
  6
CONTINUOUS
 10
7.791080
 20
4.885760
  0
VERTEX
  8
0
  6
CONTINUOUS
 10
7.812640
 20
4.858480
  0
VERTEX
  8
0
  6
CONTINUOUS
 10
7.850920
 20
4.800400
  0
VERTEX
  8
0
  6
CONTINUOUS
 10
7.868520
 20
4.769600
  0
VERTEX
  8
0
  6
CONTINUOUS
 10
7.884360
 20
4.737920
  0
VERTEX
  8
0
  6
CONTINUOUS
 10
7.912080
 20
4.671040
  0
VERTEX
  8
0
  6
CONTINUOUS
 10
7.923960
 20
4.635400
  0
VERTEX
  8
0
  6
CONTINUOUS
 10
7.934080
 20
4.598880
  0
VERTEX
  8
0
  6
CONTINUOUS
 10
7.942880
 20
4.560600
  0
VERTEX
  8
0
  6
CONTINUOUS
 10
7.949920
 20
4.521000
  0
VERTEX
  8
0
  6
CONTINUOUS
 10
7.955640
 20
4.480080
  0
VERTEX
  8
0
  6
CONTINUOUS
 10
7.959600
 20
4.437840
  0
VERTEX
  8
0
  6
CONTINUOUS
 10
7.961800
 20
4.393840
  0
VERTEX
  8
0
  6
CONTINUOUS
 10
7.962680
 20
4.348520
  0
VERTEX
  8
0
  6
CONTINUOUS
 10
7.961800
 20
4.303200
  0
VERTEX
  8
0
  6
CONTINUOUS
 10
7.955640
 20
4.216960
  0
VERTEX
  8
0
  6
CONTINUOUS
 10
7.950360
 20
4.176040
  0
VERTEX
  8
0
  6
CONTINUOUS
 10
7.943760
 20
4.136880
  0
VERTEX
  8
0
  6
CONTINUOUS
 10
7.935840
 20
4.099040
  0
VERTEX
  8
0
  6
CONTINUOUS
 10
7.916480
 20
4.027760
  0
VERTEX
  8
0
  6
CONTINUOUS
 10
7.905040
 20
3.994320
  0
VERTEX
  8
0
  6
CONTINUOUS
 10
7.878640
 20
3.930960
  0
VERTEX
  8
0
  6
CONTINUOUS
 10
7.848720
 20
3.873320
  0
VERTEX
  8
0
  6
CONTINUOUS
 10
7.814400
 20
3.820520
  0
VERTEX
  8
0
  6
CONTINUOUS
 10
7.777440
 20
3.772560
  0
VERTEX
  8
0
  6
CONTINUOUS
 10
7.736960
 20
3.729440
  0
VERTEX
  8
0
  6
CONTINUOUS
 10
7.694280
 20
3.690280
  0
VERTEX
  8
0
  6
CONTINUOUS
 10
7.648960
 20
3.655520
  0
VERTEX
  8
0
  6
CONTINUOUS
 10
7.601880
 20
3.624720
  0
VERTEX
  8
0
  6
CONTINUOUS
 10
7.553480
 20
3.597880
  0
VERTEX
  8
0
  6
CONTINUOUS
 10
7.478680
 20
3.564000
  0
VERTEX
  8
0
  6
CONTINUOUS
 10
7.428520
 20
3.545520
  0
VERTEX
  8
0
  6
CONTINUOUS
 10
7.351960
 20
3.523520
  0
VERTEX
  8
0
  6
CONTINUOUS
 10
7.276720
 20
3.507680
  0
VERTEX
  8
0
  6
CONTINUOUS
 10
7.203680
 20
3.497560
  0
VERTEX
  8
0
  6
CONTINUOUS
 10
7.133720
 20
3.491840
  0
VERTEX
  8
0
  6
CONTINUOUS
 10
7.089280
 20
3.490080
  0
VERTEX
  8
0
  6
CONTINUOUS
 10
7.027680
 20
3.490520
  0
VERTEX
  8
0
  6
CONTINUOUS
 10
6.955520
 20
3.495800
  0
VERTEX
  8
0
  6
CONTINUOUS
 10
6.886880
 20
3.506360
  0
VERTEX
  8
0
  6
CONTINUOUS
 10
6.852120
 20
3.516920
  0
VERTEX
  8
0
  6
CONTINUOUS
 10
6.842440
 20
3.521760
  0
VERTEX
  8
0
  6
CONTINUOUS
 10
5.800520
 20
4.125880
  0
VERTEX
  8
0
  6
CONTINUOUS
 10
5.766200
 20
4.603280
  0
VERTEX
  8
0
  6
CONTINUOUS
 10
5.012040
 20
4.607240
  0
VERTEX
  8
0
  6
CONTINUOUS
 10
3.777840
 20
5.346880
  0
VERTEX
  8
0
  6
CONTINUOUS
 10
3.715360
 20
5.786000
  0
VERTEX
  8
0
  6
CONTINUOUS
 10
2.970440
 20
5.783360
  0
SEQEND
  8
0
  0
ENDSEC
  0
EOF
