  0
SECTION
  2
HEADER
  9
$ACADVER
  1
AC1006
  9
$EXTMIN
 10
2.523400
 20
0.843480
  9
$EXTMAX
 10
6.758840
 20
4.722520
  9
$LTSCALE
 40
0.044000
  9
$PDMODE
 70
    35
  9
$PDSIZE
 40
0.035200
  0
ENDSEC
  0
SECTION
  2
TABLES
  0
TABLE
  2
LTYPE
 70
     9
  0
LTYPE
  2
CONTINUOUS
 70
    64
  3
Solid line
 72
    65
 73
     0
 40
0.000000
  0
LTYPE
  2
DASHED
 70
    64
  3
__ __ __ __ __ __ __ __ __ __ __ __ __ __ __
 72
    65
 73
     2
 40
0.000330
 49
0.000220
 49
-0.000110
  0
LTYPE
  2
HIDDEN
 70
    64
  3
 _ _ _ _ _ _ _ _ _ _ _ _ _ _ _ _ _ _ _ _ _ _
 72
    65
 73
     2
 40
0.000165
 49
0.000110
 49
-0.000055
  0
LTYPE
  2
CENTER
 70
    64
  3
____ _ ____ _ ____ _ ____ _ ____ _ ____ _ ____
 72
    65
 73
     4
 40
0.000880
 49
0.000550
 49
-0.000110
 49
0.000110
 49
-0.000110
  0
LTYPE
  2
PHANTOM
 70
    64
  3
_____ _ _ _____ _ _ _____ _ _ _____ _ _ ____
 72
    65
 73
     6
 40
0.001100
 49
0.000550
 49
-0.000110
 49
0.000110
 49
-0.000110
 49
0.000110
 49
-0.000110
  0
LTYPE
  2
DOT
 70
    64
  3
...............................................
 72
    65
 73
     2
 40
0.000110
 49
0.000000
 49
-0.000110
  0
LTYPE
  2
DASHDOT
 70
    64
  3
__ . __ . __ . __ . __ . __ . __ . __ . __ . __
 72
    65
 73
     4
 40
0.000440
 49
0.000220
 49
-0.000110
 49
0.000000
 49
-0.000110
  0
LTYPE
  2
BORDER
 70
    64
  3
__ __ . __ __ . __ __ . __ __ . __ __ . __ __
 72
    65
 73
     6
 40
0.000770
 49
0.000220
 49
-0.000110
 49
0.000220
 49
-0.000110
 49
0.000000
 49
-0.000110
  0
LTYPE
  2
DIVIDE
 70
    64
  3
__ . . __ . . __ . . __ . . __ . . __ . . __
 72
    65
 73
     6
 40
0.000550
 49
0.000220
 49
-0.000110
 49
0.000000
 49
-0.000110
 49
0.000000
 49
-0.000110
  0
LTYPE
  2
DOTDOT
 70
    64
  3
 . .  . .  . .  . .  . .  . . 
 72
    65
 73
     5
 40
0.000242
 49
-0.000110
 49
0.000000
 49
-0.000110
 49
0.000000
 49
-0.000110
  0
ENDTAB
  0
TABLE
  2
STYLE
 70
     2
  0
STYLE
 70
     0
  2
SN0
 40
0.000000
 41
0.000440
 50
0.000000
 71
     0
 42
0.000000
  3
ROMAND
  0
STYLE
 70
    68
  2
SV0
 40
0.000000
 41
0.000440
 50
0.000000
 71
     0
 42
0.000000
  3
ROMAND
  0
ENDTAB
  0
TABLE
  2
LAYER
 70
     3
  0
LAYER
  2
FOREGROUND
 70
    64
 62
     7
  6
CONTINUOUS
  0
LAYER
  2
BACKGROUND
 70
    65
 62
    -7
  6
CONTINUOUS
  0
LAYER
  2
0
 70
    64
 62
     7
  6
CONTINUOUS
  0
ENDTAB
  0
ENDSEC
  0
SECTION
  2
ENTITIES
  0
POLYLINE
  8
FOREGROUND
  6
CONTINUOUS
 66
     1
 40
0.000000
 41
0.000000
  0
VERTEX
  8
FOREGROUND
  6
CONTINUOUS
 10
0.000000
 20
5.566000
  0
VERTEX
  8
FOREGROUND
  6
CONTINUOUS
 10
8.499920
 20
5.566000
  0
VERTEX
  8
FOREGROUND
  6
CONTINUOUS
 10
8.499920
 20
-5.434000
  0
VERTEX
  8
FOREGROUND
  6
CONTINUOUS
 10
0.000000
 20
-5.434000
  0
VERTEX
  8
FOREGROUND
  6
CONTINUOUS
 10
0.000000
 20
5.566000
  0
SEQEND
  8
0
  0
POLYLINE
  8
FOREGROUND
  6
CONTINUOUS
 66
     1
 40
0.000000
 41
0.000000
  0
VERTEX
  8
FOREGROUND
  6
CONTINUOUS
 10
0.000000
 20
5.566000
  0
VERTEX
  8
FOREGROUND
  6
CONTINUOUS
 10
8.499920
 20
5.566000
  0
VERTEX
  8
FOREGROUND
  6
CONTINUOUS
 10
8.499920
 20
-5.434000
  0
VERTEX
  8
FOREGROUND
  6
CONTINUOUS
 10
0.000000
 20
-5.434000
  0
VERTEX
  8
FOREGROUND
  6
CONTINUOUS
 10
0.000000
 20
5.566000
  0
SEQEND
  8
0
  0
SOLID
  8
0
 62
    15
 10
6.097960
 20
1.880120
 11
6.746960
 21
2.249720
 12
6.093120
 22
1.834360
 13
6.742120
 23
2.203520
  0
POLYLINE
  8
0
  6
CONTINUOUS
 66
     1
 40
0.000000
 41
0.000000
  0
VERTEX
  8
0
  6
CONTINUOUS
 10
6.097960
 20
1.880120
  0
VERTEX
  8
0
  6
CONTINUOUS
 10
6.746960
 20
2.249720
  0
VERTEX
  8
0
  6
CONTINUOUS
 10
6.742120
 20
2.203520
  0
VERTEX
  8
0
  6
CONTINUOUS
 10
6.093120
 20
1.834360
  0
VERTEX
  8
0
  6
CONTINUOUS
 10
6.097960
 20
1.880120
  0
SEQEND
  8
0
  0
SOLID
  8
0
 62
    15
 10
5.382080
 20
2.721840
 11
6.031080
 21
3.091440
 12
6.108520
 22
2.585000
 13
6.757520
 23
2.954600
  0
POLYLINE
  8
0
  6
CONTINUOUS
 66
     1
 40
0.000000
 41
0.000000
  0
VERTEX
  8
0
  6
CONTINUOUS
 10
5.382080
 20
2.721840
  0
VERTEX
  8
0
  6
CONTINUOUS
 10
6.031080
 20
3.091440
  0
VERTEX
  8
0
  6
CONTINUOUS
 10
6.757520
 20
2.954600
  0
VERTEX
  8
0
  6
CONTINUOUS
 10
6.108520
 20
2.585000
  0
VERTEX
  8
0
  6
CONTINUOUS
 10
5.382080
 20
2.721840
  0
SEQEND
  8
0
  0
SOLID
  8
0
 62
    15
 10
6.108520
 20
2.585000
 11
6.757520
 21
2.954600
 12
6.109400
 22
2.457840
 13
6.758400
 23
2.827440
  0
POLYLINE
  8
0
  6
CONTINUOUS
 66
     1
 40
0.000000
 41
0.000000
  0
VERTEX
  8
0
  6
CONTINUOUS
 10
6.108520
 20
2.585000
  0
VERTEX
  8
0
  6
CONTINUOUS
 10
6.757520
 20
2.954600
  0
VERTEX
  8
0
  6
CONTINUOUS
 10
6.758400
 20
2.827440
  0
VERTEX
  8
0
  6
CONTINUOUS
 10
6.109400
 20
2.457840
  0
VERTEX
  8
0
  6
CONTINUOUS
 10
6.108520
 20
2.585000
  0
SEQEND
  8
0
  0
SOLID
  8
0
 62
    15
 10
6.109400
 20
2.457840
 11
6.758400
 21
2.827440
 12
6.072880
 22
2.418680
 13
6.721880
 23
2.788280
  0
POLYLINE
  8
0
  6
CONTINUOUS
 66
     1
 40
0.000000
 41
0.000000
  0
VERTEX
  8
0
  6
CONTINUOUS
 10
6.109400
 20
2.457840
  0
VERTEX
  8
0
  6
CONTINUOUS
 10
6.758400
 20
2.827440
  0
VERTEX
  8
0
  6
CONTINUOUS
 10
6.721880
 20
2.788280
  0
VERTEX
  8
0
  6
CONTINUOUS
 10
6.072880
 20
2.418680
  0
VERTEX
  8
0
  6
CONTINUOUS
 10
6.109400
 20
2.457840
  0
SEQEND
  8
0
  0
SOLID
  8
0
 62
    15
 10
6.072880
 20
2.418680
 11
6.721880
 21
2.788280
 12
6.046040
 22
2.385240
 13
6.695480
 23
2.754840
  0
POLYLINE
  8
0
  6
CONTINUOUS
 66
     1
 40
0.000000
 41
0.000000
  0
VERTEX
  8
0
  6
CONTINUOUS
 10
6.072880
 20
2.418680
  0
VERTEX
  8
0
  6
CONTINUOUS
 10
6.721880
 20
2.788280
  0
VERTEX
  8
0
  6
CONTINUOUS
 10
6.695480
 20
2.754840
  0
VERTEX
  8
0
  6
CONTINUOUS
 10
6.046040
 20
2.385240
  0
VERTEX
  8
0
  6
CONTINUOUS
 10
6.072880
 20
2.418680
  0
SEQEND
  8
0
  0
SOLID
  8
0
 62
    15
 10
6.046040
 20
2.385240
 11
6.695480
 21
2.754840
 12
6.029320
 22
2.355320
 13
6.678320
 23
2.724920
  0
POLYLINE
  8
0
  6
CONTINUOUS
 66
     1
 40
0.000000
 41
0.000000
  0
VERTEX
  8
0
  6
CONTINUOUS
 10
6.046040
 20
2.385240
  0
VERTEX
  8
0
  6
CONTINUOUS
 10
6.695480
 20
2.754840
  0
VERTEX
  8
0
  6
CONTINUOUS
 10
6.678320
 20
2.724920
  0
VERTEX
  8
0
  6
CONTINUOUS
 10
6.029320
 20
2.355320
  0
VERTEX
  8
0
  6
CONTINUOUS
 10
6.046040
 20
2.385240
  0
SEQEND
  8
0
  0
SOLID
  8
0
 62
    15
 10
6.029320
 20
2.355320
 11
6.678320
 21
2.724920
 12
6.022280
 22
2.328040
 13
6.671280
 23
2.697640
  0
POLYLINE
  8
0
  6
CONTINUOUS
 66
     1
 40
0.000000
 41
0.000000
  0
VERTEX
  8
0
  6
CONTINUOUS
 10
6.029320
 20
2.355320
  0
VERTEX
  8
0
  6
CONTINUOUS
 10
6.678320
 20
2.724920
  0
VERTEX
  8
0
  6
CONTINUOUS
 10
6.671280
 20
2.697640
  0
VERTEX
  8
0
  6
CONTINUOUS
 10
6.022280
 20
2.328040
  0
VERTEX
  8
0
  6
CONTINUOUS
 10
6.029320
 20
2.355320
  0
SEQEND
  8
0
  0
SOLID
  8
0
 62
    15
 10
6.022280
 20
2.328040
 11
6.671280
 21
2.697640
 12
6.024480
 22
2.302080
 13
6.673480
 23
2.671240
  0
POLYLINE
  8
0
  6
CONTINUOUS
 66
     1
 40
0.000000
 41
0.000000
  0
VERTEX
  8
0
  6
CONTINUOUS
 10
6.022280
 20
2.328040
  0
VERTEX
  8
0
  6
CONTINUOUS
 10
6.671280
 20
2.697640
  0
VERTEX
  8
0
  6
CONTINUOUS
 10
6.673480
 20
2.671240
  0
VERTEX
  8
0
  6
CONTINUOUS
 10
6.024480
 20
2.302080
  0
VERTEX
  8
0
  6
CONTINUOUS
 10
6.022280
 20
2.328040
  0
SEQEND
  8
0
  0
SOLID
  8
0
 62
    15
 10
6.024480
 20
2.302080
 11
6.673480
 21
2.671240
 12
6.035480
 22
2.274800
 13
6.684480
 23
2.644400
  0
POLYLINE
  8
0
  6
CONTINUOUS
 66
     1
 40
0.000000
 41
0.000000
  0
VERTEX
  8
0
  6
CONTINUOUS
 10
6.024480
 20
2.302080
  0
VERTEX
  8
0
  6
CONTINUOUS
 10
6.673480
 20
2.671240
  0
VERTEX
  8
0
  6
CONTINUOUS
 10
6.684480
 20
2.644400
  0
VERTEX
  8
0
  6
CONTINUOUS
 10
6.035480
 20
2.274800
  0
VERTEX
  8
0
  6
CONTINUOUS
 10
6.024480
 20
2.302080
  0
SEQEND
  8
0
  0
SOLID
  8
0
 62
    15
 10
6.035480
 20
2.274800
 11
6.684480
 21
2.644400
 12
6.055720
 22
2.245760
 13
6.705160
 23
2.615360
  0
POLYLINE
  8
0
  6
CONTINUOUS
 66
     1
 40
0.000000
 41
0.000000
  0
VERTEX
  8
0
  6
CONTINUOUS
 10
6.035480
 20
2.274800
  0
VERTEX
  8
0
  6
CONTINUOUS
 10
6.684480
 20
2.644400
  0
VERTEX
  8
0
  6
CONTINUOUS
 10
6.705160
 20
2.615360
  0
VERTEX
  8
0
  6
CONTINUOUS
 10
6.055720
 20
2.245760
  0
VERTEX
  8
0
  6
CONTINUOUS
 10
6.035480
 20
2.274800
  0
SEQEND
  8
0
  0
SOLID
  8
0
 62
    15
 10
6.055720
 20
2.245760
 11
6.705160
 21
2.615360
 12
6.085200
 22
2.213200
 13
6.734200
 23
2.582800
  0
POLYLINE
  8
0
  6
CONTINUOUS
 66
     1
 40
0.000000
 41
0.000000
  0
VERTEX
  8
0
  6
CONTINUOUS
 10
6.055720
 20
2.245760
  0
VERTEX
  8
0
  6
CONTINUOUS
 10
6.705160
 20
2.615360
  0
VERTEX
  8
0
  6
CONTINUOUS
 10
6.734200
 20
2.582800
  0
VERTEX
  8
0
  6
CONTINUOUS
 10
6.085200
 20
2.213200
  0
VERTEX
  8
0
  6
CONTINUOUS
 10
6.055720
 20
2.245760
  0
SEQEND
  8
0
  0
SOLID
  8
0
 62
    15
 10
6.085200
 20
2.213200
 11
6.734200
 21
2.582800
 12
6.101040
 22
2.188120
 13
6.750480
 23
2.557720
  0
POLYLINE
  8
0
  6
CONTINUOUS
 66
     1
 40
0.000000
 41
0.000000
  0
VERTEX
  8
0
  6
CONTINUOUS
 10
6.085200
 20
2.213200
  0
VERTEX
  8
0
  6
CONTINUOUS
 10
6.734200
 20
2.582800
  0
VERTEX
  8
0
  6
CONTINUOUS
 10
6.750480
 20
2.557720
  0
VERTEX
  8
0
  6
CONTINUOUS
 10
6.101040
 20
2.188120
  0
VERTEX
  8
0
  6
CONTINUOUS
 10
6.085200
 20
2.213200
  0
SEQEND
  8
0
  0
SOLID
  8
0
 62
    15
 10
6.101040
 20
2.188120
 11
6.750480
 21
2.557720
 12
6.105000
 22
2.159080
 13
6.754000
 23
2.528680
  0
POLYLINE
  8
0
  6
CONTINUOUS
 66
     1
 40
0.000000
 41
0.000000
  0
VERTEX
  8
0
  6
CONTINUOUS
 10
6.101040
 20
2.188120
  0
VERTEX
  8
0
  6
CONTINUOUS
 10
6.750480
 20
2.557720
  0
VERTEX
  8
0
  6
CONTINUOUS
 10
6.754000
 20
2.528680
  0
VERTEX
  8
0
  6
CONTINUOUS
 10
6.105000
 20
2.159080
  0
VERTEX
  8
0
  6
CONTINUOUS
 10
6.101040
 20
2.188120
  0
SEQEND
  8
0
  0
SOLID
  8
0
 62
    15
 10
6.105000
 20
2.159080
 11
6.754000
 21
2.528680
 12
6.095760
 22
2.128280
 13
6.744760
 23
2.497880
  0
POLYLINE
  8
0
  6
CONTINUOUS
 66
     1
 40
0.000000
 41
0.000000
  0
VERTEX
  8
0
  6
CONTINUOUS
 10
6.105000
 20
2.159080
  0
VERTEX
  8
0
  6
CONTINUOUS
 10
6.754000
 20
2.528680
  0
VERTEX
  8
0
  6
CONTINUOUS
 10
6.744760
 20
2.497880
  0
VERTEX
  8
0
  6
CONTINUOUS
 10
6.095760
 20
2.128280
  0
VERTEX
  8
0
  6
CONTINUOUS
 10
6.105000
 20
2.159080
  0
SEQEND
  8
0
  0
SOLID
  8
0
 62
    15
 10
6.095760
 20
2.128280
 11
6.744760
 21
2.497880
 12
6.073760
 22
2.098800
 13
6.723200
 23
2.468400
  0
POLYLINE
  8
0
  6
CONTINUOUS
 66
     1
 40
0.000000
 41
0.000000
  0
VERTEX
  8
0
  6
CONTINUOUS
 10
6.095760
 20
2.128280
  0
VERTEX
  8
0
  6
CONTINUOUS
 10
6.744760
 20
2.497880
  0
VERTEX
  8
0
  6
CONTINUOUS
 10
6.723200
 20
2.468400
  0
VERTEX
  8
0
  6
CONTINUOUS
 10
6.073760
 20
2.098800
  0
VERTEX
  8
0
  6
CONTINUOUS
 10
6.095760
 20
2.128280
  0
SEQEND
  8
0
  0
SOLID
  8
0
 62
    15
 10
6.073760
 20
2.098800
 11
6.723200
 21
2.468400
 12
6.048680
 22
2.069320
 13
6.698120
 23
2.438920
  0
POLYLINE
  8
0
  6
CONTINUOUS
 66
     1
 40
0.000000
 41
0.000000
  0
VERTEX
  8
0
  6
CONTINUOUS
 10
6.073760
 20
2.098800
  0
VERTEX
  8
0
  6
CONTINUOUS
 10
6.723200
 20
2.468400
  0
VERTEX
  8
0
  6
CONTINUOUS
 10
6.698120
 20
2.438920
  0
VERTEX
  8
0
  6
CONTINUOUS
 10
6.048680
 20
2.069320
  0
VERTEX
  8
0
  6
CONTINUOUS
 10
6.073760
 20
2.098800
  0
SEQEND
  8
0
  0
SOLID
  8
0
 62
    15
 10
6.048680
 20
2.069320
 11
6.698120
 21
2.438920
 12
6.033720
 22
2.037200
 13
6.682720
 23
2.406800
  0
POLYLINE
  8
0
  6
CONTINUOUS
 66
     1
 40
0.000000
 41
0.000000
  0
VERTEX
  8
0
  6
CONTINUOUS
 10
6.048680
 20
2.069320
  0
VERTEX
  8
0
  6
CONTINUOUS
 10
6.698120
 20
2.438920
  0
VERTEX
  8
0
  6
CONTINUOUS
 10
6.682720
 20
2.406800
  0
VERTEX
  8
0
  6
CONTINUOUS
 10
6.033720
 20
2.037200
  0
VERTEX
  8
0
  6
CONTINUOUS
 10
6.048680
 20
2.069320
  0
SEQEND
  8
0
  0
SOLID
  8
0
 62
    15
 10
6.033720
 20
2.037200
 11
6.682720
 21
2.406800
 12
6.032400
 22
2.002000
 13
6.681400
 23
2.371600
  0
POLYLINE
  8
0
  6
CONTINUOUS
 66
     1
 40
0.000000
 41
0.000000
  0
VERTEX
  8
0
  6
CONTINUOUS
 10
6.033720
 20
2.037200
  0
VERTEX
  8
0
  6
CONTINUOUS
 10
6.682720
 20
2.406800
  0
VERTEX
  8
0
  6
CONTINUOUS
 10
6.681400
 20
2.371600
  0
VERTEX
  8
0
  6
CONTINUOUS
 10
6.032400
 20
2.002000
  0
VERTEX
  8
0
  6
CONTINUOUS
 10
6.033720
 20
2.037200
  0
SEQEND
  8
0
  0
SOLID
  8
0
 62
    15
 10
6.032400
 20
2.002000
 11
6.681400
 21
2.371600
 12
6.049560
 22
1.963280
 13
6.698560
 23
2.332440
  0
POLYLINE
  8
0
  6
CONTINUOUS
 66
     1
 40
0.000000
 41
0.000000
  0
VERTEX
  8
0
  6
CONTINUOUS
 10
6.032400
 20
2.002000
  0
VERTEX
  8
0
  6
CONTINUOUS
 10
6.681400
 20
2.371600
  0
VERTEX
  8
0
  6
CONTINUOUS
 10
6.698560
 20
2.332440
  0
VERTEX
  8
0
  6
CONTINUOUS
 10
6.049560
 20
1.963280
  0
VERTEX
  8
0
  6
CONTINUOUS
 10
6.032400
 20
2.002000
  0
SEQEND
  8
0
  0
SOLID
  8
0
 62
    15
 10
6.049560
 20
1.963280
 11
6.698560
 21
2.332440
 12
6.081680
 22
1.924120
 13
6.730680
 23
2.293720
  0
POLYLINE
  8
0
  6
CONTINUOUS
 66
     1
 40
0.000000
 41
0.000000
  0
VERTEX
  8
0
  6
CONTINUOUS
 10
6.049560
 20
1.963280
  0
VERTEX
  8
0
  6
CONTINUOUS
 10
6.698560
 20
2.332440
  0
VERTEX
  8
0
  6
CONTINUOUS
 10
6.730680
 20
2.293720
  0
VERTEX
  8
0
  6
CONTINUOUS
 10
6.081680
 20
1.924120
  0
VERTEX
  8
0
  6
CONTINUOUS
 10
6.049560
 20
1.963280
  0
SEQEND
  8
0
  0
SOLID
  8
0
 62
    15
 10
6.081680
 20
1.924120
 11
6.730680
 21
2.293720
 12
6.097960
 22
1.880120
 13
6.746960
 23
2.249720
  0
POLYLINE
  8
0
  6
CONTINUOUS
 66
     1
 40
0.000000
 41
0.000000
  0
VERTEX
  8
0
  6
CONTINUOUS
 10
6.081680
 20
1.924120
  0
VERTEX
  8
0
  6
CONTINUOUS
 10
6.730680
 20
2.293720
  0
VERTEX
  8
0
  6
CONTINUOUS
 10
6.746960
 20
2.249720
  0
VERTEX
  8
0
  6
CONTINUOUS
 10
6.097960
 20
1.880120
  0
VERTEX
  8
0
  6
CONTINUOUS
 10
6.081680
 20
1.924120
  0
SEQEND
  8
0
  0
SOLID
  8
0
 62
    15
 10
3.251600
 20
2.721400
 11
3.900600
 21
3.091000
 12
3.311880
 22
2.721400
 13
3.960880
 23
3.091000
  0
POLYLINE
  8
0
  6
CONTINUOUS
 66
     1
 40
0.000000
 41
0.000000
  0
VERTEX
  8
0
  6
CONTINUOUS
 10
3.251600
 20
2.721400
  0
VERTEX
  8
0
  6
CONTINUOUS
 10
3.900600
 20
3.091000
  0
VERTEX
  8
0
  6
CONTINUOUS
 10
3.960880
 20
3.091000
  0
VERTEX
  8
0
  6
CONTINUOUS
 10
3.311880
 20
2.721400
  0
VERTEX
  8
0
  6
CONTINUOUS
 10
3.251600
 20
2.721400
  0
SEQEND
  8
0
  0
SOLID
  8
0
 62
    15
 10
6.093120
 20
1.834360
 11
6.742120
 21
2.203520
 12
6.081680
 22
1.811040
 13
6.730680
 23
2.180640
  0
POLYLINE
  8
0
  6
CONTINUOUS
 66
     1
 40
0.000000
 41
0.000000
  0
VERTEX
  8
0
  6
CONTINUOUS
 10
6.093120
 20
1.834360
  0
VERTEX
  8
0
  6
CONTINUOUS
 10
6.742120
 20
2.203520
  0
VERTEX
  8
0
  6
CONTINUOUS
 10
6.730680
 20
2.180640
  0
VERTEX
  8
0
  6
CONTINUOUS
 10
6.081680
 20
1.811040
  0
VERTEX
  8
0
  6
CONTINUOUS
 10
6.093120
 20
1.834360
  0
SEQEND
  8
0
  0
SOLID
  8
0
 62
    15
 10
6.081680
 20
1.811040
 11
6.730680
 21
2.180640
 12
6.062760
 22
1.788160
 13
6.711760
 23
2.157760
  0
POLYLINE
  8
0
  6
CONTINUOUS
 66
     1
 40
0.000000
 41
0.000000
  0
VERTEX
  8
0
  6
CONTINUOUS
 10
6.081680
 20
1.811040
  0
VERTEX
  8
0
  6
CONTINUOUS
 10
6.730680
 20
2.180640
  0
VERTEX
  8
0
  6
CONTINUOUS
 10
6.711760
 20
2.157760
  0
VERTEX
  8
0
  6
CONTINUOUS
 10
6.062760
 20
1.788160
  0
VERTEX
  8
0
  6
CONTINUOUS
 10
6.081680
 20
1.811040
  0
SEQEND
  8
0
  0
SOLID
  8
0
 62
    15
 10
6.062760
 20
1.788160
 11
6.711760
 21
2.157760
 12
6.043840
 22
1.768800
 13
6.692840
 23
2.137960
  0
POLYLINE
  8
0
  6
CONTINUOUS
 66
     1
 40
0.000000
 41
0.000000
  0
VERTEX
  8
0
  6
CONTINUOUS
 10
6.062760
 20
1.788160
  0
VERTEX
  8
0
  6
CONTINUOUS
 10
6.711760
 20
2.157760
  0
VERTEX
  8
0
  6
CONTINUOUS
 10
6.692840
 20
2.137960
  0
VERTEX
  8
0
  6
CONTINUOUS
 10
6.043840
 20
1.768800
  0
VERTEX
  8
0
  6
CONTINUOUS
 10
6.062760
 20
1.788160
  0
SEQEND
  8
0
  0
SOLID
  8
0
 62
    15
 10
6.043840
 20
1.768800
 11
6.692840
 21
2.137960
 12
6.031080
 22
1.753840
 13
6.680080
 23
2.123440
  0
POLYLINE
  8
0
  6
CONTINUOUS
 66
     1
 40
0.000000
 41
0.000000
  0
VERTEX
  8
0
  6
CONTINUOUS
 10
6.043840
 20
1.768800
  0
VERTEX
  8
0
  6
CONTINUOUS
 10
6.692840
 20
2.137960
  0
VERTEX
  8
0
  6
CONTINUOUS
 10
6.680080
 20
2.123440
  0
VERTEX
  8
0
  6
CONTINUOUS
 10
6.031080
 20
1.753840
  0
VERTEX
  8
0
  6
CONTINUOUS
 10
6.043840
 20
1.768800
  0
SEQEND
  8
0
  0
SOLID
  8
0
 62
    15
 10
6.031080
 20
1.753840
 11
6.680080
 21
2.123440
 12
6.019640
 22
1.733600
 13
6.668640
 23
2.103200
  0
POLYLINE
  8
0
  6
CONTINUOUS
 66
     1
 40
0.000000
 41
0.000000
  0
VERTEX
  8
0
  6
CONTINUOUS
 10
6.031080
 20
1.753840
  0
VERTEX
  8
0
  6
CONTINUOUS
 10
6.680080
 20
2.123440
  0
VERTEX
  8
0
  6
CONTINUOUS
 10
6.668640
 20
2.103200
  0
VERTEX
  8
0
  6
CONTINUOUS
 10
6.019640
 20
1.733600
  0
VERTEX
  8
0
  6
CONTINUOUS
 10
6.031080
 20
1.753840
  0
SEQEND
  8
0
  0
SOLID
  8
0
 62
    15
 10
6.019640
 20
1.733600
 11
6.668640
 21
2.103200
 12
6.024920
 22
1.699280
 13
6.673920
 23
2.068880
  0
POLYLINE
  8
0
  6
CONTINUOUS
 66
     1
 40
0.000000
 41
0.000000
  0
VERTEX
  8
0
  6
CONTINUOUS
 10
6.019640
 20
1.733600
  0
VERTEX
  8
0
  6
CONTINUOUS
 10
6.668640
 20
2.103200
  0
VERTEX
  8
0
  6
CONTINUOUS
 10
6.673920
 20
2.068880
  0
VERTEX
  8
0
  6
CONTINUOUS
 10
6.024920
 20
1.699280
  0
VERTEX
  8
0
  6
CONTINUOUS
 10
6.019640
 20
1.733600
  0
SEQEND
  8
0
  0
SOLID
  8
0
 62
    15
 10
6.024920
 20
1.699280
 11
6.673920
 21
2.068880
 12
6.038120
 22
1.672000
 13
6.687560
 23
2.041600
  0
POLYLINE
  8
0
  6
CONTINUOUS
 66
     1
 40
0.000000
 41
0.000000
  0
VERTEX
  8
0
  6
CONTINUOUS
 10
6.024920
 20
1.699280
  0
VERTEX
  8
0
  6
CONTINUOUS
 10
6.673920
 20
2.068880
  0
VERTEX
  8
0
  6
CONTINUOUS
 10
6.687560
 20
2.041600
  0
VERTEX
  8
0
  6
CONTINUOUS
 10
6.038120
 20
1.672000
  0
VERTEX
  8
0
  6
CONTINUOUS
 10
6.024920
 20
1.699280
  0
SEQEND
  8
0
  0
SOLID
  8
0
 62
    15
 10
6.038120
 20
1.672000
 11
6.687560
 21
2.041600
 12
6.063200
 22
1.639440
 13
6.712200
 23
2.009040
  0
POLYLINE
  8
0
  6
CONTINUOUS
 66
     1
 40
0.000000
 41
0.000000
  0
VERTEX
  8
0
  6
CONTINUOUS
 10
6.038120
 20
1.672000
  0
VERTEX
  8
0
  6
CONTINUOUS
 10
6.687560
 20
2.041600
  0
VERTEX
  8
0
  6
CONTINUOUS
 10
6.712200
 20
2.009040
  0
VERTEX
  8
0
  6
CONTINUOUS
 10
6.063200
 20
1.639440
  0
VERTEX
  8
0
  6
CONTINUOUS
 10
6.038120
 20
1.672000
  0
SEQEND
  8
0
  0
SOLID
  8
0
 62
    15
 10
6.063200
 20
1.639440
 11
6.712200
 21
2.009040
 12
6.087400
 22
1.602920
 13
6.736400
 23
1.972080
  0
POLYLINE
  8
0
  6
CONTINUOUS
 66
     1
 40
0.000000
 41
0.000000
  0
VERTEX
  8
0
  6
CONTINUOUS
 10
6.063200
 20
1.639440
  0
VERTEX
  8
0
  6
CONTINUOUS
 10
6.712200
 20
2.009040
  0
VERTEX
  8
0
  6
CONTINUOUS
 10
6.736400
 20
1.972080
  0
VERTEX
  8
0
  6
CONTINUOUS
 10
6.087400
 20
1.602920
  0
VERTEX
  8
0
  6
CONTINUOUS
 10
6.063200
 20
1.639440
  0
SEQEND
  8
0
  0
SOLID
  8
0
 62
    15
 10
6.087400
 20
1.602920
 11
6.736400
 21
1.972080
 12
6.098400
 22
1.561560
 13
6.747400
 23
1.931160
  0
POLYLINE
  8
0
  6
CONTINUOUS
 66
     1
 40
0.000000
 41
0.000000
  0
VERTEX
  8
0
  6
CONTINUOUS
 10
6.087400
 20
1.602920
  0
VERTEX
  8
0
  6
CONTINUOUS
 10
6.736400
 20
1.972080
  0
VERTEX
  8
0
  6
CONTINUOUS
 10
6.747400
 20
1.931160
  0
VERTEX
  8
0
  6
CONTINUOUS
 10
6.098400
 20
1.561560
  0
VERTEX
  8
0
  6
CONTINUOUS
 10
6.087400
 20
1.602920
  0
SEQEND
  8
0
  0
SOLID
  8
0
 62
    15
 10
6.098400
 20
1.561560
 11
6.747400
 21
1.931160
 12
6.088720
 22
1.525040
 13
6.737720
 23
1.894640
  0
POLYLINE
  8
0
  6
CONTINUOUS
 66
     1
 40
0.000000
 41
0.000000
  0
VERTEX
  8
0
  6
CONTINUOUS
 10
6.098400
 20
1.561560
  0
VERTEX
  8
0
  6
CONTINUOUS
 10
6.747400
 20
1.931160
  0
VERTEX
  8
0
  6
CONTINUOUS
 10
6.737720
 20
1.894640
  0
VERTEX
  8
0
  6
CONTINUOUS
 10
6.088720
 20
1.525040
  0
VERTEX
  8
0
  6
CONTINUOUS
 10
6.098400
 20
1.561560
  0
SEQEND
  8
0
  0
SOLID
  8
0
 62
    15
 10
5.996320
 20
1.463880
 11
6.645320
 21
1.833040
 12
5.958040
 22
1.440560
 13
6.607040
 23
1.810160
  0
POLYLINE
  8
0
  6
CONTINUOUS
 66
     1
 40
0.000000
 41
0.000000
  0
VERTEX
  8
0
  6
CONTINUOUS
 10
5.996320
 20
1.463880
  0
VERTEX
  8
0
  6
CONTINUOUS
 10
6.645320
 20
1.833040
  0
VERTEX
  8
0
  6
CONTINUOUS
 10
6.607040
 20
1.810160
  0
VERTEX
  8
0
  6
CONTINUOUS
 10
5.958040
 20
1.440560
  0
VERTEX
  8
0
  6
CONTINUOUS
 10
5.996320
 20
1.463880
  0
SEQEND
  8
0
  0
SOLID
  8
0
 62
    15
 10
6.088720
 20
1.525040
 11
6.737720
 21
1.894640
 12
6.064080
 22
1.499080
 13
6.713080
 23
1.868680
  0
POLYLINE
  8
0
  6
CONTINUOUS
 66
     1
 40
0.000000
 41
0.000000
  0
VERTEX
  8
0
  6
CONTINUOUS
 10
6.088720
 20
1.525040
  0
VERTEX
  8
0
  6
CONTINUOUS
 10
6.737720
 20
1.894640
  0
VERTEX
  8
0
  6
CONTINUOUS
 10
6.713080
 20
1.868680
  0
VERTEX
  8
0
  6
CONTINUOUS
 10
6.064080
 20
1.499080
  0
VERTEX
  8
0
  6
CONTINUOUS
 10
6.088720
 20
1.525040
  0
SEQEND
  8
0
  0
SOLID
  8
0
 62
    15
 10
5.917120
 20
1.407560
 11
6.566120
 21
1.777160
 12
5.885000
 22
1.368840
 13
6.534000
 23
1.738000
  0
POLYLINE
  8
0
  6
CONTINUOUS
 66
     1
 40
0.000000
 41
0.000000
  0
VERTEX
  8
0
  6
CONTINUOUS
 10
5.917120
 20
1.407560
  0
VERTEX
  8
0
  6
CONTINUOUS
 10
6.566120
 20
1.777160
  0
VERTEX
  8
0
  6
CONTINUOUS
 10
6.534000
 20
1.738000
  0
VERTEX
  8
0
  6
CONTINUOUS
 10
5.885000
 20
1.368840
  0
VERTEX
  8
0
  6
CONTINUOUS
 10
5.917120
 20
1.407560
  0
SEQEND
  8
0
  0
SOLID
  8
0
 62
    15
 10
5.958040
 20
1.440560
 11
6.607040
 21
1.810160
 12
5.917120
 22
1.407560
 13
6.566120
 23
1.777160
  0
POLYLINE
  8
0
  6
CONTINUOUS
 66
     1
 40
0.000000
 41
0.000000
  0
VERTEX
  8
0
  6
CONTINUOUS
 10
5.958040
 20
1.440560
  0
VERTEX
  8
0
  6
CONTINUOUS
 10
6.607040
 20
1.810160
  0
VERTEX
  8
0
  6
CONTINUOUS
 10
6.566120
 20
1.777160
  0
VERTEX
  8
0
  6
CONTINUOUS
 10
5.917120
 20
1.407560
  0
VERTEX
  8
0
  6
CONTINUOUS
 10
5.958040
 20
1.440560
  0
SEQEND
  8
0
  0
SOLID
  8
0
 62
    15
 10
5.885000
 20
1.368840
 11
6.534000
 21
1.738000
 12
5.871800
 22
1.327920
 13
6.520800
 23
1.697520
  0
POLYLINE
  8
0
  6
CONTINUOUS
 66
     1
 40
0.000000
 41
0.000000
  0
VERTEX
  8
0
  6
CONTINUOUS
 10
5.885000
 20
1.368840
  0
VERTEX
  8
0
  6
CONTINUOUS
 10
6.534000
 20
1.738000
  0
VERTEX
  8
0
  6
CONTINUOUS
 10
6.520800
 20
1.697520
  0
VERTEX
  8
0
  6
CONTINUOUS
 10
5.871800
 20
1.327920
  0
VERTEX
  8
0
  6
CONTINUOUS
 10
5.885000
 20
1.368840
  0
SEQEND
  8
0
  0
SOLID
  8
0
 62
    15
 10
2.854280
 20
1.327920
 11
3.503720
 21
1.697520
 12
2.864400
 22
1.327920
 13
3.513400
 23
1.697520
  0
POLYLINE
  8
0
  6
CONTINUOUS
 66
     1
 40
0.000000
 41
0.000000
  0
VERTEX
  8
0
  6
CONTINUOUS
 10
2.854280
 20
1.327920
  0
VERTEX
  8
0
  6
CONTINUOUS
 10
3.503720
 20
1.697520
  0
VERTEX
  8
0
  6
CONTINUOUS
 10
3.513400
 20
1.697520
  0
VERTEX
  8
0
  6
CONTINUOUS
 10
2.864400
 20
1.327920
  0
VERTEX
  8
0
  6
CONTINUOUS
 10
2.854280
 20
1.327920
  0
SEQEND
  8
0
  0
SOLID
  8
0
 62
    15
 10
2.525160
 20
2.584120
 11
3.174160
 21
2.953280
 12
3.251600
 22
2.721400
 13
3.900600
 23
3.091000
  0
POLYLINE
  8
0
  6
CONTINUOUS
 66
     1
 40
0.000000
 41
0.000000
  0
VERTEX
  8
0
  6
CONTINUOUS
 10
2.525160
 20
2.584120
  0
VERTEX
  8
0
  6
CONTINUOUS
 10
3.174160
 20
2.953280
  0
VERTEX
  8
0
  6
CONTINUOUS
 10
3.900600
 20
3.091000
  0
VERTEX
  8
0
  6
CONTINUOUS
 10
3.251600
 20
2.721400
  0
VERTEX
  8
0
  6
CONTINUOUS
 10
2.525160
 20
2.584120
  0
SEQEND
  8
0
  0
SOLID
  8
0
 62
    15
 10
3.311880
 20
2.721400
 11
3.960880
 21
3.091000
 12
3.311880
 22
2.720520
 13
3.960880
 23
3.090120
  0
POLYLINE
  8
0
  6
CONTINUOUS
 66
     1
 40
0.000000
 41
0.000000
  0
VERTEX
  8
0
  6
CONTINUOUS
 10
3.311880
 20
2.721400
  0
VERTEX
  8
0
  6
CONTINUOUS
 10
3.960880
 20
3.091000
  0
VERTEX
  8
0
  6
CONTINUOUS
 10
3.960880
 20
3.090120
  0
VERTEX
  8
0
  6
CONTINUOUS
 10
3.311880
 20
2.720520
  0
VERTEX
  8
0
  6
CONTINUOUS
 10
3.311880
 20
2.721400
  0
SEQEND
  8
0
  0
SOLID
  8
0
 62
    15
 10
3.299120
 20
2.721840
 11
3.948120
 21
3.091440
 12
5.382080
 22
2.721840
 13
6.031080
 23
3.091440
  0
POLYLINE
  8
0
  6
CONTINUOUS
 66
     1
 40
0.000000
 41
0.000000
  0
VERTEX
  8
0
  6
CONTINUOUS
 10
3.299120
 20
2.721840
  0
VERTEX
  8
0
  6
CONTINUOUS
 10
3.948120
 20
3.091440
  0
VERTEX
  8
0
  6
CONTINUOUS
 10
6.031080
 20
3.091440
  0
VERTEX
  8
0
  6
CONTINUOUS
 10
5.382080
 20
2.721840
  0
VERTEX
  8
0
  6
CONTINUOUS
 10
3.299120
 20
2.721840
  0
SEQEND
  8
0
  0
POLYLINE
  8
0
  6
CONTINUOUS
 66
     1
 40
0.000000
 41
0.000000
  0
VERTEX
  8
0
  6
CONTINUOUS
 10
3.299120
 20
2.721840
  0
VERTEX
  8
0
  6
CONTINUOUS
 10
5.382080
 20
2.721840
  0
VERTEX
  8
0
  6
CONTINUOUS
 10
6.108520
 20
2.585000
  0
VERTEX
  8
0
  6
CONTINUOUS
 10
6.109400
 20
2.457840
  0
VERTEX
  8
0
  6
CONTINUOUS
 10
6.072880
 20
2.418680
  0
VERTEX
  8
0
  6
CONTINUOUS
 10
6.046040
 20
2.385240
  0
VERTEX
  8
0
  6
CONTINUOUS
 10
6.029320
 20
2.355320
  0
VERTEX
  8
0
  6
CONTINUOUS
 10
6.022280
 20
2.328040
  0
VERTEX
  8
0
  6
CONTINUOUS
 10
6.024480
 20
2.302080
  0
VERTEX
  8
0
  6
CONTINUOUS
 10
6.035480
 20
2.274800
  0
VERTEX
  8
0
  6
CONTINUOUS
 10
6.055720
 20
2.245760
  0
VERTEX
  8
0
  6
CONTINUOUS
 10
6.085200
 20
2.213200
  0
VERTEX
  8
0
  6
CONTINUOUS
 10
6.101040
 20
2.188120
  0
VERTEX
  8
0
  6
CONTINUOUS
 10
6.105000
 20
2.159080
  0
VERTEX
  8
0
  6
CONTINUOUS
 10
6.095760
 20
2.128280
  0
VERTEX
  8
0
  6
CONTINUOUS
 10
6.073760
 20
2.098800
  0
VERTEX
  8
0
  6
CONTINUOUS
 10
6.048680
 20
2.069320
  0
VERTEX
  8
0
  6
CONTINUOUS
 10
6.033720
 20
2.037200
  0
VERTEX
  8
0
  6
CONTINUOUS
 10
6.032400
 20
2.002000
  0
VERTEX
  8
0
  6
CONTINUOUS
 10
6.049560
 20
1.963280
  0
VERTEX
  8
0
  6
CONTINUOUS
 10
6.081680
 20
1.924120
  0
VERTEX
  8
0
  6
CONTINUOUS
 10
6.097960
 20
1.880120
  0
VERTEX
  8
0
  6
CONTINUOUS
 10
6.093120
 20
1.834360
  0
VERTEX
  8
0
  6
CONTINUOUS
 10
6.081680
 20
1.811040
  0
VERTEX
  8
0
  6
CONTINUOUS
 10
6.062760
 20
1.788160
  0
VERTEX
  8
0
  6
CONTINUOUS
 10
6.031080
 20
1.753840
  0
VERTEX
  8
0
  6
CONTINUOUS
 10
6.019640
 20
1.733600
  0
VERTEX
  8
0
  6
CONTINUOUS
 10
6.024920
 20
1.699280
  0
VERTEX
  8
0
  6
CONTINUOUS
 10
6.038120
 20
1.672000
  0
VERTEX
  8
0
  6
CONTINUOUS
 10
6.063200
 20
1.639440
  0
VERTEX
  8
0
  6
CONTINUOUS
 10
6.087400
 20
1.602920
  0
VERTEX
  8
0
  6
CONTINUOUS
 10
6.098400
 20
1.561560
  0
VERTEX
  8
0
  6
CONTINUOUS
 10
6.088720
 20
1.525040
  0
VERTEX
  8
0
  6
CONTINUOUS
 10
6.064080
 20
1.499080
  0
VERTEX
  8
0
  6
CONTINUOUS
 10
5.996320
 20
1.463880
  0
VERTEX
  8
0
  6
CONTINUOUS
 10
5.958040
 20
1.440560
  0
VERTEX
  8
0
  6
CONTINUOUS
 10
5.917120
 20
1.407560
  0
VERTEX
  8
0
  6
CONTINUOUS
 10
5.885000
 20
1.368840
  0
VERTEX
  8
0
  6
CONTINUOUS
 10
5.871800
 20
1.327920
  0
VERTEX
  8
0
  6
CONTINUOUS
 10
2.854280
 20
1.327920
  0
VERTEX
  8
0
  6
CONTINUOUS
 10
2.864400
 20
1.327920
  0
VERTEX
  8
0
  6
CONTINUOUS
 10
2.761000
 20
1.327920
  0
VERTEX
  8
0
  6
CONTINUOUS
 10
2.747800
 20
1.368400
  0
VERTEX
  8
0
  6
CONTINUOUS
 10
2.715680
 20
1.407120
  0
VERTEX
  8
0
  6
CONTINUOUS
 10
2.675640
 20
1.439680
  0
VERTEX
  8
0
  6
CONTINUOUS
 10
2.637360
 20
1.462560
  0
VERTEX
  8
0
  6
CONTINUOUS
 10
2.569600
 20
1.498200
  0
VERTEX
  8
0
  6
CONTINUOUS
 10
2.544960
 20
1.523720
  0
VERTEX
  8
0
  6
CONTINUOUS
 10
2.535280
 20
1.560240
  0
VERTEX
  8
0
  6
CONTINUOUS
 10
2.545840
 20
1.601600
  0
VERTEX
  8
0
  6
CONTINUOUS
 10
2.570040
 20
1.638560
  0
VERTEX
  8
0
  6
CONTINUOUS
 10
2.595120
 20
1.670680
  0
VERTEX
  8
0
  6
CONTINUOUS
 10
2.608760
 20
1.697960
  0
VERTEX
  8
0
  6
CONTINUOUS
 10
2.613600
 20
1.732720
  0
VERTEX
  8
0
  6
CONTINUOUS
 10
2.602600
 20
1.752520
  0
VERTEX
  8
0
  6
CONTINUOUS
 10
2.552000
 20
1.809720
  0
VERTEX
  8
0
  6
CONTINUOUS
 10
2.540560
 20
1.833040
  0
VERTEX
  8
0
  6
CONTINUOUS
 10
2.535720
 20
1.879240
  0
VERTEX
  8
0
  6
CONTINUOUS
 10
2.552000
 20
1.922800
  0
VERTEX
  8
0
  6
CONTINUOUS
 10
2.584120
 20
1.961960
  0
VERTEX
  8
0
  6
CONTINUOUS
 10
2.601280
 20
2.001120
  0
VERTEX
  8
0
  6
CONTINUOUS
 10
2.599960
 20
2.035880
  0
VERTEX
  8
0
  6
CONTINUOUS
 10
2.584560
 20
2.068000
  0
VERTEX
  8
0
  6
CONTINUOUS
 10
2.559480
 20
2.097480
  0
VERTEX
  8
0
  6
CONTINUOUS
 10
2.537920
 20
2.127400
  0
VERTEX
  8
0
  6
CONTINUOUS
 10
2.528680
 20
2.157760
  0
VERTEX
  8
0
  6
CONTINUOUS
 10
2.532200
 20
2.186800
  0
VERTEX
  8
0
  6
CONTINUOUS
 10
2.548480
 20
2.211880
  0
VERTEX
  8
0
  6
CONTINUOUS
 10
2.577520
 20
2.244880
  0
VERTEX
  8
0
  6
CONTINUOUS
 10
2.597760
 20
2.273920
  0
VERTEX
  8
0
  6
CONTINUOUS
 10
2.609200
 20
2.300760
  0
VERTEX
  8
0
  6
CONTINUOUS
 10
2.611400
 20
2.327160
  0
VERTEX
  8
0
  6
CONTINUOUS
 10
2.603920
 20
2.354440
  0
VERTEX
  8
0
  6
CONTINUOUS
 10
2.587200
 20
2.383920
  0
VERTEX
  8
0
  6
CONTINUOUS
 10
2.560800
 20
2.417360
  0
VERTEX
  8
0
  6
CONTINUOUS
 10
2.524280
 20
2.456520
  0
VERTEX
  8
0
  6
CONTINUOUS
 10
2.525160
 20
2.584120
  0
VERTEX
  8
0
  6
CONTINUOUS
 10
3.251600
 20
2.721400
  0
VERTEX
  8
0
  6
CONTINUOUS
 10
3.311880
 20
2.721400
  0
VERTEX
  8
0
  6
CONTINUOUS
 10
3.311880
 20
2.720520
  0
VERTEX
  8
0
  6
CONTINUOUS
 10
3.299120
 20
2.721840
  0
SEQEND
  8
0
  0
TEXT
  8
0
 10
4.346320
 20
1.079320
 40
0.138222
  1
BA  798
 41
1.000000
  7
SN0
 71
     0
 72
     5
 11
4.935681
 21
1.079320
  0
TEXT
  8
0
 10
4.070880
 20
0.887480
 40
0.138222
  1
1-3/8" x 3-9/16"
 41
1.000000
  7
SN0
 71
     0
 72
     5
 11
5.209366
 21
0.887480
  0
POLYLINE
  8
0
  6
CONTINUOUS
 66
     1
 40
0.014080
 41
0.014080
  0
VERTEX
  8
0
  6
CONTINUOUS
 10
3.564440
 20
4.713720
  0
VERTEX
  8
0
  6
CONTINUOUS
 10
3.564440
 20
4.714600
  0
VERTEX
  8
0
  6
CONTINUOUS
 10
3.504160
 20
4.714600
  0
VERTEX
  8
0
  6
CONTINUOUS
 10
2.777720
 20
4.577320
  0
VERTEX
  8
0
  6
CONTINUOUS
 10
2.776840
 20
4.449720
  0
VERTEX
  8
0
  6
CONTINUOUS
 10
2.821280
 20
4.401760
  0
VERTEX
  8
0
  6
CONTINUOUS
 10
2.849880
 20
4.362160
  0
VERTEX
  8
0
  6
CONTINUOUS
 10
2.856920
 20
4.347640
  0
VERTEX
  8
0
  6
CONTINUOUS
 10
2.861760
 20
4.333560
  0
VERTEX
  8
0
  6
CONTINUOUS
 10
2.864400
 20
4.320360
  0
VERTEX
  8
0
  6
CONTINUOUS
 10
2.864400
 20
4.307160
  0
VERTEX
  8
0
  6
CONTINUOUS
 10
2.862200
 20
4.293960
  0
VERTEX
  8
0
  6
CONTINUOUS
 10
2.850760
 20
4.267120
  0
VERTEX
  8
0
  6
CONTINUOUS
 10
2.830520
 20
4.238080
  0
VERTEX
  8
0
  6
CONTINUOUS
 10
2.791800
 20
4.193640
  0
VERTEX
  8
0
  6
CONTINUOUS
 10
2.783000
 20
4.173400
  0
VERTEX
  8
0
  6
CONTINUOUS
 10
2.781240
 20
4.158440
  0
VERTEX
  8
0
  6
CONTINUOUS
 10
2.784320
 20
4.136000
  0
VERTEX
  8
0
  6
CONTINUOUS
 10
2.790480
 20
4.120600
  0
VERTEX
  8
0
  6
CONTINUOUS
 10
2.805880
 20
4.098160
  0
VERTEX
  8
0
  6
CONTINUOUS
 10
2.826120
 20
4.076600
  0
VERTEX
  8
0
  6
CONTINUOUS
 10
2.842400
 20
4.053720
  0
VERTEX
  8
0
  6
CONTINUOUS
 10
2.850320
 20
4.037880
  0
VERTEX
  8
0
  6
CONTINUOUS
 10
2.854720
 20
4.020720
  0
VERTEX
  8
0
  6
CONTINUOUS
 10
2.855600
 20
4.003120
  0
VERTEX
  8
0
  6
CONTINUOUS
 10
2.851640
 20
3.984640
  0
VERTEX
  8
0
  6
CONTINUOUS
 10
2.843280
 20
3.965280
  0
VERTEX
  8
0
  6
CONTINUOUS
 10
2.837120
 20
3.955160
  0
VERTEX
  8
0
  6
CONTINUOUS
 10
2.811600
 20
3.926560
  0
VERTEX
  8
0
  6
CONTINUOUS
 10
2.799280
 20
3.905440
  0
VERTEX
  8
0
  6
CONTINUOUS
 10
2.790920
 20
3.883440
  0
VERTEX
  8
0
  6
CONTINUOUS
 10
2.787840
 20
3.861000
  0
VERTEX
  8
0
  6
CONTINUOUS
 10
2.790040
 20
3.837680
  0
VERTEX
  8
0
  6
CONTINUOUS
 10
2.798400
 20
3.814800
  0
VERTEX
  8
0
  6
CONTINUOUS
 10
2.813360
 20
3.791920
  0
VERTEX
  8
0
  6
CONTINUOUS
 10
2.855600
 20
3.745720
  0
VERTEX
  8
0
  6
CONTINUOUS
 10
2.865720
 20
3.729880
  0
VERTEX
  8
0
  6
CONTINUOUS
 10
2.867480
 20
3.718440
  0
VERTEX
  8
0
  6
CONTINUOUS
 10
2.859560
 20
3.685000
  0
VERTEX
  8
0
  6
CONTINUOUS
 10
2.848120
 20
3.663880
  0
VERTEX
  8
0
  6
CONTINUOUS
 10
2.810280
 20
3.613720
  0
VERTEX
  8
0
  6
CONTINUOUS
 10
2.799280
 20
3.594800
  0
VERTEX
  8
0
  6
CONTINUOUS
 10
2.791360
 20
3.574560
  0
VERTEX
  8
0
  6
CONTINUOUS
 10
2.788280
 20
3.553440
  0
VERTEX
  8
0
  6
CONTINUOUS
 10
2.788720
 20
3.542880
  0
VERTEX
  8
0
  6
CONTINUOUS
 10
2.794000
 20
3.524840
  0
VERTEX
  8
0
  6
CONTINUOUS
 10
2.802800
 20
3.509880
  0
VERTEX
  8
0
  6
CONTINUOUS
 10
2.822600
 20
3.491400
  0
VERTEX
  8
0
  6
CONTINUOUS
 10
2.855600
 20
3.472480
  0
VERTEX
  8
0
  6
CONTINUOUS
 10
2.899160
 20
3.451360
  0
VERTEX
  8
0
  6
CONTINUOUS
 10
2.928640
 20
3.432880
  0
VERTEX
  8
0
  6
CONTINUOUS
 10
2.968680
 20
3.400320
  0
VERTEX
  8
0
  6
CONTINUOUS
 10
2.994200
 20
3.371720
  0
VERTEX
  8
0
  6
CONTINUOUS
 10
3.006520
 20
3.351480
  0
VERTEX
  8
0
  6
CONTINUOUS
 10
3.013120
 20
3.331240
  0
VERTEX
  8
0
  6
CONTINUOUS
 10
3.014000
 20
3.321120
  0
VERTEX
  8
0
  6
CONTINUOUS
 10
6.124360
 20
3.321560
  0
VERTEX
  8
0
  6
CONTINUOUS
 10
6.125240
 20
3.331680
  0
VERTEX
  8
0
  6
CONTINUOUS
 10
6.131840
 20
3.351920
  0
VERTEX
  8
0
  6
CONTINUOUS
 10
6.144160
 20
3.372160
  0
VERTEX
  8
0
  6
CONTINUOUS
 10
6.160440
 20
3.391520
  0
VERTEX
  8
0
  6
CONTINUOUS
 10
6.189920
 20
3.418360
  0
VERTEX
  8
0
  6
CONTINUOUS
 10
6.230840
 20
3.446960
  0
VERTEX
  8
0
  6
CONTINUOUS
 10
6.301240
 20
3.482600
  0
VERTEX
  8
0
  6
CONTINUOUS
 10
6.324120
 20
3.498000
  0
VERTEX
  8
0
  6
CONTINUOUS
 10
6.336880
 20
3.511200
  0
VERTEX
  8
0
  6
CONTINUOUS
 10
6.345680
 20
3.526160
  0
VERTEX
  8
0
  6
CONTINUOUS
 10
6.350960
 20
3.544200
  0
VERTEX
  8
0
  6
CONTINUOUS
 10
6.351400
 20
3.554760
  0
VERTEX
  8
0
  6
CONTINUOUS
 10
6.348320
 20
3.575880
  0
VERTEX
  8
0
  6
CONTINUOUS
 10
6.340400
 20
3.596120
  0
VERTEX
  8
0
  6
CONTINUOUS
 10
6.329400
 20
3.615040
  0
VERTEX
  8
0
  6
CONTINUOUS
 10
6.286280
 20
3.672240
  0
VERTEX
  8
0
  6
CONTINUOUS
 10
6.279680
 20
3.686320
  0
VERTEX
  8
0
  6
CONTINUOUS
 10
6.272200
 20
3.719320
  0
VERTEX
  8
0
  6
CONTINUOUS
 10
6.273960
 20
3.731200
  0
VERTEX
  8
0
  6
CONTINUOUS
 10
6.289800
 20
3.753640
  0
VERTEX
  8
0
  6
CONTINUOUS
 10
6.325880
 20
3.792800
  0
VERTEX
  8
0
  6
CONTINUOUS
 10
6.341280
 20
3.815680
  0
VERTEX
  8
0
  6
CONTINUOUS
 10
6.349640
 20
3.839000
  0
VERTEX
  8
0
  6
CONTINUOUS
 10
6.351840
 20
3.861880
  0
VERTEX
  8
0
  6
CONTINUOUS
 10
6.350960
 20
3.873320
  0
VERTEX
  8
0
  6
CONTINUOUS
 10
6.344800
 20
3.895760
  0
VERTEX
  8
0
  6
CONTINUOUS
 10
6.334680
 20
3.917320
  0
VERTEX
  8
0
  6
CONTINUOUS
 10
6.311800
 20
3.947240
  0
VERTEX
  8
0
  6
CONTINUOUS
 10
6.302560
 20
3.956480
  0
VERTEX
  8
0
  6
CONTINUOUS
 10
6.291120
 20
3.976280
  0
VERTEX
  8
0
  6
CONTINUOUS
 10
6.285400
 20
3.995200
  0
VERTEX
  8
0
  6
CONTINUOUS
 10
6.283640
 20
4.013240
  0
VERTEX
  8
0
  6
CONTINUOUS
 10
6.286280
 20
4.030400
  0
VERTEX
  8
0
  6
CONTINUOUS
 10
6.292440
 20
4.046680
  0
VERTEX
  8
0
  6
CONTINUOUS
 10
6.301680
 20
4.062520
  0
VERTEX
  8
0
  6
CONTINUOUS
 10
6.313120
 20
4.077480
  0
VERTEX
  8
0
  6
CONTINUOUS
 10
6.339520
 20
4.106520
  0
VERTEX
  8
0
  6
CONTINUOUS
 10
6.352280
 20
4.129400
  0
VERTEX
  8
0
  6
CONTINUOUS
 10
6.358000
 20
4.152280
  0
VERTEX
  8
0
  6
CONTINUOUS
 10
6.357560
 20
4.167240
  0
VERTEX
  8
0
  6
CONTINUOUS
 10
6.354480
 20
4.181320
  0
VERTEX
  8
0
  6
CONTINUOUS
 10
6.343480
 20
4.200680
  0
VERTEX
  8
0
  6
CONTINUOUS
 10
6.309160
 20
4.238960
  0
VERTEX
  8
0
  6
CONTINUOUS
 10
6.288480
 20
4.268000
  0
VERTEX
  8
0
  6
CONTINUOUS
 10
6.277040
 20
4.295280
  0
VERTEX
  8
0
  6
CONTINUOUS
 10
6.274840
 20
4.308040
  0
VERTEX
  8
0
  6
CONTINUOUS
 10
6.275280
 20
4.321240
  0
VERTEX
  8
0
  6
CONTINUOUS
 10
6.277480
 20
4.334880
  0
VERTEX
  8
0
  6
CONTINUOUS
 10
6.285400
 20
4.356000
  0
VERTEX
  8
0
  6
CONTINUOUS
 10
6.304760
 20
4.386360
  0
VERTEX
  8
0
  6
CONTINUOUS
 10
6.342600
 20
4.430800
  0
VERTEX
  8
0
  6
CONTINUOUS
 10
6.362400
 20
4.451040
  0
VERTEX
  8
0
  6
CONTINUOUS
 10
6.361520
 20
4.578200
  0
VERTEX
  8
0
  6
CONTINUOUS
 10
5.635080
 20
4.715040
  0
VERTEX
  8
0
  6
CONTINUOUS
 10
3.552120
 20
4.715040
  0
VERTEX
  8
0
  6
CONTINUOUS
 10
3.564440
 20
4.713720
  0
SEQEND
  8
0
  0
ENDSEC
  0
EOF
