  0
SECTION
  2
HEADER
  9
$ACADVER
  1
AC1006
  9
$EXTMIN
 10
4.038320
 20
0.546040
  9
$EXTMAX
 10
7.452720
 20
4.271520
  9
$LTSCALE
 40
0.044000
  9
$PDMODE
 70
    35
  9
$PDSIZE
 40
0.035200
  0
ENDSEC
  0
SECTION
  2
TABLES
  0
TABLE
  2
LTYPE
 70
     9
  0
LTYPE
  2
CONTINUOUS
 70
    64
  3
Solid line
 72
    65
 73
     0
 40
0.000000
  0
LTYPE
  2
DASHED
 70
    64
  3
__ __ __ __ __ __ __ __ __ __ __ __ __ __ __
 72
    65
 73
     2
 40
0.000330
 49
0.000220
 49
-0.000110
  0
LTYPE
  2
HIDDEN
 70
    64
  3
 _ _ _ _ _ _ _ _ _ _ _ _ _ _ _ _ _ _ _ _ _ _
 72
    65
 73
     2
 40
0.000165
 49
0.000110
 49
-0.000055
  0
LTYPE
  2
CENTER
 70
    64
  3
____ _ ____ _ ____ _ ____ _ ____ _ ____ _ ____
 72
    65
 73
     4
 40
0.000880
 49
0.000550
 49
-0.000110
 49
0.000110
 49
-0.000110
  0
LTYPE
  2
PHANTOM
 70
    64
  3
_____ _ _ _____ _ _ _____ _ _ _____ _ _ ____
 72
    65
 73
     6
 40
0.001100
 49
0.000550
 49
-0.000110
 49
0.000110
 49
-0.000110
 49
0.000110
 49
-0.000110
  0
LTYPE
  2
DOT
 70
    64
  3
...............................................
 72
    65
 73
     2
 40
0.000110
 49
0.000000
 49
-0.000110
  0
LTYPE
  2
DASHDOT
 70
    64
  3
__ . __ . __ . __ . __ . __ . __ . __ . __ . __
 72
    65
 73
     4
 40
0.000440
 49
0.000220
 49
-0.000110
 49
0.000000
 49
-0.000110
  0
LTYPE
  2
BORDER
 70
    64
  3
__ __ . __ __ . __ __ . __ __ . __ __ . __ __
 72
    65
 73
     6
 40
0.000770
 49
0.000220
 49
-0.000110
 49
0.000220
 49
-0.000110
 49
0.000000
 49
-0.000110
  0
LTYPE
  2
DIVIDE
 70
    64
  3
__ . . __ . . __ . . __ . . __ . . __ . . __
 72
    65
 73
     6
 40
0.000550
 49
0.000220
 49
-0.000110
 49
0.000000
 49
-0.000110
 49
0.000000
 49
-0.000110
  0
LTYPE
  2
DOTDOT
 70
    64
  3
 . .  . .  . .  . .  . .  . . 
 72
    65
 73
     5
 40
0.000242
 49
-0.000110
 49
0.000000
 49
-0.000110
 49
0.000000
 49
-0.000110
  0
ENDTAB
  0
TABLE
  2
STYLE
 70
     2
  0
STYLE
 70
     0
  2
SN0
 40
0.000000
 41
0.000440
 50
0.000000
 71
     0
 42
0.000000
  3
ROMAND
  0
STYLE
 70
    68
  2
SV0
 40
0.000000
 41
0.000440
 50
0.000000
 71
     0
 42
0.000000
  3
ROMAND
  0
ENDTAB
  0
TABLE
  2
LAYER
 70
     3
  0
LAYER
  2
FOREGROUND
 70
    64
 62
     7
  6
CONTINUOUS
  0
LAYER
  2
BACKGROUND
 70
    65
 62
    -7
  6
CONTINUOUS
  0
LAYER
  2
0
 70
    64
 62
     7
  6
CONTINUOUS
  0
ENDTAB
  0
ENDSEC
  0
SECTION
  2
ENTITIES
  0
POLYLINE
  8
FOREGROUND
  6
CONTINUOUS
 66
     1
 40
0.000000
 41
0.000000
  0
VERTEX
  8
FOREGROUND
  6
CONTINUOUS
 10
0.000000
 20
4.817560
  0
VERTEX
  8
FOREGROUND
  6
CONTINUOUS
 10
8.499920
 20
4.817560
  0
VERTEX
  8
FOREGROUND
  6
CONTINUOUS
 10
8.499920
 20
-6.182440
  0
VERTEX
  8
FOREGROUND
  6
CONTINUOUS
 10
0.000000
 20
-6.182440
  0
VERTEX
  8
FOREGROUND
  6
CONTINUOUS
 10
0.000000
 20
4.817560
  0
SEQEND
  8
0
  0
POLYLINE
  8
FOREGROUND
  6
CONTINUOUS
 66
     1
 40
0.000000
 41
0.000000
  0
VERTEX
  8
FOREGROUND
  6
CONTINUOUS
 10
0.000000
 20
4.817560
  0
VERTEX
  8
FOREGROUND
  6
CONTINUOUS
 10
8.499920
 20
4.817560
  0
VERTEX
  8
FOREGROUND
  6
CONTINUOUS
 10
8.499920
 20
-6.182440
  0
VERTEX
  8
FOREGROUND
  6
CONTINUOUS
 10
0.000000
 20
-6.182440
  0
VERTEX
  8
FOREGROUND
  6
CONTINUOUS
 10
0.000000
 20
4.817560
  0
SEQEND
  8
0
  0
SOLID
  8
0
 62
    15
 10
4.982120
 20
2.258080
 11
5.634640
 21
2.632960
 12
5.006760
 22
2.222000
 13
5.658840
 23
2.596880
  0
POLYLINE
  8
0
  6
CONTINUOUS
 66
     1
 40
0.000000
 41
0.000000
  0
VERTEX
  8
0
  6
CONTINUOUS
 10
4.982120
 20
2.258080
  0
VERTEX
  8
0
  6
CONTINUOUS
 10
5.634640
 20
2.632960
  0
VERTEX
  8
0
  6
CONTINUOUS
 10
5.658840
 20
2.596880
  0
VERTEX
  8
0
  6
CONTINUOUS
 10
5.006760
 20
2.222000
  0
VERTEX
  8
0
  6
CONTINUOUS
 10
4.982120
 20
2.258080
  0
SEQEND
  8
0
  0
SOLID
  8
0
 62
    15
 10
4.249960
 20
3.896200
 11
4.902040
 21
4.270640
 12
4.264040
 22
3.810400
 13
4.916120
 23
4.184840
  0
POLYLINE
  8
0
  6
CONTINUOUS
 66
     1
 40
0.000000
 41
0.000000
  0
VERTEX
  8
0
  6
CONTINUOUS
 10
4.249960
 20
3.896200
  0
VERTEX
  8
0
  6
CONTINUOUS
 10
4.902040
 20
4.270640
  0
VERTEX
  8
0
  6
CONTINUOUS
 10
4.916120
 20
4.184840
  0
VERTEX
  8
0
  6
CONTINUOUS
 10
4.264040
 20
3.810400
  0
VERTEX
  8
0
  6
CONTINUOUS
 10
4.249960
 20
3.896200
  0
SEQEND
  8
0
  0
SOLID
  8
0
 62
    15
 10
4.264040
 20
3.810400
 11
4.916120
 21
4.184840
 12
4.281200
 22
3.740440
 13
4.933720
 23
4.115320
  0
POLYLINE
  8
0
  6
CONTINUOUS
 66
     1
 40
0.000000
 41
0.000000
  0
VERTEX
  8
0
  6
CONTINUOUS
 10
4.264040
 20
3.810400
  0
VERTEX
  8
0
  6
CONTINUOUS
 10
4.916120
 20
4.184840
  0
VERTEX
  8
0
  6
CONTINUOUS
 10
4.933720
 20
4.115320
  0
VERTEX
  8
0
  6
CONTINUOUS
 10
4.281200
 20
3.740440
  0
VERTEX
  8
0
  6
CONTINUOUS
 10
4.264040
 20
3.810400
  0
SEQEND
  8
0
  0
SOLID
  8
0
 62
    15
 10
4.281200
 20
3.740440
 11
4.933720
 21
4.115320
 12
4.302760
 22
3.685440
 13
4.954840
 23
4.060320
  0
POLYLINE
  8
0
  6
CONTINUOUS
 66
     1
 40
0.000000
 41
0.000000
  0
VERTEX
  8
0
  6
CONTINUOUS
 10
4.281200
 20
3.740440
  0
VERTEX
  8
0
  6
CONTINUOUS
 10
4.933720
 20
4.115320
  0
VERTEX
  8
0
  6
CONTINUOUS
 10
4.954840
 20
4.060320
  0
VERTEX
  8
0
  6
CONTINUOUS
 10
4.302760
 20
3.685440
  0
VERTEX
  8
0
  6
CONTINUOUS
 10
4.281200
 20
3.740440
  0
SEQEND
  8
0
  0
SOLID
  8
0
 62
    15
 10
4.302760
 20
3.685440
 11
4.954840
 21
4.060320
 12
4.328280
 22
3.642320
 13
4.980360
 23
4.017200
  0
POLYLINE
  8
0
  6
CONTINUOUS
 66
     1
 40
0.000000
 41
0.000000
  0
VERTEX
  8
0
  6
CONTINUOUS
 10
4.302760
 20
3.685440
  0
VERTEX
  8
0
  6
CONTINUOUS
 10
4.954840
 20
4.060320
  0
VERTEX
  8
0
  6
CONTINUOUS
 10
4.980360
 20
4.017200
  0
VERTEX
  8
0
  6
CONTINUOUS
 10
4.328280
 20
3.642320
  0
VERTEX
  8
0
  6
CONTINUOUS
 10
4.302760
 20
3.685440
  0
SEQEND
  8
0
  0
SOLID
  8
0
 62
    15
 10
4.328280
 20
3.642320
 11
4.980360
 21
4.017200
 12
4.358640
 22
3.610200
 13
5.010720
 23
3.985080
  0
POLYLINE
  8
0
  6
CONTINUOUS
 66
     1
 40
0.000000
 41
0.000000
  0
VERTEX
  8
0
  6
CONTINUOUS
 10
4.328280
 20
3.642320
  0
VERTEX
  8
0
  6
CONTINUOUS
 10
4.980360
 20
4.017200
  0
VERTEX
  8
0
  6
CONTINUOUS
 10
5.010720
 20
3.985080
  0
VERTEX
  8
0
  6
CONTINUOUS
 10
4.358640
 20
3.610200
  0
VERTEX
  8
0
  6
CONTINUOUS
 10
4.328280
 20
3.642320
  0
SEQEND
  8
0
  0
SOLID
  8
0
 62
    15
 10
4.358640
 20
3.610200
 11
5.010720
 21
3.985080
 12
4.394280
 22
3.586440
 13
5.046360
 23
3.961320
  0
POLYLINE
  8
0
  6
CONTINUOUS
 66
     1
 40
0.000000
 41
0.000000
  0
VERTEX
  8
0
  6
CONTINUOUS
 10
4.358640
 20
3.610200
  0
VERTEX
  8
0
  6
CONTINUOUS
 10
5.010720
 20
3.985080
  0
VERTEX
  8
0
  6
CONTINUOUS
 10
5.046360
 20
3.961320
  0
VERTEX
  8
0
  6
CONTINUOUS
 10
4.394280
 20
3.586440
  0
VERTEX
  8
0
  6
CONTINUOUS
 10
4.358640
 20
3.610200
  0
SEQEND
  8
0
  0
SOLID
  8
0
 62
    15
 10
4.394280
 20
3.586440
 11
5.046360
 21
3.961320
 12
4.435200
 22
3.569720
 13
5.087280
 23
3.944600
  0
POLYLINE
  8
0
  6
CONTINUOUS
 66
     1
 40
0.000000
 41
0.000000
  0
VERTEX
  8
0
  6
CONTINUOUS
 10
4.394280
 20
3.586440
  0
VERTEX
  8
0
  6
CONTINUOUS
 10
5.046360
 20
3.961320
  0
VERTEX
  8
0
  6
CONTINUOUS
 10
5.087280
 20
3.944600
  0
VERTEX
  8
0
  6
CONTINUOUS
 10
4.435200
 20
3.569720
  0
VERTEX
  8
0
  6
CONTINUOUS
 10
4.394280
 20
3.586440
  0
SEQEND
  8
0
  0
SOLID
  8
0
 62
    15
 10
4.435200
 20
3.569720
 11
5.087280
 21
3.944600
 12
4.482280
 22
3.557400
 13
5.134360
 23
3.932280
  0
POLYLINE
  8
0
  6
CONTINUOUS
 66
     1
 40
0.000000
 41
0.000000
  0
VERTEX
  8
0
  6
CONTINUOUS
 10
4.435200
 20
3.569720
  0
VERTEX
  8
0
  6
CONTINUOUS
 10
5.087280
 20
3.944600
  0
VERTEX
  8
0
  6
CONTINUOUS
 10
5.134360
 20
3.932280
  0
VERTEX
  8
0
  6
CONTINUOUS
 10
4.482280
 20
3.557400
  0
VERTEX
  8
0
  6
CONTINUOUS
 10
4.435200
 20
3.569720
  0
SEQEND
  8
0
  0
SOLID
  8
0
 62
    15
 10
4.482280
 20
3.557400
 11
5.134360
 21
3.932280
 12
4.499880
 22
3.366880
 13
5.151960
 23
3.741760
  0
POLYLINE
  8
0
  6
CONTINUOUS
 66
     1
 40
0.000000
 41
0.000000
  0
VERTEX
  8
0
  6
CONTINUOUS
 10
4.482280
 20
3.557400
  0
VERTEX
  8
0
  6
CONTINUOUS
 10
5.134360
 20
3.932280
  0
VERTEX
  8
0
  6
CONTINUOUS
 10
5.151960
 20
3.741760
  0
VERTEX
  8
0
  6
CONTINUOUS
 10
4.499880
 20
3.366880
  0
VERTEX
  8
0
  6
CONTINUOUS
 10
4.482280
 20
3.557400
  0
SEQEND
  8
0
  0
SOLID
  8
0
 62
    15
 10
4.499880
 20
3.366880
 11
5.151960
 21
3.741760
 12
4.542560
 22
3.350160
 13
5.194640
 23
3.725040
  0
POLYLINE
  8
0
  6
CONTINUOUS
 66
     1
 40
0.000000
 41
0.000000
  0
VERTEX
  8
0
  6
CONTINUOUS
 10
4.499880
 20
3.366880
  0
VERTEX
  8
0
  6
CONTINUOUS
 10
5.151960
 20
3.741760
  0
VERTEX
  8
0
  6
CONTINUOUS
 10
5.194640
 20
3.725040
  0
VERTEX
  8
0
  6
CONTINUOUS
 10
4.542560
 20
3.350160
  0
VERTEX
  8
0
  6
CONTINUOUS
 10
4.499880
 20
3.366880
  0
SEQEND
  8
0
  0
SOLID
  8
0
 62
    15
 10
4.542560
 20
3.350160
 11
5.194640
 21
3.725040
 12
4.577320
 22
3.330360
 13
5.229400
 23
3.705240
  0
POLYLINE
  8
0
  6
CONTINUOUS
 66
     1
 40
0.000000
 41
0.000000
  0
VERTEX
  8
0
  6
CONTINUOUS
 10
4.542560
 20
3.350160
  0
VERTEX
  8
0
  6
CONTINUOUS
 10
5.194640
 20
3.725040
  0
VERTEX
  8
0
  6
CONTINUOUS
 10
5.229400
 20
3.705240
  0
VERTEX
  8
0
  6
CONTINUOUS
 10
4.577320
 20
3.330360
  0
VERTEX
  8
0
  6
CONTINUOUS
 10
4.542560
 20
3.350160
  0
SEQEND
  8
0
  0
SOLID
  8
0
 62
    15
 10
4.577320
 20
3.330360
 11
5.229400
 21
3.705240
 12
4.605040
 22
3.307920
 13
5.257120
 23
3.682800
  0
POLYLINE
  8
0
  6
CONTINUOUS
 66
     1
 40
0.000000
 41
0.000000
  0
VERTEX
  8
0
  6
CONTINUOUS
 10
4.577320
 20
3.330360
  0
VERTEX
  8
0
  6
CONTINUOUS
 10
5.229400
 20
3.705240
  0
VERTEX
  8
0
  6
CONTINUOUS
 10
5.257120
 20
3.682800
  0
VERTEX
  8
0
  6
CONTINUOUS
 10
4.605040
 20
3.307920
  0
VERTEX
  8
0
  6
CONTINUOUS
 10
4.577320
 20
3.330360
  0
SEQEND
  8
0
  0
SOLID
  8
0
 62
    15
 10
4.605040
 20
3.307920
 11
5.257120
 21
3.682800
 12
4.625720
 22
3.283280
 13
5.278240
 23
3.658160
  0
POLYLINE
  8
0
  6
CONTINUOUS
 66
     1
 40
0.000000
 41
0.000000
  0
VERTEX
  8
0
  6
CONTINUOUS
 10
4.605040
 20
3.307920
  0
VERTEX
  8
0
  6
CONTINUOUS
 10
5.257120
 20
3.682800
  0
VERTEX
  8
0
  6
CONTINUOUS
 10
5.278240
 20
3.658160
  0
VERTEX
  8
0
  6
CONTINUOUS
 10
4.625720
 20
3.283280
  0
VERTEX
  8
0
  6
CONTINUOUS
 10
4.605040
 20
3.307920
  0
SEQEND
  8
0
  0
SOLID
  8
0
 62
    15
 10
4.625720
 20
3.283280
 11
5.278240
 21
3.658160
 12
4.640680
 22
3.257320
 13
5.292760
 23
3.632200
  0
POLYLINE
  8
0
  6
CONTINUOUS
 66
     1
 40
0.000000
 41
0.000000
  0
VERTEX
  8
0
  6
CONTINUOUS
 10
4.625720
 20
3.283280
  0
VERTEX
  8
0
  6
CONTINUOUS
 10
5.278240
 20
3.658160
  0
VERTEX
  8
0
  6
CONTINUOUS
 10
5.292760
 20
3.632200
  0
VERTEX
  8
0
  6
CONTINUOUS
 10
4.640680
 20
3.257320
  0
VERTEX
  8
0
  6
CONTINUOUS
 10
4.625720
 20
3.283280
  0
SEQEND
  8
0
  0
SOLID
  8
0
 62
    15
 10
4.640680
 20
3.257320
 11
5.292760
 21
3.632200
 12
4.649040
 22
3.230480
 13
5.301120
 23
3.605360
  0
POLYLINE
  8
0
  6
CONTINUOUS
 66
     1
 40
0.000000
 41
0.000000
  0
VERTEX
  8
0
  6
CONTINUOUS
 10
4.640680
 20
3.257320
  0
VERTEX
  8
0
  6
CONTINUOUS
 10
5.292760
 20
3.632200
  0
VERTEX
  8
0
  6
CONTINUOUS
 10
5.301120
 20
3.605360
  0
VERTEX
  8
0
  6
CONTINUOUS
 10
4.649040
 20
3.230480
  0
VERTEX
  8
0
  6
CONTINUOUS
 10
4.640680
 20
3.257320
  0
SEQEND
  8
0
  0
SOLID
  8
0
 62
    15
 10
4.649040
 20
3.230480
 11
5.301120
 21
3.605360
 12
4.651240
 22
3.175040
 13
5.303320
 23
3.549920
  0
POLYLINE
  8
0
  6
CONTINUOUS
 66
     1
 40
0.000000
 41
0.000000
  0
VERTEX
  8
0
  6
CONTINUOUS
 10
4.649040
 20
3.230480
  0
VERTEX
  8
0
  6
CONTINUOUS
 10
5.301120
 20
3.605360
  0
VERTEX
  8
0
  6
CONTINUOUS
 10
5.303320
 20
3.549920
  0
VERTEX
  8
0
  6
CONTINUOUS
 10
4.651240
 20
3.175040
  0
VERTEX
  8
0
  6
CONTINUOUS
 10
4.649040
 20
3.230480
  0
SEQEND
  8
0
  0
SOLID
  8
0
 62
    15
 10
4.651240
 20
3.175040
 11
5.303320
 21
3.549920
 12
4.635840
 22
3.121800
 13
5.287920
 23
3.496680
  0
POLYLINE
  8
0
  6
CONTINUOUS
 66
     1
 40
0.000000
 41
0.000000
  0
VERTEX
  8
0
  6
CONTINUOUS
 10
4.651240
 20
3.175040
  0
VERTEX
  8
0
  6
CONTINUOUS
 10
5.303320
 20
3.549920
  0
VERTEX
  8
0
  6
CONTINUOUS
 10
5.287920
 20
3.496680
  0
VERTEX
  8
0
  6
CONTINUOUS
 10
4.635840
 20
3.121800
  0
VERTEX
  8
0
  6
CONTINUOUS
 10
4.651240
 20
3.175040
  0
SEQEND
  8
0
  0
SOLID
  8
0
 62
    15
 10
4.635840
 20
3.121800
 11
5.287920
 21
3.496680
 12
4.607240
 22
3.074280
 13
5.259320
 23
3.449160
  0
POLYLINE
  8
0
  6
CONTINUOUS
 66
     1
 40
0.000000
 41
0.000000
  0
VERTEX
  8
0
  6
CONTINUOUS
 10
4.635840
 20
3.121800
  0
VERTEX
  8
0
  6
CONTINUOUS
 10
5.287920
 20
3.496680
  0
VERTEX
  8
0
  6
CONTINUOUS
 10
5.259320
 20
3.449160
  0
VERTEX
  8
0
  6
CONTINUOUS
 10
4.607240
 20
3.074280
  0
VERTEX
  8
0
  6
CONTINUOUS
 10
4.635840
 20
3.121800
  0
SEQEND
  8
0
  0
SOLID
  8
0
 62
    15
 10
4.525400
 20
3.012240
 11
5.177480
 21
3.387120
 12
4.525400
 22
2.763200
 13
5.177480
 23
3.138080
  0
POLYLINE
  8
0
  6
CONTINUOUS
 66
     1
 40
0.000000
 41
0.000000
  0
VERTEX
  8
0
  6
CONTINUOUS
 10
4.525400
 20
3.012240
  0
VERTEX
  8
0
  6
CONTINUOUS
 10
5.177480
 20
3.387120
  0
VERTEX
  8
0
  6
CONTINUOUS
 10
5.177480
 20
3.138080
  0
VERTEX
  8
0
  6
CONTINUOUS
 10
4.525400
 20
2.763200
  0
VERTEX
  8
0
  6
CONTINUOUS
 10
4.525400
 20
3.012240
  0
SEQEND
  8
0
  0
SOLID
  8
0
 62
    15
 10
4.607240
 20
3.074280
 11
5.259320
 21
3.449160
 12
4.568960
 22
3.036440
 13
5.221040
 23
3.411320
  0
POLYLINE
  8
0
  6
CONTINUOUS
 66
     1
 40
0.000000
 41
0.000000
  0
VERTEX
  8
0
  6
CONTINUOUS
 10
4.607240
 20
3.074280
  0
VERTEX
  8
0
  6
CONTINUOUS
 10
5.259320
 20
3.449160
  0
VERTEX
  8
0
  6
CONTINUOUS
 10
5.221040
 20
3.411320
  0
VERTEX
  8
0
  6
CONTINUOUS
 10
4.568960
 20
3.036440
  0
VERTEX
  8
0
  6
CONTINUOUS
 10
4.607240
 20
3.074280
  0
SEQEND
  8
0
  0
SOLID
  8
0
 62
    15
 10
4.525400
 20
2.763200
 11
5.177480
 21
3.138080
 12
4.532000
 22
2.751760
 13
5.184080
 23
3.126200
  0
POLYLINE
  8
0
  6
CONTINUOUS
 66
     1
 40
0.000000
 41
0.000000
  0
VERTEX
  8
0
  6
CONTINUOUS
 10
4.525400
 20
2.763200
  0
VERTEX
  8
0
  6
CONTINUOUS
 10
5.177480
 20
3.138080
  0
VERTEX
  8
0
  6
CONTINUOUS
 10
5.184080
 20
3.126200
  0
VERTEX
  8
0
  6
CONTINUOUS
 10
4.532000
 20
2.751760
  0
VERTEX
  8
0
  6
CONTINUOUS
 10
4.525400
 20
2.763200
  0
SEQEND
  8
0
  0
SOLID
  8
0
 62
    15
 10
4.532000
 20
2.751760
 11
5.184080
 21
3.126200
 12
4.591840
 22
2.690160
 13
5.243920
 23
3.065040
  0
POLYLINE
  8
0
  6
CONTINUOUS
 66
     1
 40
0.000000
 41
0.000000
  0
VERTEX
  8
0
  6
CONTINUOUS
 10
4.532000
 20
2.751760
  0
VERTEX
  8
0
  6
CONTINUOUS
 10
5.184080
 20
3.126200
  0
VERTEX
  8
0
  6
CONTINUOUS
 10
5.243920
 20
3.065040
  0
VERTEX
  8
0
  6
CONTINUOUS
 10
4.591840
 20
2.690160
  0
VERTEX
  8
0
  6
CONTINUOUS
 10
4.532000
 20
2.751760
  0
SEQEND
  8
0
  0
SOLID
  8
0
 62
    15
 10
4.591840
 20
2.690160
 11
5.243920
 21
3.065040
 12
4.645520
 22
2.633840
 13
5.298040
 23
3.008720
  0
POLYLINE
  8
0
  6
CONTINUOUS
 66
     1
 40
0.000000
 41
0.000000
  0
VERTEX
  8
0
  6
CONTINUOUS
 10
4.591840
 20
2.690160
  0
VERTEX
  8
0
  6
CONTINUOUS
 10
5.243920
 20
3.065040
  0
VERTEX
  8
0
  6
CONTINUOUS
 10
5.298040
 20
3.008720
  0
VERTEX
  8
0
  6
CONTINUOUS
 10
4.645520
 20
2.633840
  0
VERTEX
  8
0
  6
CONTINUOUS
 10
4.591840
 20
2.690160
  0
SEQEND
  8
0
  0
SOLID
  8
0
 62
    15
 10
4.645520
 20
2.633840
 11
5.298040
 21
3.008720
 12
4.744080
 22
2.528680
 13
5.396160
 23
2.903560
  0
POLYLINE
  8
0
  6
CONTINUOUS
 66
     1
 40
0.000000
 41
0.000000
  0
VERTEX
  8
0
  6
CONTINUOUS
 10
4.645520
 20
2.633840
  0
VERTEX
  8
0
  6
CONTINUOUS
 10
5.298040
 20
3.008720
  0
VERTEX
  8
0
  6
CONTINUOUS
 10
5.396160
 20
2.903560
  0
VERTEX
  8
0
  6
CONTINUOUS
 10
4.744080
 20
2.528680
  0
VERTEX
  8
0
  6
CONTINUOUS
 10
4.645520
 20
2.633840
  0
SEQEND
  8
0
  0
SOLID
  8
0
 62
    15
 10
4.744080
 20
2.528680
 11
5.396160
 21
2.903560
 12
4.841320
 22
2.420880
 13
5.493400
 23
2.795760
  0
POLYLINE
  8
0
  6
CONTINUOUS
 66
     1
 40
0.000000
 41
0.000000
  0
VERTEX
  8
0
  6
CONTINUOUS
 10
4.744080
 20
2.528680
  0
VERTEX
  8
0
  6
CONTINUOUS
 10
5.396160
 20
2.903560
  0
VERTEX
  8
0
  6
CONTINUOUS
 10
5.493400
 20
2.795760
  0
VERTEX
  8
0
  6
CONTINUOUS
 10
4.841320
 20
2.420880
  0
VERTEX
  8
0
  6
CONTINUOUS
 10
4.744080
 20
2.528680
  0
SEQEND
  8
0
  0
SOLID
  8
0
 62
    15
 10
4.841320
 20
2.420880
 11
5.493400
 21
2.795760
 12
4.894120
 22
2.361480
 13
5.546200
 23
2.736360
  0
POLYLINE
  8
0
  6
CONTINUOUS
 66
     1
 40
0.000000
 41
0.000000
  0
VERTEX
  8
0
  6
CONTINUOUS
 10
4.841320
 20
2.420880
  0
VERTEX
  8
0
  6
CONTINUOUS
 10
5.493400
 20
2.795760
  0
VERTEX
  8
0
  6
CONTINUOUS
 10
5.546200
 20
2.736360
  0
VERTEX
  8
0
  6
CONTINUOUS
 10
4.894120
 20
2.361480
  0
VERTEX
  8
0
  6
CONTINUOUS
 10
4.841320
 20
2.420880
  0
SEQEND
  8
0
  0
SOLID
  8
0
 62
    15
 10
4.894120
 20
2.361480
 11
5.546200
 21
2.736360
 12
4.952200
 22
2.296360
 13
5.604280
 23
2.670800
  0
POLYLINE
  8
0
  6
CONTINUOUS
 66
     1
 40
0.000000
 41
0.000000
  0
VERTEX
  8
0
  6
CONTINUOUS
 10
4.894120
 20
2.361480
  0
VERTEX
  8
0
  6
CONTINUOUS
 10
5.546200
 20
2.736360
  0
VERTEX
  8
0
  6
CONTINUOUS
 10
5.604280
 20
2.670800
  0
VERTEX
  8
0
  6
CONTINUOUS
 10
4.952200
 20
2.296360
  0
VERTEX
  8
0
  6
CONTINUOUS
 10
4.894120
 20
2.361480
  0
SEQEND
  8
0
  0
SOLID
  8
0
 62
    15
 10
4.952200
 20
2.296360
 11
5.604280
 21
2.670800
 12
4.982120
 22
2.258080
 13
5.634640
 23
2.632960
  0
POLYLINE
  8
0
  6
CONTINUOUS
 66
     1
 40
0.000000
 41
0.000000
  0
VERTEX
  8
0
  6
CONTINUOUS
 10
4.952200
 20
2.296360
  0
VERTEX
  8
0
  6
CONTINUOUS
 10
5.604280
 20
2.670800
  0
VERTEX
  8
0
  6
CONTINUOUS
 10
5.634640
 20
2.632960
  0
VERTEX
  8
0
  6
CONTINUOUS
 10
4.982120
 20
2.258080
  0
VERTEX
  8
0
  6
CONTINUOUS
 10
4.952200
 20
2.296360
  0
SEQEND
  8
0
  0
SOLID
  8
0
 62
    15
 10
4.038760
 20
3.896200
 11
4.690840
 21
4.270640
 12
4.249960
 22
3.896200
 13
4.902040
 23
4.270640
  0
POLYLINE
  8
0
  6
CONTINUOUS
 66
     1
 40
0.000000
 41
0.000000
  0
VERTEX
  8
0
  6
CONTINUOUS
 10
4.038760
 20
3.896200
  0
VERTEX
  8
0
  6
CONTINUOUS
 10
4.690840
 20
4.270640
  0
VERTEX
  8
0
  6
CONTINUOUS
 10
4.902040
 20
4.270640
  0
VERTEX
  8
0
  6
CONTINUOUS
 10
4.249960
 20
3.896200
  0
VERTEX
  8
0
  6
CONTINUOUS
 10
4.038760
 20
3.896200
  0
SEQEND
  8
0
  0
SOLID
  8
0
 62
    15
 10
5.006760
 20
2.222000
 11
5.658840
 21
2.596880
 12
5.026120
 22
2.188560
 13
5.678200
 23
2.563440
  0
POLYLINE
  8
0
  6
CONTINUOUS
 66
     1
 40
0.000000
 41
0.000000
  0
VERTEX
  8
0
  6
CONTINUOUS
 10
5.006760
 20
2.222000
  0
VERTEX
  8
0
  6
CONTINUOUS
 10
5.658840
 20
2.596880
  0
VERTEX
  8
0
  6
CONTINUOUS
 10
5.678200
 20
2.563440
  0
VERTEX
  8
0
  6
CONTINUOUS
 10
5.026120
 20
2.188560
  0
VERTEX
  8
0
  6
CONTINUOUS
 10
5.006760
 20
2.222000
  0
SEQEND
  8
0
  0
SOLID
  8
0
 62
    15
 10
5.026120
 20
2.188560
 11
5.678200
 21
2.563440
 12
5.040200
 22
2.157320
 13
5.692280
 23
2.532200
  0
POLYLINE
  8
0
  6
CONTINUOUS
 66
     1
 40
0.000000
 41
0.000000
  0
VERTEX
  8
0
  6
CONTINUOUS
 10
5.026120
 20
2.188560
  0
VERTEX
  8
0
  6
CONTINUOUS
 10
5.678200
 20
2.563440
  0
VERTEX
  8
0
  6
CONTINUOUS
 10
5.692280
 20
2.532200
  0
VERTEX
  8
0
  6
CONTINUOUS
 10
5.040200
 20
2.157320
  0
VERTEX
  8
0
  6
CONTINUOUS
 10
5.026120
 20
2.188560
  0
SEQEND
  8
0
  0
SOLID
  8
0
 62
    15
 10
5.040200
 20
2.157320
 11
5.692280
 21
2.532200
 12
5.056480
 22
2.100560
 13
5.708560
 23
2.475440
  0
POLYLINE
  8
0
  6
CONTINUOUS
 66
     1
 40
0.000000
 41
0.000000
  0
VERTEX
  8
0
  6
CONTINUOUS
 10
5.040200
 20
2.157320
  0
VERTEX
  8
0
  6
CONTINUOUS
 10
5.692280
 20
2.532200
  0
VERTEX
  8
0
  6
CONTINUOUS
 10
5.708560
 20
2.475440
  0
VERTEX
  8
0
  6
CONTINUOUS
 10
5.056480
 20
2.100560
  0
VERTEX
  8
0
  6
CONTINUOUS
 10
5.040200
 20
2.157320
  0
SEQEND
  8
0
  0
SOLID
  8
0
 62
    15
 10
5.056480
 20
2.100560
 11
5.708560
 21
2.475440
 12
5.059120
 22
2.052160
 13
5.711200
 23
2.427040
  0
POLYLINE
  8
0
  6
CONTINUOUS
 66
     1
 40
0.000000
 41
0.000000
  0
VERTEX
  8
0
  6
CONTINUOUS
 10
5.056480
 20
2.100560
  0
VERTEX
  8
0
  6
CONTINUOUS
 10
5.708560
 20
2.475440
  0
VERTEX
  8
0
  6
CONTINUOUS
 10
5.711200
 20
2.427040
  0
VERTEX
  8
0
  6
CONTINUOUS
 10
5.059120
 20
2.052160
  0
VERTEX
  8
0
  6
CONTINUOUS
 10
5.056480
 20
2.100560
  0
SEQEND
  8
0
  0
SOLID
  8
0
 62
    15
 10
5.059120
 20
2.052160
 11
5.711200
 21
2.427040
 12
5.052080
 22
2.011240
 13
5.704160
 23
2.386120
  0
POLYLINE
  8
0
  6
CONTINUOUS
 66
     1
 40
0.000000
 41
0.000000
  0
VERTEX
  8
0
  6
CONTINUOUS
 10
5.059120
 20
2.052160
  0
VERTEX
  8
0
  6
CONTINUOUS
 10
5.711200
 20
2.427040
  0
VERTEX
  8
0
  6
CONTINUOUS
 10
5.704160
 20
2.386120
  0
VERTEX
  8
0
  6
CONTINUOUS
 10
5.052080
 20
2.011240
  0
VERTEX
  8
0
  6
CONTINUOUS
 10
5.059120
 20
2.052160
  0
SEQEND
  8
0
  0
SOLID
  8
0
 62
    15
 10
5.052080
 20
2.011240
 11
5.704160
 21
2.386120
 12
5.038880
 22
1.976920
 13
5.690960
 23
2.351800
  0
POLYLINE
  8
0
  6
CONTINUOUS
 66
     1
 40
0.000000
 41
0.000000
  0
VERTEX
  8
0
  6
CONTINUOUS
 10
5.052080
 20
2.011240
  0
VERTEX
  8
0
  6
CONTINUOUS
 10
5.704160
 20
2.386120
  0
VERTEX
  8
0
  6
CONTINUOUS
 10
5.690960
 20
2.351800
  0
VERTEX
  8
0
  6
CONTINUOUS
 10
5.038880
 20
1.976920
  0
VERTEX
  8
0
  6
CONTINUOUS
 10
5.052080
 20
2.011240
  0
SEQEND
  8
0
  0
SOLID
  8
0
 62
    15
 10
5.038880
 20
1.976920
 11
5.690960
 21
2.351800
 12
5.023480
 22
1.949200
 13
5.675560
 23
2.324080
  0
POLYLINE
  8
0
  6
CONTINUOUS
 66
     1
 40
0.000000
 41
0.000000
  0
VERTEX
  8
0
  6
CONTINUOUS
 10
5.038880
 20
1.976920
  0
VERTEX
  8
0
  6
CONTINUOUS
 10
5.690960
 20
2.351800
  0
VERTEX
  8
0
  6
CONTINUOUS
 10
5.675560
 20
2.324080
  0
VERTEX
  8
0
  6
CONTINUOUS
 10
5.023480
 20
1.949200
  0
VERTEX
  8
0
  6
CONTINUOUS
 10
5.038880
 20
1.976920
  0
SEQEND
  8
0
  0
SOLID
  8
0
 62
    15
 10
5.023480
 20
1.949200
 11
5.675560
 21
2.324080
 12
5.019960
 22
1.943480
 13
5.672040
 23
2.318360
  0
POLYLINE
  8
0
  6
CONTINUOUS
 66
     1
 40
0.000000
 41
0.000000
  0
VERTEX
  8
0
  6
CONTINUOUS
 10
5.023480
 20
1.949200
  0
VERTEX
  8
0
  6
CONTINUOUS
 10
5.675560
 20
2.324080
  0
VERTEX
  8
0
  6
CONTINUOUS
 10
5.672040
 20
2.318360
  0
VERTEX
  8
0
  6
CONTINUOUS
 10
5.019960
 20
1.943480
  0
VERTEX
  8
0
  6
CONTINUOUS
 10
5.023480
 20
1.949200
  0
SEQEND
  8
0
  0
SOLID
  8
0
 62
    15
 10
5.019960
 20
1.943480
 11
5.672040
 21
2.318360
 12
5.009840
 22
1.927640
 13
5.662360
 23
2.302080
  0
POLYLINE
  8
0
  6
CONTINUOUS
 66
     1
 40
0.000000
 41
0.000000
  0
VERTEX
  8
0
  6
CONTINUOUS
 10
5.019960
 20
1.943480
  0
VERTEX
  8
0
  6
CONTINUOUS
 10
5.672040
 20
2.318360
  0
VERTEX
  8
0
  6
CONTINUOUS
 10
5.662360
 20
2.302080
  0
VERTEX
  8
0
  6
CONTINUOUS
 10
5.009840
 20
1.927640
  0
VERTEX
  8
0
  6
CONTINUOUS
 10
5.019960
 20
1.943480
  0
SEQEND
  8
0
  0
SOLID
  8
0
 62
    15
 10
5.009840
 20
1.927640
 11
5.662360
 21
2.302080
 12
4.983880
 22
1.895520
 13
5.635960
 23
2.270400
  0
POLYLINE
  8
0
  6
CONTINUOUS
 66
     1
 40
0.000000
 41
0.000000
  0
VERTEX
  8
0
  6
CONTINUOUS
 10
5.009840
 20
1.927640
  0
VERTEX
  8
0
  6
CONTINUOUS
 10
5.662360
 20
2.302080
  0
VERTEX
  8
0
  6
CONTINUOUS
 10
5.635960
 20
2.270400
  0
VERTEX
  8
0
  6
CONTINUOUS
 10
4.983880
 20
1.895520
  0
VERTEX
  8
0
  6
CONTINUOUS
 10
5.009840
 20
1.927640
  0
SEQEND
  8
0
  0
SOLID
  8
0
 62
    15
 10
4.949120
 20
1.869120
 11
5.601200
 21
2.244000
 12
4.943400
 22
1.865160
 13
5.595480
 23
2.240040
  0
POLYLINE
  8
0
  6
CONTINUOUS
 66
     1
 40
0.000000
 41
0.000000
  0
VERTEX
  8
0
  6
CONTINUOUS
 10
4.949120
 20
1.869120
  0
VERTEX
  8
0
  6
CONTINUOUS
 10
5.601200
 20
2.244000
  0
VERTEX
  8
0
  6
CONTINUOUS
 10
5.595480
 20
2.240040
  0
VERTEX
  8
0
  6
CONTINUOUS
 10
4.943400
 20
1.865160
  0
VERTEX
  8
0
  6
CONTINUOUS
 10
4.949120
 20
1.869120
  0
SEQEND
  8
0
  0
SOLID
  8
0
 62
    15
 10
4.955720
 20
1.873960
 11
5.607800
 21
2.248400
 12
4.949120
 22
1.869120
 13
5.601200
 23
2.244000
  0
POLYLINE
  8
0
  6
CONTINUOUS
 66
     1
 40
0.000000
 41
0.000000
  0
VERTEX
  8
0
  6
CONTINUOUS
 10
4.955720
 20
1.873960
  0
VERTEX
  8
0
  6
CONTINUOUS
 10
5.607800
 20
2.248400
  0
VERTEX
  8
0
  6
CONTINUOUS
 10
5.601200
 20
2.244000
  0
VERTEX
  8
0
  6
CONTINUOUS
 10
4.949120
 20
1.869120
  0
VERTEX
  8
0
  6
CONTINUOUS
 10
4.955720
 20
1.873960
  0
SEQEND
  8
0
  0
SOLID
  8
0
 62
    15
 10
4.983880
 20
1.895520
 11
5.635960
 21
2.270400
 12
4.955720
 22
1.873960
 13
5.607800
 23
2.248400
  0
POLYLINE
  8
0
  6
CONTINUOUS
 66
     1
 40
0.000000
 41
0.000000
  0
VERTEX
  8
0
  6
CONTINUOUS
 10
4.983880
 20
1.895520
  0
VERTEX
  8
0
  6
CONTINUOUS
 10
5.635960
 20
2.270400
  0
VERTEX
  8
0
  6
CONTINUOUS
 10
5.607800
 20
2.248400
  0
VERTEX
  8
0
  6
CONTINUOUS
 10
4.955720
 20
1.873960
  0
VERTEX
  8
0
  6
CONTINUOUS
 10
4.983880
 20
1.895520
  0
SEQEND
  8
0
  0
SOLID
  8
0
 62
    15
 10
4.943400
 20
1.865160
 11
5.595480
 21
2.240040
 12
4.933280
 22
1.857240
 13
5.585360
 23
2.232120
  0
POLYLINE
  8
0
  6
CONTINUOUS
 66
     1
 40
0.000000
 41
0.000000
  0
VERTEX
  8
0
  6
CONTINUOUS
 10
4.943400
 20
1.865160
  0
VERTEX
  8
0
  6
CONTINUOUS
 10
5.595480
 20
2.240040
  0
VERTEX
  8
0
  6
CONTINUOUS
 10
5.585360
 20
2.232120
  0
VERTEX
  8
0
  6
CONTINUOUS
 10
4.933280
 20
1.857240
  0
VERTEX
  8
0
  6
CONTINUOUS
 10
4.943400
 20
1.865160
  0
SEQEND
  8
0
  0
SOLID
  8
0
 62
    15
 10
4.933280
 20
1.857240
 11
5.585360
 21
2.232120
 12
4.924480
 22
1.841840
 13
5.576560
 23
2.216720
  0
POLYLINE
  8
0
  6
CONTINUOUS
 66
     1
 40
0.000000
 41
0.000000
  0
VERTEX
  8
0
  6
CONTINUOUS
 10
4.933280
 20
1.857240
  0
VERTEX
  8
0
  6
CONTINUOUS
 10
5.585360
 20
2.232120
  0
VERTEX
  8
0
  6
CONTINUOUS
 10
5.576560
 20
2.216720
  0
VERTEX
  8
0
  6
CONTINUOUS
 10
4.924480
 20
1.841840
  0
VERTEX
  8
0
  6
CONTINUOUS
 10
4.933280
 20
1.857240
  0
SEQEND
  8
0
  0
SOLID
  8
0
 62
    15
 10
4.924480
 20
1.841840
 11
5.576560
 21
2.216720
 12
4.933280
 22
1.823800
 13
5.585360
 23
2.198240
  0
POLYLINE
  8
0
  6
CONTINUOUS
 66
     1
 40
0.000000
 41
0.000000
  0
VERTEX
  8
0
  6
CONTINUOUS
 10
4.924480
 20
1.841840
  0
VERTEX
  8
0
  6
CONTINUOUS
 10
5.576560
 20
2.216720
  0
VERTEX
  8
0
  6
CONTINUOUS
 10
5.585360
 20
2.198240
  0
VERTEX
  8
0
  6
CONTINUOUS
 10
4.933280
 20
1.823800
  0
VERTEX
  8
0
  6
CONTINUOUS
 10
4.924480
 20
1.841840
  0
SEQEND
  8
0
  0
SOLID
  8
0
 62
    15
 10
4.933280
 20
1.823800
 11
5.585360
 21
2.198240
 12
4.944720
 22
1.814120
 13
5.596800
 23
2.189000
  0
POLYLINE
  8
0
  6
CONTINUOUS
 66
     1
 40
0.000000
 41
0.000000
  0
VERTEX
  8
0
  6
CONTINUOUS
 10
4.933280
 20
1.823800
  0
VERTEX
  8
0
  6
CONTINUOUS
 10
5.585360
 20
2.198240
  0
VERTEX
  8
0
  6
CONTINUOUS
 10
5.596800
 20
2.189000
  0
VERTEX
  8
0
  6
CONTINUOUS
 10
4.944720
 20
1.814120
  0
VERTEX
  8
0
  6
CONTINUOUS
 10
4.933280
 20
1.823800
  0
SEQEND
  8
0
  0
SOLID
  8
0
 62
    15
 10
4.944720
 20
1.814120
 11
5.596800
 21
2.189000
 12
4.961880
 22
1.804880
 13
5.613960
 23
2.179760
  0
POLYLINE
  8
0
  6
CONTINUOUS
 66
     1
 40
0.000000
 41
0.000000
  0
VERTEX
  8
0
  6
CONTINUOUS
 10
4.944720
 20
1.814120
  0
VERTEX
  8
0
  6
CONTINUOUS
 10
5.596800
 20
2.189000
  0
VERTEX
  8
0
  6
CONTINUOUS
 10
5.613960
 20
2.179760
  0
VERTEX
  8
0
  6
CONTINUOUS
 10
4.961880
 20
1.804880
  0
VERTEX
  8
0
  6
CONTINUOUS
 10
4.944720
 20
1.814120
  0
SEQEND
  8
0
  0
SOLID
  8
0
 62
    15
 10
4.961880
 20
1.804880
 11
5.613960
 21
2.179760
 12
4.984760
 22
1.796960
 13
5.636840
 23
2.171840
  0
POLYLINE
  8
0
  6
CONTINUOUS
 66
     1
 40
0.000000
 41
0.000000
  0
VERTEX
  8
0
  6
CONTINUOUS
 10
4.961880
 20
1.804880
  0
VERTEX
  8
0
  6
CONTINUOUS
 10
5.613960
 20
2.179760
  0
VERTEX
  8
0
  6
CONTINUOUS
 10
5.636840
 20
2.171840
  0
VERTEX
  8
0
  6
CONTINUOUS
 10
4.984760
 20
1.796960
  0
VERTEX
  8
0
  6
CONTINUOUS
 10
4.961880
 20
1.804880
  0
SEQEND
  8
0
  0
SOLID
  8
0
 62
    15
 10
4.984760
 20
1.796960
 11
5.636840
 21
2.171840
 12
5.013800
 22
1.790800
 13
5.666320
 23
2.165240
  0
POLYLINE
  8
0
  6
CONTINUOUS
 66
     1
 40
0.000000
 41
0.000000
  0
VERTEX
  8
0
  6
CONTINUOUS
 10
4.984760
 20
1.796960
  0
VERTEX
  8
0
  6
CONTINUOUS
 10
5.636840
 20
2.171840
  0
VERTEX
  8
0
  6
CONTINUOUS
 10
5.666320
 20
2.165240
  0
VERTEX
  8
0
  6
CONTINUOUS
 10
5.013800
 20
1.790800
  0
VERTEX
  8
0
  6
CONTINUOUS
 10
4.984760
 20
1.796960
  0
SEQEND
  8
0
  0
SOLID
  8
0
 62
    15
 10
5.013800
 20
1.790800
 11
5.666320
 21
2.165240
 12
5.050320
 22
1.786400
 13
5.702400
 23
2.161280
  0
POLYLINE
  8
0
  6
CONTINUOUS
 66
     1
 40
0.000000
 41
0.000000
  0
VERTEX
  8
0
  6
CONTINUOUS
 10
5.013800
 20
1.790800
  0
VERTEX
  8
0
  6
CONTINUOUS
 10
5.666320
 20
2.165240
  0
VERTEX
  8
0
  6
CONTINUOUS
 10
5.702400
 20
2.161280
  0
VERTEX
  8
0
  6
CONTINUOUS
 10
5.050320
 20
1.786400
  0
VERTEX
  8
0
  6
CONTINUOUS
 10
5.013800
 20
1.790800
  0
SEQEND
  8
0
  0
SOLID
  8
0
 62
    15
 10
5.050320
 20
1.786400
 11
5.702400
 21
2.161280
 12
5.093440
 22
1.784640
 13
5.745520
 23
2.159520
  0
POLYLINE
  8
0
  6
CONTINUOUS
 66
     1
 40
0.000000
 41
0.000000
  0
VERTEX
  8
0
  6
CONTINUOUS
 10
5.050320
 20
1.786400
  0
VERTEX
  8
0
  6
CONTINUOUS
 10
5.702400
 20
2.161280
  0
VERTEX
  8
0
  6
CONTINUOUS
 10
5.745520
 20
2.159520
  0
VERTEX
  8
0
  6
CONTINUOUS
 10
5.093440
 20
1.784640
  0
VERTEX
  8
0
  6
CONTINUOUS
 10
5.050320
 20
1.786400
  0
SEQEND
  8
0
  0
SOLID
  8
0
 62
    15
 10
4.965840
 20
1.223640
 11
5.617920
 21
1.598520
 12
4.930640
 22
1.190200
 13
5.582720
 23
1.564640
  0
POLYLINE
  8
0
  6
CONTINUOUS
 66
     1
 40
0.000000
 41
0.000000
  0
VERTEX
  8
0
  6
CONTINUOUS
 10
4.965840
 20
1.223640
  0
VERTEX
  8
0
  6
CONTINUOUS
 10
5.617920
 20
1.598520
  0
VERTEX
  8
0
  6
CONTINUOUS
 10
5.582720
 20
1.564640
  0
VERTEX
  8
0
  6
CONTINUOUS
 10
4.930640
 20
1.190200
  0
VERTEX
  8
0
  6
CONTINUOUS
 10
4.965840
 20
1.223640
  0
SEQEND
  8
0
  0
SOLID
  8
0
 62
    15
 10
5.005000
 20
1.249600
 11
5.657080
 21
1.624480
 12
4.965840
 22
1.223640
 13
5.617920
 23
1.598520
  0
POLYLINE
  8
0
  6
CONTINUOUS
 66
     1
 40
0.000000
 41
0.000000
  0
VERTEX
  8
0
  6
CONTINUOUS
 10
5.005000
 20
1.249600
  0
VERTEX
  8
0
  6
CONTINUOUS
 10
5.657080
 20
1.624480
  0
VERTEX
  8
0
  6
CONTINUOUS
 10
5.617920
 20
1.598520
  0
VERTEX
  8
0
  6
CONTINUOUS
 10
4.965840
 20
1.223640
  0
VERTEX
  8
0
  6
CONTINUOUS
 10
5.005000
 20
1.249600
  0
SEQEND
  8
0
  0
SOLID
  8
0
 62
    15
 10
4.930640
 20
1.190200
 11
5.582720
 21
1.564640
 12
4.899840
 22
1.150160
 13
5.551920
 23
1.525040
  0
POLYLINE
  8
0
  6
CONTINUOUS
 66
     1
 40
0.000000
 41
0.000000
  0
VERTEX
  8
0
  6
CONTINUOUS
 10
4.930640
 20
1.190200
  0
VERTEX
  8
0
  6
CONTINUOUS
 10
5.582720
 20
1.564640
  0
VERTEX
  8
0
  6
CONTINUOUS
 10
5.551920
 20
1.525040
  0
VERTEX
  8
0
  6
CONTINUOUS
 10
4.899840
 20
1.150160
  0
VERTEX
  8
0
  6
CONTINUOUS
 10
4.930640
 20
1.190200
  0
SEQEND
  8
0
  0
SOLID
  8
0
 62
    15
 10
5.093440
 20
1.784640
 11
5.745520
 21
2.159520
 12
5.093440
 22
1.272480
 13
5.745520
 23
1.646920
  0
POLYLINE
  8
0
  6
CONTINUOUS
 66
     1
 40
0.000000
 41
0.000000
  0
VERTEX
  8
0
  6
CONTINUOUS
 10
5.093440
 20
1.784640
  0
VERTEX
  8
0
  6
CONTINUOUS
 10
5.745520
 20
2.159520
  0
VERTEX
  8
0
  6
CONTINUOUS
 10
5.745520
 20
1.646920
  0
VERTEX
  8
0
  6
CONTINUOUS
 10
5.093440
 20
1.272480
  0
VERTEX
  8
0
  6
CONTINUOUS
 10
5.093440
 20
1.784640
  0
SEQEND
  8
0
  0
SOLID
  8
0
 62
    15
 10
4.899840
 20
1.150160
 11
5.551920
 21
1.525040
 12
4.873440
 22
1.105720
 13
5.525520
 23
1.480600
  0
POLYLINE
  8
0
  6
CONTINUOUS
 66
     1
 40
0.000000
 41
0.000000
  0
VERTEX
  8
0
  6
CONTINUOUS
 10
4.899840
 20
1.150160
  0
VERTEX
  8
0
  6
CONTINUOUS
 10
5.551920
 20
1.525040
  0
VERTEX
  8
0
  6
CONTINUOUS
 10
5.525520
 20
1.480600
  0
VERTEX
  8
0
  6
CONTINUOUS
 10
4.873440
 20
1.105720
  0
VERTEX
  8
0
  6
CONTINUOUS
 10
4.899840
 20
1.150160
  0
SEQEND
  8
0
  0
SOLID
  8
0
 62
    15
 10
4.873440
 20
1.105720
 11
5.525520
 21
1.480600
 12
4.851880
 22
1.058200
 13
5.503960
 23
1.433080
  0
POLYLINE
  8
0
  6
CONTINUOUS
 66
     1
 40
0.000000
 41
0.000000
  0
VERTEX
  8
0
  6
CONTINUOUS
 10
4.873440
 20
1.105720
  0
VERTEX
  8
0
  6
CONTINUOUS
 10
5.525520
 20
1.480600
  0
VERTEX
  8
0
  6
CONTINUOUS
 10
5.503960
 20
1.433080
  0
VERTEX
  8
0
  6
CONTINUOUS
 10
4.851880
 20
1.058200
  0
VERTEX
  8
0
  6
CONTINUOUS
 10
4.873440
 20
1.105720
  0
SEQEND
  8
0
  0
SOLID
  8
0
 62
    15
 10
4.851880
 20
1.058200
 11
5.503960
 21
1.433080
 12
4.836040
 22
1.008920
 13
5.488120
 23
1.383800
  0
POLYLINE
  8
0
  6
CONTINUOUS
 66
     1
 40
0.000000
 41
0.000000
  0
VERTEX
  8
0
  6
CONTINUOUS
 10
4.851880
 20
1.058200
  0
VERTEX
  8
0
  6
CONTINUOUS
 10
5.503960
 20
1.433080
  0
VERTEX
  8
0
  6
CONTINUOUS
 10
5.488120
 20
1.383800
  0
VERTEX
  8
0
  6
CONTINUOUS
 10
4.836040
 20
1.008920
  0
VERTEX
  8
0
  6
CONTINUOUS
 10
4.851880
 20
1.058200
  0
SEQEND
  8
0
  0
POLYLINE
  8
0
  6
CONTINUOUS
 66
     1
 40
0.000000
 41
0.000000
  0
VERTEX
  8
0
  6
CONTINUOUS
 10
4.836040
 20
1.009360
  0
VERTEX
  8
0
  6
CONTINUOUS
 10
4.671040
 20
1.009360
  0
VERTEX
  8
0
  6
CONTINUOUS
 10
4.671040
 20
1.232000
  0
VERTEX
  8
0
  6
CONTINUOUS
 10
4.038760
 20
1.232000
  0
VERTEX
  8
0
  6
CONTINUOUS
 10
4.038760
 20
3.896200
  0
VERTEX
  8
0
  6
CONTINUOUS
 10
4.249960
 20
3.896200
  0
VERTEX
  8
0
  6
CONTINUOUS
 10
4.264040
 20
3.810400
  0
VERTEX
  8
0
  6
CONTINUOUS
 10
4.281200
 20
3.740440
  0
VERTEX
  8
0
  6
CONTINUOUS
 10
4.302760
 20
3.685440
  0
VERTEX
  8
0
  6
CONTINUOUS
 10
4.328280
 20
3.642320
  0
VERTEX
  8
0
  6
CONTINUOUS
 10
4.358640
 20
3.610200
  0
VERTEX
  8
0
  6
CONTINUOUS
 10
4.394280
 20
3.586440
  0
VERTEX
  8
0
  6
CONTINUOUS
 10
4.435200
 20
3.569720
  0
VERTEX
  8
0
  6
CONTINUOUS
 10
4.482280
 20
3.557400
  0
VERTEX
  8
0
  6
CONTINUOUS
 10
4.499880
 20
3.366880
  0
VERTEX
  8
0
  6
CONTINUOUS
 10
4.542560
 20
3.350160
  0
VERTEX
  8
0
  6
CONTINUOUS
 10
4.577320
 20
3.330360
  0
VERTEX
  8
0
  6
CONTINUOUS
 10
4.605040
 20
3.307920
  0
VERTEX
  8
0
  6
CONTINUOUS
 10
4.625720
 20
3.283280
  0
VERTEX
  8
0
  6
CONTINUOUS
 10
4.640680
 20
3.257320
  0
VERTEX
  8
0
  6
CONTINUOUS
 10
4.649040
 20
3.230480
  0
VERTEX
  8
0
  6
CONTINUOUS
 10
4.651240
 20
3.175040
  0
VERTEX
  8
0
  6
CONTINUOUS
 10
4.635840
 20
3.121800
  0
VERTEX
  8
0
  6
CONTINUOUS
 10
4.607240
 20
3.074280
  0
VERTEX
  8
0
  6
CONTINUOUS
 10
4.568960
 20
3.036440
  0
VERTEX
  8
0
  6
CONTINUOUS
 10
4.525400
 20
3.012240
  0
VERTEX
  8
0
  6
CONTINUOUS
 10
4.525400
 20
2.763200
  0
VERTEX
  8
0
  6
CONTINUOUS
 10
4.532000
 20
2.751760
  0
VERTEX
  8
0
  6
CONTINUOUS
 10
4.645520
 20
2.633840
  0
VERTEX
  8
0
  6
CONTINUOUS
 10
4.744080
 20
2.528680
  0
VERTEX
  8
0
  6
CONTINUOUS
 10
4.952200
 20
2.296360
  0
VERTEX
  8
0
  6
CONTINUOUS
 10
4.982120
 20
2.258080
  0
VERTEX
  8
0
  6
CONTINUOUS
 10
5.006760
 20
2.222000
  0
VERTEX
  8
0
  6
CONTINUOUS
 10
5.026120
 20
2.188560
  0
VERTEX
  8
0
  6
CONTINUOUS
 10
5.040200
 20
2.157320
  0
VERTEX
  8
0
  6
CONTINUOUS
 10
5.056480
 20
2.100560
  0
VERTEX
  8
0
  6
CONTINUOUS
 10
5.059120
 20
2.052160
  0
VERTEX
  8
0
  6
CONTINUOUS
 10
5.052080
 20
2.011240
  0
VERTEX
  8
0
  6
CONTINUOUS
 10
5.038880
 20
1.976920
  0
VERTEX
  8
0
  6
CONTINUOUS
 10
5.009840
 20
1.927640
  0
VERTEX
  8
0
  6
CONTINUOUS
 10
4.983880
 20
1.895520
  0
VERTEX
  8
0
  6
CONTINUOUS
 10
4.933280
 20
1.857240
  0
VERTEX
  8
0
  6
CONTINUOUS
 10
4.924480
 20
1.841840
  0
VERTEX
  8
0
  6
CONTINUOUS
 10
4.933280
 20
1.823800
  0
VERTEX
  8
0
  6
CONTINUOUS
 10
4.944720
 20
1.814120
  0
VERTEX
  8
0
  6
CONTINUOUS
 10
4.961880
 20
1.804880
  0
VERTEX
  8
0
  6
CONTINUOUS
 10
4.984760
 20
1.796960
  0
VERTEX
  8
0
  6
CONTINUOUS
 10
5.013800
 20
1.790800
  0
VERTEX
  8
0
  6
CONTINUOUS
 10
5.050320
 20
1.786400
  0
VERTEX
  8
0
  6
CONTINUOUS
 10
5.093440
 20
1.784640
  0
VERTEX
  8
0
  6
CONTINUOUS
 10
5.093440
 20
1.272480
  0
VERTEX
  8
0
  6
CONTINUOUS
 10
5.047680
 20
1.266320
  0
VERTEX
  8
0
  6
CONTINUOUS
 10
5.005000
 20
1.249600
  0
VERTEX
  8
0
  6
CONTINUOUS
 10
4.965840
 20
1.223640
  0
VERTEX
  8
0
  6
CONTINUOUS
 10
4.930640
 20
1.190200
  0
VERTEX
  8
0
  6
CONTINUOUS
 10
4.899840
 20
1.150160
  0
VERTEX
  8
0
  6
CONTINUOUS
 10
4.873440
 20
1.105720
  0
VERTEX
  8
0
  6
CONTINUOUS
 10
4.851880
 20
1.058200
  0
VERTEX
  8
0
  6
CONTINUOUS
 10
4.836040
 20
1.008920
  0
VERTEX
  8
0
  6
CONTINUOUS
 10
4.836040
 20
1.009360
  0
SEQEND
  8
0
  0
TEXT
  8
0
 10
4.596240
 20
0.781440
 40
0.138143
  1
BA  797
 41
1.000000
  7
SN0
 71
     0
 72
     5
 11
5.186170
 21
0.781440
  0
TEXT
  8
0
 10
4.320360
 20
0.589600
 40
0.138143
  1
1-1/16" x 2-7/8"
 41
1.000000
  7
SN0
 71
     0
 72
     5
 11
5.459984
 21
0.589600
  0
POLYLINE
  8
0
  6
CONTINUOUS
 66
     1
 40
0.014080
 41
0.014080
  0
VERTEX
  8
0
  6
CONTINUOUS
 10
7.187840
 20
1.301960
  0
VERTEX
  8
0
  6
CONTINUOUS
 10
7.203680
 20
1.351240
  0
VERTEX
  8
0
  6
CONTINUOUS
 10
7.225240
 20
1.398760
  0
VERTEX
  8
0
  6
CONTINUOUS
 10
7.251640
 20
1.443200
  0
VERTEX
  8
0
  6
CONTINUOUS
 10
7.282440
 20
1.483240
  0
VERTEX
  8
0
  6
CONTINUOUS
 10
7.299600
 20
1.500840
  0
VERTEX
  8
0
  6
CONTINUOUS
 10
7.317640
 20
1.516680
  0
VERTEX
  8
0
  6
CONTINUOUS
 10
7.337000
 20
1.530760
  0
VERTEX
  8
0
  6
CONTINUOUS
 10
7.367360
 20
1.547920
  0
VERTEX
  8
0
  6
CONTINUOUS
 10
7.399480
 20
1.559800
  0
VERTEX
  8
0
  6
CONTINUOUS
 10
7.421920
 20
1.564200
  0
VERTEX
  8
0
  6
CONTINUOUS
 10
7.445240
 20
1.565520
  0
VERTEX
  8
0
  6
CONTINUOUS
 10
7.445240
 20
2.077680
  0
VERTEX
  8
0
  6
CONTINUOUS
 10
7.401680
 20
2.079440
  0
VERTEX
  8
0
  6
CONTINUOUS
 10
7.365600
 20
2.083400
  0
VERTEX
  8
0
  6
CONTINUOUS
 10
7.336560
 20
2.090000
  0
VERTEX
  8
0
  6
CONTINUOUS
 10
7.304440
 20
2.102320
  0
VERTEX
  8
0
  6
CONTINUOUS
 10
7.289920
 20
2.112000
  0
VERTEX
  8
0
  6
CONTINUOUS
 10
7.281120
 20
2.121240
  0
VERTEX
  8
0
  6
CONTINUOUS
 10
7.276720
 20
2.130480
  0
VERTEX
  8
0
  6
CONTINUOUS
 10
7.276720
 20
2.138840
  0
VERTEX
  8
0
  6
CONTINUOUS
 10
7.285080
 20
2.150280
  0
VERTEX
  8
0
  6
CONTINUOUS
 10
7.335680
 20
2.189000
  0
VERTEX
  8
0
  6
CONTINUOUS
 10
7.355920
 20
2.211440
  0
VERTEX
  8
0
  6
CONTINUOUS
 10
7.383200
 20
2.255440
  0
VERTEX
  8
0
  6
CONTINUOUS
 10
7.397720
 20
2.286240
  0
VERTEX
  8
0
  6
CONTINUOUS
 10
7.403880
 20
2.304280
  0
VERTEX
  8
0
  6
CONTINUOUS
 10
7.410040
 20
2.334200
  0
VERTEX
  8
0
  6
CONTINUOUS
 10
7.411360
 20
2.356640
  0
VERTEX
  8
0
  6
CONTINUOUS
 10
7.408280
 20
2.393600
  0
VERTEX
  8
0
  6
CONTINUOUS
 10
7.397720
 20
2.435400
  0
VERTEX
  8
0
  6
CONTINUOUS
 10
7.377920
 20
2.481600
  0
VERTEX
  8
0
  6
CONTINUOUS
 10
7.347120
 20
2.532640
  0
VERTEX
  8
0
  6
CONTINUOUS
 10
7.304000
 20
2.588960
  0
VERTEX
  8
0
  6
CONTINUOUS
 10
7.095880
 20
2.821720
  0
VERTEX
  8
0
  6
CONTINUOUS
 10
6.914600
 20
3.013560
  0
VERTEX
  8
0
  6
CONTINUOUS
 10
6.883800
 20
3.044800
  0
VERTEX
  8
0
  6
CONTINUOUS
 10
6.877200
 20
3.056240
  0
VERTEX
  8
0
  6
CONTINUOUS
 10
6.877200
 20
3.305280
  0
VERTEX
  8
0
  6
CONTINUOUS
 10
6.899640
 20
3.315400
  0
VERTEX
  8
0
  6
CONTINUOUS
 10
6.931320
 20
3.337840
  0
VERTEX
  8
0
  6
CONTINUOUS
 10
6.950240
 20
3.356760
  0
VERTEX
  8
0
  6
CONTINUOUS
 10
6.974880
 20
3.389760
  0
VERTEX
  8
0
  6
CONTINUOUS
 10
6.987640
 20
3.414840
  0
VERTEX
  8
0
  6
CONTINUOUS
 10
6.997320
 20
3.440800
  0
VERTEX
  8
0
  6
CONTINUOUS
 10
7.003040
 20
3.468080
  0
VERTEX
  8
0
  6
CONTINUOUS
 10
7.004360
 20
3.495800
  0
VERTEX
  8
0
  6
CONTINUOUS
 10
7.003480
 20
3.509440
  0
VERTEX
  8
0
  6
CONTINUOUS
 10
6.997320
 20
3.536720
  0
VERTEX
  8
0
  6
CONTINUOUS
 10
6.985880
 20
3.563560
  0
VERTEX
  8
0
  6
CONTINUOUS
 10
6.968280
 20
3.588640
  0
VERTEX
  8
0
  6
CONTINUOUS
 10
6.944080
 20
3.612400
  0
VERTEX
  8
0
  6
CONTINUOUS
 10
6.912840
 20
3.633520
  0
VERTEX
  8
0
  6
CONTINUOUS
 10
6.874120
 20
3.652000
  0
VERTEX
  8
0
  6
CONTINUOUS
 10
6.851680
 20
3.659920
  0
VERTEX
  8
0
  6
CONTINUOUS
 10
6.834080
 20
3.850440
  0
VERTEX
  8
0
  6
CONTINUOUS
 10
6.787000
 20
3.862760
  0
VERTEX
  8
0
  6
CONTINUOUS
 10
6.765880
 20
3.870240
  0
VERTEX
  8
0
  6
CONTINUOUS
 10
6.746080
 20
3.879480
  0
VERTEX
  8
0
  6
CONTINUOUS
 10
6.727600
 20
3.890480
  0
VERTEX
  8
0
  6
CONTINUOUS
 10
6.702520
 20
3.910280
  0
VERTEX
  8
0
  6
CONTINUOUS
 10
6.680520
 20
3.935360
  0
VERTEX
  8
0
  6
CONTINUOUS
 10
6.660720
 20
3.966600
  0
VERTEX
  8
0
  6
CONTINUOUS
 10
6.643560
 20
4.004440
  0
VERTEX
  8
0
  6
CONTINUOUS
 10
6.628600
 20
4.049760
  0
VERTEX
  8
0
  6
CONTINUOUS
 10
6.615840
 20
4.103440
  0
VERTEX
  8
0
  6
CONTINUOUS
 10
6.604840
 20
4.165920
  0
VERTEX
  8
0
  6
CONTINUOUS
 10
6.601760
 20
4.189240
  0
VERTEX
  8
0
  6
CONTINUOUS
 10
6.390560
 20
4.189240
  0
VERTEX
  8
0
  6
CONTINUOUS
 10
6.390560
 20
1.525040
  0
VERTEX
  8
0
  6
CONTINUOUS
 10
7.022840
 20
1.525040
  0
VERTEX
  8
0
  6
CONTINUOUS
 10
7.022840
 20
1.302400
  0
VERTEX
  8
0
  6
CONTINUOUS
 10
7.187840
 20
1.301960
  0
SEQEND
  8
0
  0
ENDSEC
  0
EOF
