  0
SECTION
  2
HEADER
  9
$ACADVER
  1
AC1006
  9
$EXTMIN
 10
3.564880
 20
0.589600
  9
$EXTMAX
 10
7.285520
 20
3.512520
  9
$LTSCALE
 40
0.044000
  9
$PDMODE
 70
    35
  9
$PDSIZE
 40
0.035200
  0
ENDSEC
  0
SECTION
  2
TABLES
  0
TABLE
  2
LTYPE
 70
     9
  0
LTYPE
  2
CONTINUOUS
 70
    64
  3
Solid line
 72
    65
 73
     0
 40
0.000000
  0
LTYPE
  2
DASHED
 70
    64
  3
__ __ __ __ __ __ __ __ __ __ __ __ __ __ __
 72
    65
 73
     2
 40
0.000330
 49
0.000220
 49
-0.000110
  0
LTYPE
  2
HIDDEN
 70
    64
  3
 _ _ _ _ _ _ _ _ _ _ _ _ _ _ _ _ _ _ _ _ _ _
 72
    65
 73
     2
 40
0.000165
 49
0.000110
 49
-0.000055
  0
LTYPE
  2
CENTER
 70
    64
  3
____ _ ____ _ ____ _ ____ _ ____ _ ____ _ ____
 72
    65
 73
     4
 40
0.000880
 49
0.000550
 49
-0.000110
 49
0.000110
 49
-0.000110
  0
LTYPE
  2
PHANTOM
 70
    64
  3
_____ _ _ _____ _ _ _____ _ _ _____ _ _ ____
 72
    65
 73
     6
 40
0.001100
 49
0.000550
 49
-0.000110
 49
0.000110
 49
-0.000110
 49
0.000110
 49
-0.000110
  0
LTYPE
  2
DOT
 70
    64
  3
...............................................
 72
    65
 73
     2
 40
0.000110
 49
0.000000
 49
-0.000110
  0
LTYPE
  2
DASHDOT
 70
    64
  3
__ . __ . __ . __ . __ . __ . __ . __ . __ . __
 72
    65
 73
     4
 40
0.000440
 49
0.000220
 49
-0.000110
 49
0.000000
 49
-0.000110
  0
LTYPE
  2
BORDER
 70
    64
  3
__ __ . __ __ . __ __ . __ __ . __ __ . __ __
 72
    65
 73
     6
 40
0.000770
 49
0.000220
 49
-0.000110
 49
0.000220
 49
-0.000110
 49
0.000000
 49
-0.000110
  0
LTYPE
  2
DIVIDE
 70
    64
  3
__ . . __ . . __ . . __ . . __ . . __ . . __
 72
    65
 73
     6
 40
0.000550
 49
0.000220
 49
-0.000110
 49
0.000000
 49
-0.000110
 49
0.000000
 49
-0.000110
  0
LTYPE
  2
DOTDOT
 70
    64
  3
 . .  . .  . .  . .  . .  . . 
 72
    65
 73
     5
 40
0.000242
 49
-0.000110
 49
0.000000
 49
-0.000110
 49
0.000000
 49
-0.000110
  0
ENDTAB
  0
TABLE
  2
STYLE
 70
     2
  0
STYLE
 70
     0
  2
SN0
 40
0.000000
 41
0.000440
 50
0.000000
 71
     0
 42
0.000000
  3
ROMAND
  0
STYLE
 70
    68
  2
SV0
 40
0.000000
 41
0.000440
 50
0.000000
 71
     0
 42
0.000000
  3
ROMAND
  0
ENDTAB
  0
TABLE
  2
LAYER
 70
     3
  0
LAYER
  2
FOREGROUND
 70
    64
 62
     7
  6
CONTINUOUS
  0
LAYER
  2
BACKGROUND
 70
    65
 62
    -7
  6
CONTINUOUS
  0
LAYER
  2
0
 70
    64
 62
     7
  6
CONTINUOUS
  0
ENDTAB
  0
ENDSEC
  0
SECTION
  2
ENTITIES
  0
POLYLINE
  8
FOREGROUND
  6
CONTINUOUS
 66
     1
 40
0.000000
 41
0.000000
  0
VERTEX
  8
FOREGROUND
  6
CONTINUOUS
 10
0.000000
 20
4.102120
  0
VERTEX
  8
FOREGROUND
  6
CONTINUOUS
 10
8.499920
 20
4.102120
  0
VERTEX
  8
FOREGROUND
  6
CONTINUOUS
 10
8.499920
 20
-6.897880
  0
VERTEX
  8
FOREGROUND
  6
CONTINUOUS
 10
0.000000
 20
-6.897880
  0
VERTEX
  8
FOREGROUND
  6
CONTINUOUS
 10
0.000000
 20
4.102120
  0
SEQEND
  8
0
  0
POLYLINE
  8
FOREGROUND
  6
CONTINUOUS
 66
     1
 40
0.000000
 41
0.000000
  0
VERTEX
  8
FOREGROUND
  6
CONTINUOUS
 10
0.000000
 20
4.102120
  0
VERTEX
  8
FOREGROUND
  6
CONTINUOUS
 10
8.499920
 20
4.102120
  0
VERTEX
  8
FOREGROUND
  6
CONTINUOUS
 10
8.499920
 20
-6.897880
  0
VERTEX
  8
FOREGROUND
  6
CONTINUOUS
 10
0.000000
 20
-6.897880
  0
VERTEX
  8
FOREGROUND
  6
CONTINUOUS
 10
0.000000
 20
4.102120
  0
SEQEND
  8
0
  0
SOLID
  8
0
 62
    15
 10
6.971360
 20
1.645160
 11
6.974440
 21
2.393160
 12
7.013160
 22
1.656160
 13
7.016240
 23
2.404160
  0
POLYLINE
  8
0
  6
CONTINUOUS
 66
     1
 40
0.000000
 41
0.000000
  0
VERTEX
  8
0
  6
CONTINUOUS
 10
6.971360
 20
1.645160
  0
VERTEX
  8
0
  6
CONTINUOUS
 10
6.974440
 20
2.393160
  0
VERTEX
  8
0
  6
CONTINUOUS
 10
7.016240
 20
2.404160
  0
VERTEX
  8
0
  6
CONTINUOUS
 10
7.013160
 20
1.656160
  0
VERTEX
  8
0
  6
CONTINUOUS
 10
6.971360
 20
1.645160
  0
SEQEND
  8
0
  0
SOLID
  8
0
 62
    15
 10
4.792480
 20
1.778040
 11
4.795560
 21
2.526040
 12
4.811840
 22
1.650440
 13
4.814920
 23
2.398440
  0
POLYLINE
  8
0
  6
CONTINUOUS
 66
     1
 40
0.000000
 41
0.000000
  0
VERTEX
  8
0
  6
CONTINUOUS
 10
4.792480
 20
1.778040
  0
VERTEX
  8
0
  6
CONTINUOUS
 10
4.795560
 20
2.526040
  0
VERTEX
  8
0
  6
CONTINUOUS
 10
4.814920
 20
2.398440
  0
VERTEX
  8
0
  6
CONTINUOUS
 10
4.811840
 20
1.650440
  0
VERTEX
  8
0
  6
CONTINUOUS
 10
4.792480
 20
1.778040
  0
SEQEND
  8
0
  0
SOLID
  8
0
 62
    15
 10
6.744760
 20
1.418560
 11
6.747840
 21
2.166560
 12
6.814280
 22
1.418560
 13
6.817360
 23
2.166560
  0
POLYLINE
  8
0
  6
CONTINUOUS
 66
     1
 40
0.000000
 41
0.000000
  0
VERTEX
  8
0
  6
CONTINUOUS
 10
6.744760
 20
1.418560
  0
VERTEX
  8
0
  6
CONTINUOUS
 10
6.747840
 20
2.166560
  0
VERTEX
  8
0
  6
CONTINUOUS
 10
6.817360
 20
2.166560
  0
VERTEX
  8
0
  6
CONTINUOUS
 10
6.814280
 20
1.418560
  0
VERTEX
  8
0
  6
CONTINUOUS
 10
6.744760
 20
1.418560
  0
SEQEND
  8
0
  0
SOLID
  8
0
 62
    15
 10
6.719240
 20
1.650440
 11
6.722320
 21
2.398440
 12
6.744760
 22
1.418560
 13
6.747840
 23
2.166560
  0
POLYLINE
  8
0
  6
CONTINUOUS
 66
     1
 40
0.000000
 41
0.000000
  0
VERTEX
  8
0
  6
CONTINUOUS
 10
6.719240
 20
1.650440
  0
VERTEX
  8
0
  6
CONTINUOUS
 10
6.722320
 20
2.398440
  0
VERTEX
  8
0
  6
CONTINUOUS
 10
6.747840
 20
2.166560
  0
VERTEX
  8
0
  6
CONTINUOUS
 10
6.744760
 20
1.418560
  0
VERTEX
  8
0
  6
CONTINUOUS
 10
6.719240
 20
1.650440
  0
SEQEND
  8
0
  0
SOLID
  8
0
 62
    15
 10
4.811840
 20
1.650440
 11
4.814920
 21
2.398440
 12
6.719240
 22
1.650440
 13
6.722320
 23
2.398440
  0
POLYLINE
  8
0
  6
CONTINUOUS
 66
     1
 40
0.000000
 41
0.000000
  0
VERTEX
  8
0
  6
CONTINUOUS
 10
4.811840
 20
1.650440
  0
VERTEX
  8
0
  6
CONTINUOUS
 10
4.814920
 20
2.398440
  0
VERTEX
  8
0
  6
CONTINUOUS
 10
6.722320
 20
2.398440
  0
VERTEX
  8
0
  6
CONTINUOUS
 10
6.719240
 20
1.650440
  0
VERTEX
  8
0
  6
CONTINUOUS
 10
4.811840
 20
1.650440
  0
SEQEND
  8
0
  0
SOLID
  8
0
 62
    15
 10
6.814280
 20
1.418560
 11
6.817360
 21
2.166560
 12
6.822640
 22
1.475320
 13
6.826160
 23
2.223320
  0
POLYLINE
  8
0
  6
CONTINUOUS
 66
     1
 40
0.000000
 41
0.000000
  0
VERTEX
  8
0
  6
CONTINUOUS
 10
6.814280
 20
1.418560
  0
VERTEX
  8
0
  6
CONTINUOUS
 10
6.817360
 20
2.166560
  0
VERTEX
  8
0
  6
CONTINUOUS
 10
6.826160
 20
2.223320
  0
VERTEX
  8
0
  6
CONTINUOUS
 10
6.822640
 20
1.475320
  0
VERTEX
  8
0
  6
CONTINUOUS
 10
6.814280
 20
1.418560
  0
SEQEND
  8
0
  0
SOLID
  8
0
 62
    15
 10
6.822640
 20
1.475320
 11
6.826160
 21
2.223320
 12
6.840240
 22
1.524600
 13
6.843320
 23
2.272600
  0
POLYLINE
  8
0
  6
CONTINUOUS
 66
     1
 40
0.000000
 41
0.000000
  0
VERTEX
  8
0
  6
CONTINUOUS
 10
6.822640
 20
1.475320
  0
VERTEX
  8
0
  6
CONTINUOUS
 10
6.826160
 20
2.223320
  0
VERTEX
  8
0
  6
CONTINUOUS
 10
6.843320
 20
2.272600
  0
VERTEX
  8
0
  6
CONTINUOUS
 10
6.840240
 20
1.524600
  0
VERTEX
  8
0
  6
CONTINUOUS
 10
6.822640
 20
1.475320
  0
SEQEND
  8
0
  0
SOLID
  8
0
 62
    15
 10
6.840240
 20
1.524600
 11
6.843320
 21
2.272600
 12
6.864880
 22
1.566400
 13
6.867960
 23
2.314400
  0
POLYLINE
  8
0
  6
CONTINUOUS
 66
     1
 40
0.000000
 41
0.000000
  0
VERTEX
  8
0
  6
CONTINUOUS
 10
6.840240
 20
1.524600
  0
VERTEX
  8
0
  6
CONTINUOUS
 10
6.843320
 20
2.272600
  0
VERTEX
  8
0
  6
CONTINUOUS
 10
6.867960
 20
2.314400
  0
VERTEX
  8
0
  6
CONTINUOUS
 10
6.864880
 20
1.566400
  0
VERTEX
  8
0
  6
CONTINUOUS
 10
6.840240
 20
1.524600
  0
SEQEND
  8
0
  0
SOLID
  8
0
 62
    15
 10
6.864880
 20
1.566400
 11
6.867960
 21
2.314400
 12
6.895680
 22
1.600280
 13
6.898760
 23
2.348280
  0
POLYLINE
  8
0
  6
CONTINUOUS
 66
     1
 40
0.000000
 41
0.000000
  0
VERTEX
  8
0
  6
CONTINUOUS
 10
6.864880
 20
1.566400
  0
VERTEX
  8
0
  6
CONTINUOUS
 10
6.867960
 20
2.314400
  0
VERTEX
  8
0
  6
CONTINUOUS
 10
6.898760
 20
2.348280
  0
VERTEX
  8
0
  6
CONTINUOUS
 10
6.895680
 20
1.600280
  0
VERTEX
  8
0
  6
CONTINUOUS
 10
6.864880
 20
1.566400
  0
SEQEND
  8
0
  0
SOLID
  8
0
 62
    15
 10
6.895680
 20
1.600280
 11
6.898760
 21
2.348280
 12
6.931760
 22
1.626240
 13
6.934840
 23
2.374680
  0
POLYLINE
  8
0
  6
CONTINUOUS
 66
     1
 40
0.000000
 41
0.000000
  0
VERTEX
  8
0
  6
CONTINUOUS
 10
6.895680
 20
1.600280
  0
VERTEX
  8
0
  6
CONTINUOUS
 10
6.898760
 20
2.348280
  0
VERTEX
  8
0
  6
CONTINUOUS
 10
6.934840
 20
2.374680
  0
VERTEX
  8
0
  6
CONTINUOUS
 10
6.931760
 20
1.626240
  0
VERTEX
  8
0
  6
CONTINUOUS
 10
6.895680
 20
1.600280
  0
SEQEND
  8
0
  0
SOLID
  8
0
 62
    15
 10
6.931760
 20
1.626240
 11
6.934840
 21
2.374680
 12
6.971360
 22
1.645160
 13
6.974440
 23
2.393160
  0
POLYLINE
  8
0
  6
CONTINUOUS
 66
     1
 40
0.000000
 41
0.000000
  0
VERTEX
  8
0
  6
CONTINUOUS
 10
6.931760
 20
1.626240
  0
VERTEX
  8
0
  6
CONTINUOUS
 10
6.934840
 20
2.374680
  0
VERTEX
  8
0
  6
CONTINUOUS
 10
6.974440
 20
2.393160
  0
VERTEX
  8
0
  6
CONTINUOUS
 10
6.971360
 20
1.645160
  0
VERTEX
  8
0
  6
CONTINUOUS
 10
6.931760
 20
1.626240
  0
SEQEND
  8
0
  0
SOLID
  8
0
 62
    15
 10
3.779160
 20
1.778040
 11
3.782240
 21
2.526040
 12
4.792480
 22
1.778040
 13
4.795560
 23
2.526040
  0
POLYLINE
  8
0
  6
CONTINUOUS
 66
     1
 40
0.000000
 41
0.000000
  0
VERTEX
  8
0
  6
CONTINUOUS
 10
3.779160
 20
1.778040
  0
VERTEX
  8
0
  6
CONTINUOUS
 10
3.782240
 20
2.526040
  0
VERTEX
  8
0
  6
CONTINUOUS
 10
4.795560
 20
2.526040
  0
VERTEX
  8
0
  6
CONTINUOUS
 10
4.792480
 20
1.778040
  0
VERTEX
  8
0
  6
CONTINUOUS
 10
3.779160
 20
1.778040
  0
SEQEND
  8
0
  0
SOLID
  8
0
 62
    15
 10
7.013160
 20
1.656160
 11
7.016240
 21
2.404160
 12
7.055840
 22
1.659680
 13
7.058920
 23
2.407680
  0
POLYLINE
  8
0
  6
CONTINUOUS
 66
     1
 40
0.000000
 41
0.000000
  0
VERTEX
  8
0
  6
CONTINUOUS
 10
7.013160
 20
1.656160
  0
VERTEX
  8
0
  6
CONTINUOUS
 10
7.016240
 20
2.404160
  0
VERTEX
  8
0
  6
CONTINUOUS
 10
7.058920
 20
2.407680
  0
VERTEX
  8
0
  6
CONTINUOUS
 10
7.055840
 20
1.659680
  0
VERTEX
  8
0
  6
CONTINUOUS
 10
7.013160
 20
1.656160
  0
SEQEND
  8
0
  0
SOLID
  8
0
 62
    15
 10
7.055840
 20
1.659680
 11
7.058920
 21
2.407680
 12
7.098520
 22
1.655720
 13
7.101600
 23
2.403720
  0
POLYLINE
  8
0
  6
CONTINUOUS
 66
     1
 40
0.000000
 41
0.000000
  0
VERTEX
  8
0
  6
CONTINUOUS
 10
7.055840
 20
1.659680
  0
VERTEX
  8
0
  6
CONTINUOUS
 10
7.058920
 20
2.407680
  0
VERTEX
  8
0
  6
CONTINUOUS
 10
7.101600
 20
2.403720
  0
VERTEX
  8
0
  6
CONTINUOUS
 10
7.098520
 20
1.655720
  0
VERTEX
  8
0
  6
CONTINUOUS
 10
7.055840
 20
1.659680
  0
SEQEND
  8
0
  0
SOLID
  8
0
 62
    15
 10
7.098520
 20
1.655720
 11
7.101600
 21
2.403720
 12
7.139880
 22
1.643840
 13
7.142960
 23
2.391840
  0
POLYLINE
  8
0
  6
CONTINUOUS
 66
     1
 40
0.000000
 41
0.000000
  0
VERTEX
  8
0
  6
CONTINUOUS
 10
7.098520
 20
1.655720
  0
VERTEX
  8
0
  6
CONTINUOUS
 10
7.101600
 20
2.403720
  0
VERTEX
  8
0
  6
CONTINUOUS
 10
7.142960
 20
2.391840
  0
VERTEX
  8
0
  6
CONTINUOUS
 10
7.139880
 20
1.643840
  0
VERTEX
  8
0
  6
CONTINUOUS
 10
7.098520
 20
1.655720
  0
SEQEND
  8
0
  0
SOLID
  8
0
 62
    15
 10
7.139880
 20
1.643840
 11
7.142960
 21
2.391840
 12
7.178160
 22
1.624480
 13
7.181240
 23
2.372920
  0
POLYLINE
  8
0
  6
CONTINUOUS
 66
     1
 40
0.000000
 41
0.000000
  0
VERTEX
  8
0
  6
CONTINUOUS
 10
7.139880
 20
1.643840
  0
VERTEX
  8
0
  6
CONTINUOUS
 10
7.142960
 20
2.391840
  0
VERTEX
  8
0
  6
CONTINUOUS
 10
7.181240
 20
2.372920
  0
VERTEX
  8
0
  6
CONTINUOUS
 10
7.178160
 20
1.624480
  0
VERTEX
  8
0
  6
CONTINUOUS
 10
7.139880
 20
1.643840
  0
SEQEND
  8
0
  0
SOLID
  8
0
 62
    15
 10
7.178160
 20
1.624480
 11
7.181240
 21
2.372920
 12
7.212040
 22
1.597640
 13
7.215120
 23
2.345640
  0
POLYLINE
  8
0
  6
CONTINUOUS
 66
     1
 40
0.000000
 41
0.000000
  0
VERTEX
  8
0
  6
CONTINUOUS
 10
7.178160
 20
1.624480
  0
VERTEX
  8
0
  6
CONTINUOUS
 10
7.181240
 20
2.372920
  0
VERTEX
  8
0
  6
CONTINUOUS
 10
7.215120
 20
2.345640
  0
VERTEX
  8
0
  6
CONTINUOUS
 10
7.212040
 20
1.597640
  0
VERTEX
  8
0
  6
CONTINUOUS
 10
7.178160
 20
1.624480
  0
SEQEND
  8
0
  0
SOLID
  8
0
 62
    15
 10
7.212040
 20
1.597640
 11
7.215120
 21
2.345640
 12
7.241080
 22
1.563320
 13
7.244160
 23
2.311320
  0
POLYLINE
  8
0
  6
CONTINUOUS
 66
     1
 40
0.000000
 41
0.000000
  0
VERTEX
  8
0
  6
CONTINUOUS
 10
7.212040
 20
1.597640
  0
VERTEX
  8
0
  6
CONTINUOUS
 10
7.215120
 20
2.345640
  0
VERTEX
  8
0
  6
CONTINUOUS
 10
7.244160
 20
2.311320
  0
VERTEX
  8
0
  6
CONTINUOUS
 10
7.241080
 20
1.563320
  0
VERTEX
  8
0
  6
CONTINUOUS
 10
7.212040
 20
1.597640
  0
SEQEND
  8
0
  0
SOLID
  8
0
 62
    15
 10
7.241080
 20
1.563320
 11
7.244160
 21
2.311320
 12
7.263080
 22
1.521520
 13
7.266160
 23
2.269520
  0
POLYLINE
  8
0
  6
CONTINUOUS
 66
     1
 40
0.000000
 41
0.000000
  0
VERTEX
  8
0
  6
CONTINUOUS
 10
7.241080
 20
1.563320
  0
VERTEX
  8
0
  6
CONTINUOUS
 10
7.244160
 20
2.311320
  0
VERTEX
  8
0
  6
CONTINUOUS
 10
7.266160
 20
2.269520
  0
VERTEX
  8
0
  6
CONTINUOUS
 10
7.263080
 20
1.521520
  0
VERTEX
  8
0
  6
CONTINUOUS
 10
7.241080
 20
1.563320
  0
SEQEND
  8
0
  0
SOLID
  8
0
 62
    15
 10
7.277160
 20
1.471800
 11
7.280240
 21
2.219800
 12
7.282440
 22
1.414600
 13
7.285520
 23
2.162600
  0
POLYLINE
  8
0
  6
CONTINUOUS
 66
     1
 40
0.000000
 41
0.000000
  0
VERTEX
  8
0
  6
CONTINUOUS
 10
7.277160
 20
1.471800
  0
VERTEX
  8
0
  6
CONTINUOUS
 10
7.280240
 20
2.219800
  0
VERTEX
  8
0
  6
CONTINUOUS
 10
7.285520
 20
2.162600
  0
VERTEX
  8
0
  6
CONTINUOUS
 10
7.282440
 20
1.414600
  0
VERTEX
  8
0
  6
CONTINUOUS
 10
7.277160
 20
1.471800
  0
SEQEND
  8
0
  0
SOLID
  8
0
 62
    15
 10
7.263080
 20
1.521520
 11
7.266160
 21
2.269520
 12
7.277160
 22
1.471800
 13
7.280240
 23
2.219800
  0
POLYLINE
  8
0
  6
CONTINUOUS
 66
     1
 40
0.000000
 41
0.000000
  0
VERTEX
  8
0
  6
CONTINUOUS
 10
7.263080
 20
1.521520
  0
VERTEX
  8
0
  6
CONTINUOUS
 10
7.266160
 20
2.269520
  0
VERTEX
  8
0
  6
CONTINUOUS
 10
7.280240
 20
2.219800
  0
VERTEX
  8
0
  6
CONTINUOUS
 10
7.277160
 20
1.471800
  0
VERTEX
  8
0
  6
CONTINUOUS
 10
7.263080
 20
1.521520
  0
SEQEND
  8
0
  0
SOLID
  8
0
 62
    15
 10
7.282440
 20
1.414600
 11
7.285520
 21
2.162600
 12
7.282440
 22
1.039720
 13
7.285520
 23
1.787720
  0
POLYLINE
  8
0
  6
CONTINUOUS
 66
     1
 40
0.000000
 41
0.000000
  0
VERTEX
  8
0
  6
CONTINUOUS
 10
7.282440
 20
1.414600
  0
VERTEX
  8
0
  6
CONTINUOUS
 10
7.285520
 20
2.162600
  0
VERTEX
  8
0
  6
CONTINUOUS
 10
7.285520
 20
1.787720
  0
VERTEX
  8
0
  6
CONTINUOUS
 10
7.282440
 20
1.039720
  0
VERTEX
  8
0
  6
CONTINUOUS
 10
7.282440
 20
1.414600
  0
SEQEND
  8
0
  0
SOLID
  8
0
 62
    15
 10
3.776960
 20
1.777600
 11
3.780040
 21
2.525600
 12
3.779160
 22
1.778040
 13
3.782240
 23
2.526040
  0
POLYLINE
  8
0
  6
CONTINUOUS
 66
     1
 40
0.000000
 41
0.000000
  0
VERTEX
  8
0
  6
CONTINUOUS
 10
3.776960
 20
1.777600
  0
VERTEX
  8
0
  6
CONTINUOUS
 10
3.780040
 20
2.525600
  0
VERTEX
  8
0
  6
CONTINUOUS
 10
3.782240
 20
2.526040
  0
VERTEX
  8
0
  6
CONTINUOUS
 10
3.779160
 20
1.778040
  0
VERTEX
  8
0
  6
CONTINUOUS
 10
3.776960
 20
1.777600
  0
SEQEND
  8
0
  0
POLYLINE
  8
0
  6
CONTINUOUS
 66
     1
 40
0.000000
 41
0.000000
  0
VERTEX
  8
0
  6
CONTINUOUS
 10
3.779160
 20
1.778040
  0
VERTEX
  8
0
  6
CONTINUOUS
 10
4.792480
 20
1.778040
  0
VERTEX
  8
0
  6
CONTINUOUS
 10
4.811840
 20
1.650440
  0
VERTEX
  8
0
  6
CONTINUOUS
 10
6.719240
 20
1.650440
  0
VERTEX
  8
0
  6
CONTINUOUS
 10
6.744760
 20
1.418560
  0
VERTEX
  8
0
  6
CONTINUOUS
 10
6.814280
 20
1.418560
  0
VERTEX
  8
0
  6
CONTINUOUS
 10
6.822640
 20
1.475320
  0
VERTEX
  8
0
  6
CONTINUOUS
 10
6.840240
 20
1.524600
  0
VERTEX
  8
0
  6
CONTINUOUS
 10
6.864880
 20
1.566400
  0
VERTEX
  8
0
  6
CONTINUOUS
 10
6.895680
 20
1.600280
  0
VERTEX
  8
0
  6
CONTINUOUS
 10
6.931760
 20
1.626240
  0
VERTEX
  8
0
  6
CONTINUOUS
 10
6.971360
 20
1.645160
  0
VERTEX
  8
0
  6
CONTINUOUS
 10
7.013160
 20
1.656160
  0
VERTEX
  8
0
  6
CONTINUOUS
 10
7.055840
 20
1.659680
  0
VERTEX
  8
0
  6
CONTINUOUS
 10
7.098520
 20
1.655720
  0
VERTEX
  8
0
  6
CONTINUOUS
 10
7.139880
 20
1.643840
  0
VERTEX
  8
0
  6
CONTINUOUS
 10
7.178160
 20
1.624480
  0
VERTEX
  8
0
  6
CONTINUOUS
 10
7.212040
 20
1.597640
  0
VERTEX
  8
0
  6
CONTINUOUS
 10
7.241080
 20
1.563320
  0
VERTEX
  8
0
  6
CONTINUOUS
 10
7.263080
 20
1.521520
  0
VERTEX
  8
0
  6
CONTINUOUS
 10
7.277160
 20
1.471800
  0
VERTEX
  8
0
  6
CONTINUOUS
 10
7.282440
 20
1.414600
  0
VERTEX
  8
0
  6
CONTINUOUS
 10
7.282440
 20
1.039720
  0
VERTEX
  8
0
  6
CONTINUOUS
 10
3.776960
 20
1.039720
  0
VERTEX
  8
0
  6
CONTINUOUS
 10
3.776960
 20
1.777600
  0
VERTEX
  8
0
  6
CONTINUOUS
 10
3.779160
 20
1.778040
  0
SEQEND
  8
0
  0
TEXT
  8
0
 10
5.234240
 20
0.824560
 40
0.138134
  1
BA  796
 41
1.000000
  7
SN0
 71
     0
 72
     5
 11
5.824706
 21
0.824560
  0
TEXT
  8
0
 10
5.078480
 20
0.632720
 40
0.138134
  1
3/4" x 3-1/2"
 41
1.000000
  7
SN0
 71
     0
 72
     5
 11
5.979619
 21
0.632720
  0
POLYLINE
  8
0
  6
CONTINUOUS
 66
     1
 40
0.014080
 41
0.014080
  0
VERTEX
  8
0
  6
CONTINUOUS
 10
3.575000
 20
3.504600
  0
VERTEX
  8
0
  6
CONTINUOUS
 10
4.588320
 20
3.504600
  0
VERTEX
  8
0
  6
CONTINUOUS
 10
4.607240
 20
3.377000
  0
VERTEX
  8
0
  6
CONTINUOUS
 10
6.515080
 20
3.377000
  0
VERTEX
  8
0
  6
CONTINUOUS
 10
6.540600
 20
3.145120
  0
VERTEX
  8
0
  6
CONTINUOUS
 10
6.610120
 20
3.145120
  0
VERTEX
  8
0
  6
CONTINUOUS
 10
6.613200
 20
3.174600
  0
VERTEX
  8
0
  6
CONTINUOUS
 10
6.622000
 20
3.215080
  0
VERTEX
  8
0
  6
CONTINUOUS
 10
6.636080
 20
3.251160
  0
VERTEX
  8
0
  6
CONTINUOUS
 10
6.647520
 20
3.272720
  0
VERTEX
  8
0
  6
CONTINUOUS
 10
6.660720
 20
3.292520
  0
VERTEX
  8
0
  6
CONTINUOUS
 10
6.675680
 20
3.310560
  0
VERTEX
  8
0
  6
CONTINUOUS
 10
6.691520
 20
3.326400
  0
VERTEX
  8
0
  6
CONTINUOUS
 10
6.709120
 20
3.340920
  0
VERTEX
  8
0
  6
CONTINUOUS
 10
6.746960
 20
3.363360
  0
VERTEX
  8
0
  6
CONTINUOUS
 10
6.767200
 20
3.371720
  0
VERTEX
  8
0
  6
CONTINUOUS
 10
6.787880
 20
3.378320
  0
VERTEX
  8
0
  6
CONTINUOUS
 10
6.809000
 20
3.382720
  0
VERTEX
  8
0
  6
CONTINUOUS
 10
6.830120
 20
3.385360
  0
VERTEX
  8
0
  6
CONTINUOUS
 10
6.851680
 20
3.386240
  0
VERTEX
  8
0
  6
CONTINUOUS
 10
6.894360
 20
3.382280
  0
VERTEX
  8
0
  6
CONTINUOUS
 10
6.935280
 20
3.370400
  0
VERTEX
  8
0
  6
CONTINUOUS
 10
6.955080
 20
3.361600
  0
VERTEX
  8
0
  6
CONTINUOUS
 10
6.991600
 20
3.338720
  0
VERTEX
  8
0
  6
CONTINUOUS
 10
7.007880
 20
3.324200
  0
VERTEX
  8
0
  6
CONTINUOUS
 10
7.023280
 20
3.307920
  0
VERTEX
  8
0
  6
CONTINUOUS
 10
7.043080
 20
3.280200
  0
VERTEX
  8
0
  6
CONTINUOUS
 10
7.058920
 20
3.247640
  0
VERTEX
  8
0
  6
CONTINUOUS
 10
7.070360
 20
3.211560
  0
VERTEX
  8
0
  6
CONTINUOUS
 10
7.075200
 20
3.184720
  0
VERTEX
  8
0
  6
CONTINUOUS
 10
7.077840
 20
3.141160
  0
VERTEX
  8
0
  6
CONTINUOUS
 10
7.077840
 20
2.766280
  0
VERTEX
  8
0
  6
CONTINUOUS
 10
3.572360
 20
2.766280
  0
VERTEX
  8
0
  6
CONTINUOUS
 10
3.572360
 20
3.504160
  0
VERTEX
  8
0
  6
CONTINUOUS
 10
3.575000
 20
3.504600
  0
SEQEND
  8
0
  0
ENDSEC
  0
EOF
