  0
SECTION
  2
HEADER
  9
$ACADVER
  1
AC1006
  9
$EXTMIN
 10
0.494560
 20
0.820600
  9
$EXTMAX
 10
7.864120
 20
9.805400
  9
$LTSCALE
 40
0.044000
  9
$PDMODE
 70
    35
  9
$PDSIZE
 40
0.035200
  0
ENDSEC
  0
SECTION
  2
TABLES
  0
TABLE
  2
LTYPE
 70
     9
  0
LTYPE
  2
CONTINUOUS
 70
    64
  3
Solid line
 72
    65
 73
     0
 40
0.000000
  0
LTYPE
  2
DASHED
 70
    64
  3
__ __ __ __ __ __ __ __ __ __ __ __ __ __ __
 72
    65
 73
     2
 40
0.000330
 49
0.000220
 49
-0.000110
  0
LTYPE
  2
HIDDEN
 70
    64
  3
 _ _ _ _ _ _ _ _ _ _ _ _ _ _ _ _ _ _ _ _ _ _
 72
    65
 73
     2
 40
0.000165
 49
0.000110
 49
-0.000055
  0
LTYPE
  2
CENTER
 70
    64
  3
____ _ ____ _ ____ _ ____ _ ____ _ ____ _ ____
 72
    65
 73
     4
 40
0.000880
 49
0.000550
 49
-0.000110
 49
0.000110
 49
-0.000110
  0
LTYPE
  2
PHANTOM
 70
    64
  3
_____ _ _ _____ _ _ _____ _ _ _____ _ _ ____
 72
    65
 73
     6
 40
0.001100
 49
0.000550
 49
-0.000110
 49
0.000110
 49
-0.000110
 49
0.000110
 49
-0.000110
  0
LTYPE
  2
DOT
 70
    64
  3
...............................................
 72
    65
 73
     2
 40
0.000110
 49
0.000000
 49
-0.000110
  0
LTYPE
  2
DASHDOT
 70
    64
  3
__ . __ . __ . __ . __ . __ . __ . __ . __ . __
 72
    65
 73
     4
 40
0.000440
 49
0.000220
 49
-0.000110
 49
0.000000
 49
-0.000110
  0
LTYPE
  2
BORDER
 70
    64
  3
__ __ . __ __ . __ __ . __ __ . __ __ . __ __
 72
    65
 73
     6
 40
0.000770
 49
0.000220
 49
-0.000110
 49
0.000220
 49
-0.000110
 49
0.000000
 49
-0.000110
  0
LTYPE
  2
DIVIDE
 70
    64
  3
__ . . __ . . __ . . __ . . __ . . __ . . __
 72
    65
 73
     6
 40
0.000550
 49
0.000220
 49
-0.000110
 49
0.000000
 49
-0.000110
 49
0.000000
 49
-0.000110
  0
LTYPE
  2
DOTDOT
 70
    64
  3
 . .  . .  . .  . .  . .  . . 
 72
    65
 73
     5
 40
0.000242
 49
-0.000110
 49
0.000000
 49
-0.000110
 49
0.000000
 49
-0.000110
  0
ENDTAB
  0
TABLE
  2
STYLE
 70
     2
  0
STYLE
 70
     0
  2
SN0
 40
0.000000
 41
0.000440
 50
0.000000
 71
     0
 42
0.000000
  3
ROMAND
  0
STYLE
 70
    68
  2
SV0
 40
0.000000
 41
0.000440
 50
0.000000
 71
     0
 42
0.000000
  3
ROMAND
  0
ENDTAB
  0
TABLE
  2
LAYER
 70
     3
  0
LAYER
  2
FOREGROUND
 70
    64
 62
     7
  6
CONTINUOUS
  0
LAYER
  2
BACKGROUND
 70
    65
 62
    -7
  6
CONTINUOUS
  0
LAYER
  2
0
 70
    64
 62
     7
  6
CONTINUOUS
  0
ENDTAB
  0
ENDSEC
  0
SECTION
  2
ENTITIES
  0
POLYLINE
  8
FOREGROUND
  6
CONTINUOUS
 66
     1
 40
0.000000
 41
0.000000
  0
VERTEX
  8
FOREGROUND
  6
CONTINUOUS
 10
0.000000
 20
10.626000
  0
VERTEX
  8
FOREGROUND
  6
CONTINUOUS
 10
8.499920
 20
10.626000
  0
VERTEX
  8
FOREGROUND
  6
CONTINUOUS
 10
8.499920
 20
-0.374000
  0
VERTEX
  8
FOREGROUND
  6
CONTINUOUS
 10
0.000000
 20
-0.374000
  0
VERTEX
  8
FOREGROUND
  6
CONTINUOUS
 10
0.000000
 20
10.626000
  0
SEQEND
  8
0
  0
POLYLINE
  8
FOREGROUND
  6
CONTINUOUS
 66
     1
 40
0.000000
 41
0.000000
  0
VERTEX
  8
FOREGROUND
  6
CONTINUOUS
 10
0.000000
 20
10.626000
  0
VERTEX
  8
FOREGROUND
  6
CONTINUOUS
 10
8.499920
 20
10.626000
  0
VERTEX
  8
FOREGROUND
  6
CONTINUOUS
 10
8.499920
 20
-0.374000
  0
VERTEX
  8
FOREGROUND
  6
CONTINUOUS
 10
0.000000
 20
-0.374000
  0
VERTEX
  8
FOREGROUND
  6
CONTINUOUS
 10
0.000000
 20
10.626000
  0
SEQEND
  8
0
  0
POLYLINE
  8
0
  6
CONTINUOUS
 66
     1
 40
0.014080
 41
0.014080
  0
VERTEX
  8
0
  6
CONTINUOUS
 10
5.170880
 20
1.459920
  0
VERTEX
  8
0
  6
CONTINUOUS
 10
5.170880
 20
8.967200
  0
VERTEX
  8
0
  6
CONTINUOUS
 10
5.172200
 20
9.001520
  0
VERTEX
  8
0
  6
CONTINUOUS
 10
5.174840
 20
9.034520
  0
VERTEX
  8
0
  6
CONTINUOUS
 10
5.179680
 20
9.066200
  0
VERTEX
  8
0
  6
CONTINUOUS
 10
5.185840
 20
9.096560
  0
VERTEX
  8
0
  6
CONTINUOUS
 10
5.193760
 20
9.125160
  0
VERTEX
  8
0
  6
CONTINUOUS
 10
5.203440
 20
9.152880
  0
VERTEX
  8
0
  6
CONTINUOUS
 10
5.214440
 20
9.179280
  0
VERTEX
  8
0
  6
CONTINUOUS
 10
5.226760
 20
9.204360
  0
VERTEX
  8
0
  6
CONTINUOUS
 10
5.240840
 20
9.227680
  0
VERTEX
  8
0
  6
CONTINUOUS
 10
5.273400
 20
9.270360
  0
VERTEX
  8
0
  6
CONTINUOUS
 10
5.291880
 20
9.289280
  0
VERTEX
  8
0
  6
CONTINUOUS
 10
5.311680
 20
9.306880
  0
VERTEX
  8
0
  6
CONTINUOUS
 10
5.332360
 20
9.322720
  0
VERTEX
  8
0
  6
CONTINUOUS
 10
5.354800
 20
9.337240
  0
VERTEX
  8
0
  6
CONTINUOUS
 10
5.378120
 20
9.350000
  0
VERTEX
  8
0
  6
CONTINUOUS
 10
5.402760
 20
9.361440
  0
VERTEX
  8
0
  6
CONTINUOUS
 10
5.428720
 20
9.371120
  0
VERTEX
  8
0
  6
CONTINUOUS
 10
5.455560
 20
9.379040
  0
VERTEX
  8
0
  6
CONTINUOUS
 10
5.483720
 20
9.385200
  0
VERTEX
  8
0
  6
CONTINUOUS
 10
5.513200
 20
9.390040
  0
VERTEX
  8
0
  6
CONTINUOUS
 10
5.543120
 20
9.392680
  0
VERTEX
  8
0
  6
CONTINUOUS
 10
5.574360
 20
9.394000
  0
VERTEX
  8
0
  6
CONTINUOUS
 10
5.606480
 20
9.393560
  0
VERTEX
  8
0
  6
CONTINUOUS
 10
5.673360
 20
9.386960
  0
VERTEX
  8
0
  6
CONTINUOUS
 10
5.708120
 20
9.380800
  0
VERTEX
  8
0
  6
CONTINUOUS
 10
5.780280
 20
9.363200
  0
VERTEX
  8
0
  6
CONTINUOUS
 10
5.817240
 20
9.351760
  0
VERTEX
  8
0
  6
CONTINUOUS
 10
5.893800
 20
9.322720
  0
VERTEX
  8
0
  6
CONTINUOUS
 10
5.972560
 20
9.285760
  0
VERTEX
  8
0
  6
CONTINUOUS
 10
6.053520
 20
9.240880
  0
VERTEX
  8
0
  6
CONTINUOUS
 10
6.136680
 20
9.187640
  0
VERTEX
  8
0
  6
CONTINUOUS
 10
6.221600
 20
9.126480
  0
VERTEX
  8
0
  6
CONTINUOUS
 10
6.307840
 20
9.056520
  0
VERTEX
  8
0
  6
CONTINUOUS
 10
6.394960
 20
8.977760
  0
VERTEX
  8
0
  6
CONTINUOUS
 10
6.483400
 20
8.889760
  0
VERTEX
  8
0
  6
CONTINUOUS
 10
6.571840
 20
8.792960
  0
VERTEX
  8
0
  6
CONTINUOUS
 10
6.661160
 20
8.686920
  0
VERTEX
  8
0
  6
CONTINUOUS
 10
6.750040
 20
8.571640
  0
VERTEX
  8
0
  6
CONTINUOUS
 10
6.838920
 20
8.446240
  0
VERTEX
  8
0
  6
CONTINUOUS
 10
6.926920
 20
8.311160
  0
VERTEX
  8
0
  6
CONTINUOUS
 10
6.992480
 20
8.203360
  0
VERTEX
  8
0
  6
CONTINUOUS
 10
7.079160
 20
8.051120
  0
VERTEX
  8
0
  6
CONTINUOUS
 10
7.164080
 20
7.887880
  0
VERTEX
  8
0
  6
CONTINUOUS
 10
7.227000
 20
7.758960
  0
VERTEX
  8
0
  6
CONTINUOUS
 10
7.320280
 20
7.553040
  0
VERTEX
  8
0
  6
CONTINUOUS
 10
7.397720
 20
7.371760
  0
VERTEX
  8
0
  6
CONTINUOUS
 10
7.472520
 20
7.182120
  0
VERTEX
  8
0
  6
CONTINUOUS
 10
7.520920
 20
7.050560
  0
VERTEX
  8
0
  6
CONTINUOUS
 10
7.567120
 20
6.914160
  0
VERTEX
  8
0
  6
CONTINUOUS
 10
7.611560
 20
6.772480
  0
VERTEX
  8
0
  6
CONTINUOUS
 10
7.652920
 20
6.625520
  0
VERTEX
  8
0
  6
CONTINUOUS
 10
7.692080
 20
6.472840
  0
VERTEX
  8
0
  6
CONTINUOUS
 10
7.727720
 20
6.313560
  0
VERTEX
  8
0
  6
CONTINUOUS
 10
7.744440
 20
6.231720
  0
VERTEX
  8
0
  6
CONTINUOUS
 10
7.774800
 20
6.062320
  0
VERTEX
  8
0
  6
CONTINUOUS
 10
7.788440
 20
5.975200
  0
VERTEX
  8
0
  6
CONTINUOUS
 10
7.812640
 20
5.795240
  0
VERTEX
  8
0
  6
CONTINUOUS
 10
7.832000
 20
5.607800
  0
VERTEX
  8
0
  6
CONTINUOUS
 10
7.843880
 20
5.461280
  0
VERTEX
  8
0
  6
CONTINUOUS
 10
7.852680
 20
5.310800
  0
VERTEX
  8
0
  6
CONTINUOUS
 10
7.856640
 20
5.207400
  0
VERTEX
  8
0
  6
CONTINUOUS
 10
7.857080
 20
5.210920
  0
VERTEX
  8
0
  6
CONTINUOUS
 10
7.850480
 20
5.056920
  0
VERTEX
  8
0
  6
CONTINUOUS
 10
7.840800
 20
4.907760
  0
VERTEX
  8
0
  6
CONTINUOUS
 10
7.823200
 20
4.715920
  0
VERTEX
  8
0
  6
CONTINUOUS
 10
7.813080
 20
4.623080
  0
VERTEX
  8
0
  6
CONTINUOUS
 10
7.788880
 20
4.443120
  0
VERTEX
  8
0
  6
CONTINUOUS
 10
7.775240
 20
4.356000
  0
VERTEX
  8
0
  6
CONTINUOUS
 10
7.744880
 20
4.186600
  0
VERTEX
  8
0
  6
CONTINUOUS
 10
7.710560
 20
4.024240
  0
VERTEX
  8
0
  6
CONTINUOUS
 10
7.692520
 20
3.945480
  0
VERTEX
  8
0
  6
CONTINUOUS
 10
7.633120
 20
3.718440
  0
VERTEX
  8
0
  6
CONTINUOUS
 10
7.590000
 20
3.574560
  0
VERTEX
  8
0
  6
CONTINUOUS
 10
7.544680
 20
3.435520
  0
VERTEX
  8
0
  6
CONTINUOUS
 10
7.497160
 20
3.301320
  0
VERTEX
  8
0
  6
CONTINUOUS
 10
7.423240
 20
3.108600
  0
VERTEX
  8
0
  6
CONTINUOUS
 10
7.346680
 20
2.925120
  0
VERTEX
  8
0
  6
CONTINUOUS
 10
7.248120
 20
2.703800
  0
VERTEX
  8
0
  6
CONTINUOUS
 10
7.185640
 20
2.572680
  0
VERTEX
  8
0
  6
CONTINUOUS
 10
7.101160
 20
2.407240
  0
VERTEX
  8
0
  6
CONTINUOUS
 10
7.014920
 20
2.251920
  0
VERTEX
  8
0
  6
CONTINUOUS
 10
6.971360
 20
2.178000
  0
VERTEX
  8
0
  6
CONTINUOUS
 10
6.883360
 20
2.038080
  0
VERTEX
  8
0
  6
CONTINUOUS
 10
6.794920
 20
1.908280
  0
VERTEX
  8
0
  6
CONTINUOUS
 10
6.706040
 20
1.787720
  0
VERTEX
  8
0
  6
CONTINUOUS
 10
6.616720
 20
1.677280
  0
VERTEX
  8
0
  6
CONTINUOUS
 10
6.527840
 20
1.575640
  0
VERTEX
  8
0
  6
CONTINUOUS
 10
6.439400
 20
1.483680
  0
VERTEX
  8
0
  6
CONTINUOUS
 10
6.351840
 20
1.400080
  0
VERTEX
  8
0
  6
CONTINUOUS
 10
6.264720
 20
1.325720
  0
VERTEX
  8
0
  6
CONTINUOUS
 10
6.179360
 20
1.260160
  0
VERTEX
  8
0
  6
CONTINUOUS
 10
6.095320
 20
1.202960
  0
VERTEX
  8
0
  6
CONTINUOUS
 10
6.013040
 20
1.154120
  0
VERTEX
  8
0
  6
CONTINUOUS
 10
5.973000
 20
1.132560
  0
VERTEX
  8
0
  6
CONTINUOUS
 10
5.894240
 20
1.095600
  0
VERTEX
  8
0
  6
CONTINUOUS
 10
5.817680
 20
1.066560
  0
VERTEX
  8
0
  6
CONTINUOUS
 10
5.744200
 20
1.045440
  0
VERTEX
  8
0
  6
CONTINUOUS
 10
5.708560
 20
1.037520
  0
VERTEX
  8
0
  6
CONTINUOUS
 10
5.639920
 20
1.027400
  0
VERTEX
  8
0
  6
CONTINUOUS
 10
5.574800
 20
1.024320
  0
VERTEX
  8
0
  6
CONTINUOUS
 10
5.543560
 20
1.025640
  0
VERTEX
  8
0
  6
CONTINUOUS
 10
5.484160
 20
1.033120
  0
VERTEX
  8
0
  6
CONTINUOUS
 10
5.456000
 20
1.039720
  0
VERTEX
  8
0
  6
CONTINUOUS
 10
5.429160
 20
1.047640
  0
VERTEX
  8
0
  6
CONTINUOUS
 10
5.403200
 20
1.057320
  0
VERTEX
  8
0
  6
CONTINUOUS
 10
5.378560
 20
1.068320
  0
VERTEX
  8
0
  6
CONTINUOUS
 10
5.332800
 20
1.095600
  0
VERTEX
  8
0
  6
CONTINUOUS
 10
5.292320
 20
1.129480
  0
VERTEX
  8
0
  6
CONTINUOUS
 10
5.273840
 20
1.148400
  0
VERTEX
  8
0
  6
CONTINUOUS
 10
5.241280
 20
1.191080
  0
VERTEX
  8
0
  6
CONTINUOUS
 10
5.227200
 20
1.214400
  0
VERTEX
  8
0
  6
CONTINUOUS
 10
5.203880
 20
1.265440
  0
VERTEX
  8
0
  6
CONTINUOUS
 10
5.194200
 20
1.293160
  0
VERTEX
  8
0
  6
CONTINUOUS
 10
5.186280
 20
1.322200
  0
VERTEX
  8
0
  6
CONTINUOUS
 10
5.180120
 20
1.352560
  0
VERTEX
  8
0
  6
CONTINUOUS
 10
5.175280
 20
1.384240
  0
VERTEX
  8
0
  6
CONTINUOUS
 10
5.172640
 20
1.417240
  0
VERTEX
  8
0
  6
CONTINUOUS
 10
5.170880
 20
1.459920
  0
SEQEND
  8
0
  0
POLYLINE
  8
0
  6
CONTINUOUS
 66
     1
 40
0.014080
 41
0.014080
  0
VERTEX
  8
0
  6
CONTINUOUS
 10
5.032720
 20
1.521960
  0
VERTEX
  8
0
  6
CONTINUOUS
 10
5.171320
 20
1.521960
  0
VERTEX
  8
0
  6
CONTINUOUS
 10
5.171320
 20
2.282280
  0
VERTEX
  8
0
  6
CONTINUOUS
 10
4.560600
 20
2.282280
  0
VERTEX
  8
0
  6
CONTINUOUS
 10
4.560600
 20
2.004640
  0
VERTEX
  8
0
  6
CONTINUOUS
 10
4.587880
 20
2.004640
  0
VERTEX
  8
0
  6
CONTINUOUS
 10
4.614720
 20
2.003760
  0
VERTEX
  8
0
  6
CONTINUOUS
 10
4.640240
 20
2.002440
  0
VERTEX
  8
0
  6
CONTINUOUS
 10
4.665320
 20
1.999800
  0
VERTEX
  8
0
  6
CONTINUOUS
 10
4.689520
 20
1.996720
  0
VERTEX
  8
0
  6
CONTINUOUS
 10
4.712840
 20
1.992320
  0
VERTEX
  8
0
  6
CONTINUOUS
 10
4.735280
 20
1.987040
  0
VERTEX
  8
0
  6
CONTINUOUS
 10
4.756840
 20
1.980880
  0
VERTEX
  8
0
  6
CONTINUOUS
 10
4.777520
 20
1.973840
  0
VERTEX
  8
0
  6
CONTINUOUS
 10
4.797760
 20
1.965920
  0
VERTEX
  8
0
  6
CONTINUOUS
 10
4.817120
 20
1.957120
  0
VERTEX
  8
0
  6
CONTINUOUS
 10
4.835600
 20
1.947440
  0
VERTEX
  8
0
  6
CONTINUOUS
 10
4.853200
 20
1.936440
  0
VERTEX
  8
0
  6
CONTINUOUS
 10
4.869920
 20
1.924560
  0
VERTEX
  8
0
  6
CONTINUOUS
 10
4.885760
 20
1.911800
  0
VERTEX
  8
0
  6
CONTINUOUS
 10
4.901160
 20
1.897720
  0
VERTEX
  8
0
  6
CONTINUOUS
 10
4.915680
 20
1.882760
  0
VERTEX
  8
0
  6
CONTINUOUS
 10
4.928880
 20
1.866480
  0
VERTEX
  8
0
  6
CONTINUOUS
 10
4.941640
 20
1.849760
  0
VERTEX
  8
0
  6
CONTINUOUS
 10
4.953520
 20
1.831280
  0
VERTEX
  8
0
  6
CONTINUOUS
 10
4.964960
 20
1.811920
  0
VERTEX
  8
0
  6
CONTINUOUS
 10
4.975080
 20
1.791680
  0
VERTEX
  8
0
  6
CONTINUOUS
 10
4.984320
 20
1.770120
  0
VERTEX
  8
0
  6
CONTINUOUS
 10
4.993120
 20
1.747680
  0
VERTEX
  8
0
  6
CONTINUOUS
 10
5.001040
 20
1.723920
  0
VERTEX
  8
0
  6
CONTINUOUS
 10
5.008080
 20
1.698840
  0
VERTEX
  8
0
  6
CONTINUOUS
 10
5.014240
 20
1.672440
  0
VERTEX
  8
0
  6
CONTINUOUS
 10
5.019520
 20
1.645160
  0
VERTEX
  8
0
  6
CONTINUOUS
 10
5.023920
 20
1.616560
  0
VERTEX
  8
0
  6
CONTINUOUS
 10
5.027880
 20
1.587080
  0
VERTEX
  8
0
  6
CONTINUOUS
 10
5.030520
 20
1.555840
  0
VERTEX
  8
0
  6
CONTINUOUS
 10
5.032720
 20
1.523720
  0
VERTEX
  8
0
  6
CONTINUOUS
 10
5.032720
 20
1.521960
  0
SEQEND
  8
0
  0
POLYLINE
  8
0
  6
CONTINUOUS
 66
     1
 40
0.014080
 41
0.014080
  0
VERTEX
  8
0
  6
CONTINUOUS
 10
5.031840
 20
8.884480
  0
VERTEX
  8
0
  6
CONTINUOUS
 10
5.170440
 20
8.884480
  0
VERTEX
  8
0
  6
CONTINUOUS
 10
5.170440
 20
8.124600
  0
VERTEX
  8
0
  6
CONTINUOUS
 10
4.559720
 20
8.124600
  0
VERTEX
  8
0
  6
CONTINUOUS
 10
4.559720
 20
8.401800
  0
VERTEX
  8
0
  6
CONTINUOUS
 10
4.587000
 20
8.401800
  0
VERTEX
  8
0
  6
CONTINUOUS
 10
4.613840
 20
8.402680
  0
VERTEX
  8
0
  6
CONTINUOUS
 10
4.639360
 20
8.404000
  0
VERTEX
  8
0
  6
CONTINUOUS
 10
4.664440
 20
8.406640
  0
VERTEX
  8
0
  6
CONTINUOUS
 10
4.688640
 20
8.410160
  0
VERTEX
  8
0
  6
CONTINUOUS
 10
4.711960
 20
8.414120
  0
VERTEX
  8
0
  6
CONTINUOUS
 10
4.734400
 20
8.419400
  0
VERTEX
  8
0
  6
CONTINUOUS
 10
4.755960
 20
8.425560
  0
VERTEX
  8
0
  6
CONTINUOUS
 10
4.776640
 20
8.432600
  0
VERTEX
  8
0
  6
CONTINUOUS
 10
4.796880
 20
8.440520
  0
VERTEX
  8
0
  6
CONTINUOUS
 10
4.816240
 20
8.449320
  0
VERTEX
  8
0
  6
CONTINUOUS
 10
4.834720
 20
8.459440
  0
VERTEX
  8
0
  6
CONTINUOUS
 10
4.852320
 20
8.470440
  0
VERTEX
  8
0
  6
CONTINUOUS
 10
4.869040
 20
8.482320
  0
VERTEX
  8
0
  6
CONTINUOUS
 10
4.884880
 20
8.495080
  0
VERTEX
  8
0
  6
CONTINUOUS
 10
4.900280
 20
8.509160
  0
VERTEX
  8
0
  6
CONTINUOUS
 10
4.914800
 20
8.524120
  0
VERTEX
  8
0
  6
CONTINUOUS
 10
4.928000
 20
8.539960
  0
VERTEX
  8
0
  6
CONTINUOUS
 10
4.940760
 20
8.557120
  0
VERTEX
  8
0
  6
CONTINUOUS
 10
4.952640
 20
8.575160
  0
VERTEX
  8
0
  6
CONTINUOUS
 10
4.964080
 20
8.594520
  0
VERTEX
  8
0
  6
CONTINUOUS
 10
4.974200
 20
8.615200
  0
VERTEX
  8
0
  6
CONTINUOUS
 10
4.983440
 20
8.636760
  0
VERTEX
  8
0
  6
CONTINUOUS
 10
4.992240
 20
8.659200
  0
VERTEX
  8
0
  6
CONTINUOUS
 10
5.000160
 20
8.682960
  0
VERTEX
  8
0
  6
CONTINUOUS
 10
5.007200
 20
8.708040
  0
VERTEX
  8
0
  6
CONTINUOUS
 10
5.013360
 20
8.734440
  0
VERTEX
  8
0
  6
CONTINUOUS
 10
5.018640
 20
8.761720
  0
VERTEX
  8
0
  6
CONTINUOUS
 10
5.023040
 20
8.790320
  0
VERTEX
  8
0
  6
CONTINUOUS
 10
5.027000
 20
8.819800
  0
VERTEX
  8
0
  6
CONTINUOUS
 10
5.029640
 20
8.851040
  0
VERTEX
  8
0
  6
CONTINUOUS
 10
5.031840
 20
8.883160
  0
VERTEX
  8
0
  6
CONTINUOUS
 10
5.031840
 20
8.884480
  0
SEQEND
  8
0
  0
TEXT
  8
0
 10
0.851840
 20
6.184200
 40
0.134665
  1
BA  795 
 50
269.819476
 41
1.000000
  7
SN0
 71
     0
 72
     5
 11
0.849858
 21
5.562006
  0
TEXT
  8
0
 10
0.851840
 20
5.547520
 40
0.134665
  1
2-5/8" x 8-7/16"
 50
269.819476
 41
1.000000
  7
SN0
 71
     0
 72
     5
 11
0.848285
 21
4.431614
  0
TEXT
  8
0
 10
0.660440
 20
6.184200
 40
0.134665
  1
BA  207 5/8" x 3/4"
 50
269.819476
 41
1.000000
  7
SN0
 71
     0
 72
     5
 11
0.656110
 21
4.824807
  0
SOLID
  8
0
 62
    15
 10
0.692120
 20
2.392280
 11
1.052920
 21
1.749880
 12
0.648120
 22
2.403720
 13
1.008920
 23
1.760880
  0
POLYLINE
  8
0
  6
CONTINUOUS
 66
     1
 40
0.000000
 41
0.000000
  0
VERTEX
  8
0
  6
CONTINUOUS
 10
0.692120
 20
2.392280
  0
VERTEX
  8
0
  6
CONTINUOUS
 10
1.052920
 20
1.749880
  0
VERTEX
  8
0
  6
CONTINUOUS
 10
1.008920
 20
1.760880
  0
VERTEX
  8
0
  6
CONTINUOUS
 10
0.648120
 20
2.403720
  0
VERTEX
  8
0
  6
CONTINUOUS
 10
0.692120
 20
2.392280
  0
SEQEND
  8
0
  0
SOLID
  8
0
 62
    15
 10
0.864600
 20
2.277880
 11
1.224960
 21
1.635040
 12
0.836440
 22
2.309120
 13
1.197240
 23
1.666280
  0
POLYLINE
  8
0
  6
CONTINUOUS
 66
     1
 40
0.000000
 41
0.000000
  0
VERTEX
  8
0
  6
CONTINUOUS
 10
0.864600
 20
2.277880
  0
VERTEX
  8
0
  6
CONTINUOUS
 10
1.224960
 20
1.635040
  0
VERTEX
  8
0
  6
CONTINUOUS
 10
1.197240
 20
1.666280
  0
VERTEX
  8
0
  6
CONTINUOUS
 10
0.836440
 20
2.309120
  0
VERTEX
  8
0
  6
CONTINUOUS
 10
0.864600
 20
2.277880
  0
SEQEND
  8
0
  0
SOLID
  8
0
 62
    15
 10
0.836440
 20
2.309120
 11
1.197240
 21
1.666280
 12
0.805200
 22
2.335960
 13
1.166000
 23
1.693120
  0
POLYLINE
  8
0
  6
CONTINUOUS
 66
     1
 40
0.000000
 41
0.000000
  0
VERTEX
  8
0
  6
CONTINUOUS
 10
0.836440
 20
2.309120
  0
VERTEX
  8
0
  6
CONTINUOUS
 10
1.197240
 20
1.666280
  0
VERTEX
  8
0
  6
CONTINUOUS
 10
1.166000
 20
1.693120
  0
VERTEX
  8
0
  6
CONTINUOUS
 10
0.805200
 20
2.335960
  0
VERTEX
  8
0
  6
CONTINUOUS
 10
0.836440
 20
2.309120
  0
SEQEND
  8
0
  0
SOLID
  8
0
 62
    15
 10
0.805200
 20
2.335960
 11
1.166000
 21
1.693120
 12
0.770880
 22
2.358840
 13
1.131680
 23
1.716000
  0
POLYLINE
  8
0
  6
CONTINUOUS
 66
     1
 40
0.000000
 41
0.000000
  0
VERTEX
  8
0
  6
CONTINUOUS
 10
0.805200
 20
2.335960
  0
VERTEX
  8
0
  6
CONTINUOUS
 10
1.166000
 20
1.693120
  0
VERTEX
  8
0
  6
CONTINUOUS
 10
1.131680
 20
1.716000
  0
VERTEX
  8
0
  6
CONTINUOUS
 10
0.770880
 20
2.358840
  0
VERTEX
  8
0
  6
CONTINUOUS
 10
0.805200
 20
2.335960
  0
SEQEND
  8
0
  0
SOLID
  8
0
 62
    15
 10
0.770880
 20
2.358840
 11
1.131680
 21
1.716000
 12
0.733040
 22
2.377320
 13
1.093840
 23
1.734920
  0
POLYLINE
  8
0
  6
CONTINUOUS
 66
     1
 40
0.000000
 41
0.000000
  0
VERTEX
  8
0
  6
CONTINUOUS
 10
0.770880
 20
2.358840
  0
VERTEX
  8
0
  6
CONTINUOUS
 10
1.131680
 20
1.716000
  0
VERTEX
  8
0
  6
CONTINUOUS
 10
1.093840
 20
1.734920
  0
VERTEX
  8
0
  6
CONTINUOUS
 10
0.733040
 20
2.377320
  0
VERTEX
  8
0
  6
CONTINUOUS
 10
0.770880
 20
2.358840
  0
SEQEND
  8
0
  0
SOLID
  8
0
 62
    15
 10
0.733040
 20
2.377320
 11
1.093840
 21
1.734920
 12
0.692120
 22
2.392280
 13
1.052920
 23
1.749880
  0
POLYLINE
  8
0
  6
CONTINUOUS
 66
     1
 40
0.000000
 41
0.000000
  0
VERTEX
  8
0
  6
CONTINUOUS
 10
0.733040
 20
2.377320
  0
VERTEX
  8
0
  6
CONTINUOUS
 10
1.093840
 20
1.734920
  0
VERTEX
  8
0
  6
CONTINUOUS
 10
1.052920
 20
1.749880
  0
VERTEX
  8
0
  6
CONTINUOUS
 10
0.692120
 20
2.392280
  0
VERTEX
  8
0
  6
CONTINUOUS
 10
0.733040
 20
2.377320
  0
SEQEND
  8
0
  0
SOLID
  8
0
 62
    15
 10
0.889240
 20
2.242680
 11
1.249600
 21
1.599840
 12
0.864600
 22
2.277880
 13
1.224960
 23
1.635040
  0
POLYLINE
  8
0
  6
CONTINUOUS
 66
     1
 40
0.000000
 41
0.000000
  0
VERTEX
  8
0
  6
CONTINUOUS
 10
0.889240
 20
2.242680
  0
VERTEX
  8
0
  6
CONTINUOUS
 10
1.249600
 20
1.599840
  0
VERTEX
  8
0
  6
CONTINUOUS
 10
1.224960
 20
1.635040
  0
VERTEX
  8
0
  6
CONTINUOUS
 10
0.864600
 20
2.277880
  0
VERTEX
  8
0
  6
CONTINUOUS
 10
0.889240
 20
2.242680
  0
SEQEND
  8
0
  0
SOLID
  8
0
 62
    15
 10
0.648120
 20
2.403720
 11
1.008920
 21
1.760880
 12
0.600600
 22
2.411200
 13
0.961400
 23
1.768800
  0
POLYLINE
  8
0
  6
CONTINUOUS
 66
     1
 40
0.000000
 41
0.000000
  0
VERTEX
  8
0
  6
CONTINUOUS
 10
0.648120
 20
2.403720
  0
VERTEX
  8
0
  6
CONTINUOUS
 10
1.008920
 20
1.760880
  0
VERTEX
  8
0
  6
CONTINUOUS
 10
0.961400
 20
1.768800
  0
VERTEX
  8
0
  6
CONTINUOUS
 10
0.600600
 20
2.411200
  0
VERTEX
  8
0
  6
CONTINUOUS
 10
0.648120
 20
2.403720
  0
SEQEND
  8
0
  0
SOLID
  8
0
 62
    15
 10
0.600600
 20
2.411200
 11
0.961400
 21
1.768800
 12
0.550000
 22
2.415600
 13
0.910800
 23
1.772760
  0
POLYLINE
  8
0
  6
CONTINUOUS
 66
     1
 40
0.000000
 41
0.000000
  0
VERTEX
  8
0
  6
CONTINUOUS
 10
0.600600
 20
2.411200
  0
VERTEX
  8
0
  6
CONTINUOUS
 10
0.961400
 20
1.768800
  0
VERTEX
  8
0
  6
CONTINUOUS
 10
0.910800
 20
1.772760
  0
VERTEX
  8
0
  6
CONTINUOUS
 10
0.550000
 20
2.415600
  0
VERTEX
  8
0
  6
CONTINUOUS
 10
0.600600
 20
2.411200
  0
SEQEND
  8
0
  0
SOLID
  8
0
 62
    15
 10
0.550000
 20
2.415600
 11
0.910800
 21
1.772760
 12
0.495880
 22
2.416040
 13
0.856680
 23
1.773640
  0
POLYLINE
  8
0
  6
CONTINUOUS
 66
     1
 40
0.000000
 41
0.000000
  0
VERTEX
  8
0
  6
CONTINUOUS
 10
0.550000
 20
2.415600
  0
VERTEX
  8
0
  6
CONTINUOUS
 10
0.910800
 20
1.772760
  0
VERTEX
  8
0
  6
CONTINUOUS
 10
0.856680
 20
1.773640
  0
VERTEX
  8
0
  6
CONTINUOUS
 10
0.495880
 20
2.416040
  0
VERTEX
  8
0
  6
CONTINUOUS
 10
0.550000
 20
2.415600
  0
SEQEND
  8
0
  0
SOLID
  8
0
 62
    15
 10
1.106600
 20
2.693240
 11
1.467400
 21
2.050840
 12
1.106600
 22
1.933360
 13
1.467400
 23
1.290960
  0
POLYLINE
  8
0
  6
CONTINUOUS
 66
     1
 40
0.000000
 41
0.000000
  0
VERTEX
  8
0
  6
CONTINUOUS
 10
1.106600
 20
2.693240
  0
VERTEX
  8
0
  6
CONTINUOUS
 10
1.467400
 20
2.050840
  0
VERTEX
  8
0
  6
CONTINUOUS
 10
1.467400
 20
1.290960
  0
VERTEX
  8
0
  6
CONTINUOUS
 10
1.106600
 20
1.933360
  0
VERTEX
  8
0
  6
CONTINUOUS
 10
1.106600
 20
2.693240
  0
SEQEND
  8
0
  0
SOLID
  8
0
 62
    15
 10
1.106600
 20
1.933360
 11
1.467400
 21
1.290960
 12
0.968000
 22
1.933360
 13
1.328800
 23
1.290960
  0
POLYLINE
  8
0
  6
CONTINUOUS
 66
     1
 40
0.000000
 41
0.000000
  0
VERTEX
  8
0
  6
CONTINUOUS
 10
1.106600
 20
1.933360
  0
VERTEX
  8
0
  6
CONTINUOUS
 10
1.467400
 20
1.290960
  0
VERTEX
  8
0
  6
CONTINUOUS
 10
1.328800
 20
1.290960
  0
VERTEX
  8
0
  6
CONTINUOUS
 10
0.968000
 20
1.933360
  0
VERTEX
  8
0
  6
CONTINUOUS
 10
1.106600
 20
1.933360
  0
SEQEND
  8
0
  0
POLYLINE
  8
0
  6
CONTINUOUS
 66
     1
 40
0.000000
 41
0.000000
  0
VERTEX
  8
0
  6
CONTINUOUS
 10
0.968000
 20
1.934680
  0
VERTEX
  8
0
  6
CONTINUOUS
 10
0.963160
 20
1.998040
  0
VERTEX
  8
0
  6
CONTINUOUS
 10
0.954800
 20
2.056560
  0
VERTEX
  8
0
  6
CONTINUOUS
 10
0.943360
 20
2.109800
  0
VERTEX
  8
0
  6
CONTINUOUS
 10
0.928400
 20
2.158640
  0
VERTEX
  8
0
  6
CONTINUOUS
 10
0.910360
 20
2.203080
  0
VERTEX
  8
0
  6
CONTINUOUS
 10
0.889240
 20
2.242680
  0
VERTEX
  8
0
  6
CONTINUOUS
 10
0.864600
 20
2.277880
  0
VERTEX
  8
0
  6
CONTINUOUS
 10
0.836440
 20
2.309120
  0
VERTEX
  8
0
  6
CONTINUOUS
 10
0.805200
 20
2.335960
  0
VERTEX
  8
0
  6
CONTINUOUS
 10
0.770880
 20
2.358840
  0
VERTEX
  8
0
  6
CONTINUOUS
 10
0.733040
 20
2.377320
  0
VERTEX
  8
0
  6
CONTINUOUS
 10
0.692120
 20
2.392280
  0
VERTEX
  8
0
  6
CONTINUOUS
 10
0.648120
 20
2.403720
  0
VERTEX
  8
0
  6
CONTINUOUS
 10
0.600600
 20
2.411200
  0
VERTEX
  8
0
  6
CONTINUOUS
 10
0.550000
 20
2.415600
  0
VERTEX
  8
0
  6
CONTINUOUS
 10
0.495880
 20
2.416040
  0
VERTEX
  8
0
  6
CONTINUOUS
 10
0.495880
 20
2.693240
  0
VERTEX
  8
0
  6
CONTINUOUS
 10
1.106600
 20
2.693240
  0
VERTEX
  8
0
  6
CONTINUOUS
 10
1.106600
 20
1.933360
  0
VERTEX
  8
0
  6
CONTINUOUS
 10
0.968000
 20
1.933360
  0
VERTEX
  8
0
  6
CONTINUOUS
 10
0.968000
 20
1.934680
  0
SEQEND
  8
0
  0
SOLID
  8
0
 62
    15
 10
1.105720
 20
8.536000
 11
1.478840
 21
7.888320
 12
0.495440
 22
8.536000
 13
0.868120
 23
7.888320
  0
POLYLINE
  8
0
  6
CONTINUOUS
 66
     1
 40
0.000000
 41
0.000000
  0
VERTEX
  8
0
  6
CONTINUOUS
 10
1.105720
 20
8.536000
  0
VERTEX
  8
0
  6
CONTINUOUS
 10
1.478840
 20
7.888320
  0
VERTEX
  8
0
  6
CONTINUOUS
 10
0.868120
 20
7.888320
  0
VERTEX
  8
0
  6
CONTINUOUS
 10
0.495440
 20
8.536000
  0
VERTEX
  8
0
  6
CONTINUOUS
 10
1.105720
 20
8.536000
  0
SEQEND
  8
0
  0
SOLID
  8
0
 62
    15
 10
1.105720
 20
9.295880
 11
1.478840
 21
8.648640
 12
1.105720
 22
8.536000
 13
1.478840
 23
7.888320
  0
POLYLINE
  8
0
  6
CONTINUOUS
 66
     1
 40
0.000000
 41
0.000000
  0
VERTEX
  8
0
  6
CONTINUOUS
 10
1.105720
 20
9.295880
  0
VERTEX
  8
0
  6
CONTINUOUS
 10
1.478840
 20
8.648640
  0
VERTEX
  8
0
  6
CONTINUOUS
 10
1.478840
 20
7.888320
  0
VERTEX
  8
0
  6
CONTINUOUS
 10
1.105720
 20
8.536000
  0
VERTEX
  8
0
  6
CONTINUOUS
 10
1.105720
 20
9.295880
  0
SEQEND
  8
0
  0
POLYLINE
  8
0
  6
CONTINUOUS
 66
     1
 40
0.000000
 41
0.000000
  0
VERTEX
  8
0
  6
CONTINUOUS
 10
0.967120
 20
9.295880
  0
VERTEX
  8
0
  6
CONTINUOUS
 10
1.105720
 20
9.295880
  0
VERTEX
  8
0
  6
CONTINUOUS
 10
1.105720
 20
8.536000
  0
VERTEX
  8
0
  6
CONTINUOUS
 10
0.495440
 20
8.536000
  0
VERTEX
  8
0
  6
CONTINUOUS
 10
0.495440
 20
8.813200
  0
VERTEX
  8
0
  6
CONTINUOUS
 10
0.549120
 20
8.814080
  0
VERTEX
  8
0
  6
CONTINUOUS
 10
0.599720
 20
8.818040
  0
VERTEX
  8
0
  6
CONTINUOUS
 10
0.647240
 20
8.825520
  0
VERTEX
  8
0
  6
CONTINUOUS
 10
0.691240
 20
8.836960
  0
VERTEX
  8
0
  6
CONTINUOUS
 10
0.732160
 20
8.851920
  0
VERTEX
  8
0
  6
CONTINUOUS
 10
0.770000
 20
8.870840
  0
VERTEX
  8
0
  6
CONTINUOUS
 10
0.804320
 20
8.893280
  0
VERTEX
  8
0
  6
CONTINUOUS
 10
0.835560
 20
8.920560
  0
VERTEX
  8
0
  6
CONTINUOUS
 10
0.863720
 20
8.951360
  0
VERTEX
  8
0
  6
CONTINUOUS
 10
0.888360
 20
8.986560
  0
VERTEX
  8
0
  6
CONTINUOUS
 10
0.909480
 20
9.026600
  0
VERTEX
  8
0
  6
CONTINUOUS
 10
0.927960
 20
9.070600
  0
VERTEX
  8
0
  6
CONTINUOUS
 10
0.942480
 20
9.119440
  0
VERTEX
  8
0
  6
CONTINUOUS
 10
0.953920
 20
9.173120
  0
VERTEX
  8
0
  6
CONTINUOUS
 10
0.962280
 20
9.231200
  0
VERTEX
  8
0
  6
CONTINUOUS
 10
0.967120
 20
9.294560
  0
VERTEX
  8
0
  6
CONTINUOUS
 10
0.967120
 20
9.295880
  0
SEQEND
  8
0
  0
SOLID
  8
0
 62
    15
 10
3.307920
 20
3.396800
 11
3.608000
 21
2.781240
 12
3.204080
 22
3.160080
 13
3.504600
 23
2.544520
  0
POLYLINE
  8
0
  6
CONTINUOUS
 66
     1
 40
0.000000
 41
0.000000
  0
VERTEX
  8
0
  6
CONTINUOUS
 10
3.307920
 20
3.396800
  0
VERTEX
  8
0
  6
CONTINUOUS
 10
3.608000
 20
2.781240
  0
VERTEX
  8
0
  6
CONTINUOUS
 10
3.504600
 20
2.544520
  0
VERTEX
  8
0
  6
CONTINUOUS
 10
3.204080
 20
3.160080
  0
VERTEX
  8
0
  6
CONTINUOUS
 10
3.307920
 20
3.396800
  0
SEQEND
  8
0
  0
SOLID
  8
0
 62
    15
 10
3.307920
 20
7.844320
 11
3.608000
 21
7.228760
 12
3.408240
 22
7.593520
 13
3.708320
 23
6.977960
  0
POLYLINE
  8
0
  6
CONTINUOUS
 66
     1
 40
0.000000
 41
0.000000
  0
VERTEX
  8
0
  6
CONTINUOUS
 10
3.307920
 20
7.844320
  0
VERTEX
  8
0
  6
CONTINUOUS
 10
3.608000
 20
7.228760
  0
VERTEX
  8
0
  6
CONTINUOUS
 10
3.708320
 20
6.977960
  0
VERTEX
  8
0
  6
CONTINUOUS
 10
3.408240
 20
7.593520
  0
VERTEX
  8
0
  6
CONTINUOUS
 10
3.307920
 20
7.844320
  0
SEQEND
  8
0
  0
SOLID
  8
0
 62
    15
 10
3.408240
 20
7.593520
 11
3.708320
 21
6.977960
 12
3.502840
 22
7.325560
 13
3.802920
 23
6.710000
  0
POLYLINE
  8
0
  6
CONTINUOUS
 66
     1
 40
0.000000
 41
0.000000
  0
VERTEX
  8
0
  6
CONTINUOUS
 10
3.408240
 20
7.593520
  0
VERTEX
  8
0
  6
CONTINUOUS
 10
3.708320
 20
6.977960
  0
VERTEX
  8
0
  6
CONTINUOUS
 10
3.802920
 20
6.710000
  0
VERTEX
  8
0
  6
CONTINUOUS
 10
3.502840
 20
7.325560
  0
VERTEX
  8
0
  6
CONTINUOUS
 10
3.408240
 20
7.593520
  0
SEQEND
  8
0
  0
SOLID
  8
0
 62
    15
 10
3.502840
 20
7.325560
 11
3.802920
 21
6.710000
 12
3.588640
 22
7.036920
 13
3.888720
 23
6.421360
  0
POLYLINE
  8
0
  6
CONTINUOUS
 66
     1
 40
0.000000
 41
0.000000
  0
VERTEX
  8
0
  6
CONTINUOUS
 10
3.502840
 20
7.325560
  0
VERTEX
  8
0
  6
CONTINUOUS
 10
3.802920
 20
6.710000
  0
VERTEX
  8
0
  6
CONTINUOUS
 10
3.888720
 20
6.421360
  0
VERTEX
  8
0
  6
CONTINUOUS
 10
3.588640
 20
7.036920
  0
VERTEX
  8
0
  6
CONTINUOUS
 10
3.502840
 20
7.325560
  0
SEQEND
  8
0
  0
SOLID
  8
0
 62
    15
 10
3.588640
 20
7.036920
 11
3.888720
 21
6.421360
 12
3.663440
 22
6.724960
 13
3.963520
 23
6.109400
  0
POLYLINE
  8
0
  6
CONTINUOUS
 66
     1
 40
0.000000
 41
0.000000
  0
VERTEX
  8
0
  6
CONTINUOUS
 10
3.588640
 20
7.036920
  0
VERTEX
  8
0
  6
CONTINUOUS
 10
3.888720
 20
6.421360
  0
VERTEX
  8
0
  6
CONTINUOUS
 10
3.963520
 20
6.109400
  0
VERTEX
  8
0
  6
CONTINUOUS
 10
3.663440
 20
6.724960
  0
VERTEX
  8
0
  6
CONTINUOUS
 10
3.588640
 20
7.036920
  0
SEQEND
  8
0
  0
SOLID
  8
0
 62
    15
 10
3.663440
 20
6.724960
 11
3.963520
 21
6.109400
 12
3.723720
 22
6.386600
 13
4.023800
 23
5.771040
  0
POLYLINE
  8
0
  6
CONTINUOUS
 66
     1
 40
0.000000
 41
0.000000
  0
VERTEX
  8
0
  6
CONTINUOUS
 10
3.663440
 20
6.724960
  0
VERTEX
  8
0
  6
CONTINUOUS
 10
3.963520
 20
6.109400
  0
VERTEX
  8
0
  6
CONTINUOUS
 10
4.023800
 20
5.771040
  0
VERTEX
  8
0
  6
CONTINUOUS
 10
3.723720
 20
6.386600
  0
VERTEX
  8
0
  6
CONTINUOUS
 10
3.663440
 20
6.724960
  0
SEQEND
  8
0
  0
SOLID
  8
0
 62
    15
 10
3.723720
 20
6.386600
 11
4.023800
 21
5.771040
 12
3.767720
 22
6.019200
 13
4.067800
 23
5.403200
  0
POLYLINE
  8
0
  6
CONTINUOUS
 66
     1
 40
0.000000
 41
0.000000
  0
VERTEX
  8
0
  6
CONTINUOUS
 10
3.723720
 20
6.386600
  0
VERTEX
  8
0
  6
CONTINUOUS
 10
4.023800
 20
5.771040
  0
VERTEX
  8
0
  6
CONTINUOUS
 10
4.067800
 20
5.403200
  0
VERTEX
  8
0
  6
CONTINUOUS
 10
3.767720
 20
6.019200
  0
VERTEX
  8
0
  6
CONTINUOUS
 10
3.723720
 20
6.386600
  0
SEQEND
  8
0
  0
SOLID
  8
0
 62
    15
 10
3.792360
 20
5.622320
 11
4.092440
 21
5.006760
 12
3.768160
 22
5.222360
 13
4.068240
 23
4.606800
  0
POLYLINE
  8
0
  6
CONTINUOUS
 66
     1
 40
0.000000
 41
0.000000
  0
VERTEX
  8
0
  6
CONTINUOUS
 10
3.792360
 20
5.622320
  0
VERTEX
  8
0
  6
CONTINUOUS
 10
4.092440
 20
5.006760
  0
VERTEX
  8
0
  6
CONTINUOUS
 10
4.068240
 20
4.606800
  0
VERTEX
  8
0
  6
CONTINUOUS
 10
3.768160
 20
5.222360
  0
VERTEX
  8
0
  6
CONTINUOUS
 10
3.792360
 20
5.622320
  0
SEQEND
  8
0
  0
SOLID
  8
0
 62
    15
 10
3.767720
 20
6.019200
 11
4.067800
 21
5.403200
 12
3.791920
 22
5.618800
 13
4.092000
 23
5.003240
  0
POLYLINE
  8
0
  6
CONTINUOUS
 66
     1
 40
0.000000
 41
0.000000
  0
VERTEX
  8
0
  6
CONTINUOUS
 10
3.767720
 20
6.019200
  0
VERTEX
  8
0
  6
CONTINUOUS
 10
4.067800
 20
5.403200
  0
VERTEX
  8
0
  6
CONTINUOUS
 10
4.092000
 20
5.003240
  0
VERTEX
  8
0
  6
CONTINUOUS
 10
3.791920
 20
5.618800
  0
VERTEX
  8
0
  6
CONTINUOUS
 10
3.767720
 20
6.019200
  0
SEQEND
  8
0
  0
SOLID
  8
0
 62
    15
 10
3.768160
 20
5.222360
 11
4.068240
 21
4.606800
 12
3.724160
 22
4.854520
 13
4.024240
 23
4.238960
  0
POLYLINE
  8
0
  6
CONTINUOUS
 66
     1
 40
0.000000
 41
0.000000
  0
VERTEX
  8
0
  6
CONTINUOUS
 10
3.768160
 20
5.222360
  0
VERTEX
  8
0
  6
CONTINUOUS
 10
4.068240
 20
4.606800
  0
VERTEX
  8
0
  6
CONTINUOUS
 10
4.024240
 20
4.238960
  0
VERTEX
  8
0
  6
CONTINUOUS
 10
3.724160
 20
4.854520
  0
VERTEX
  8
0
  6
CONTINUOUS
 10
3.768160
 20
5.222360
  0
SEQEND
  8
0
  0
SOLID
  8
0
 62
    15
 10
3.724160
 20
4.854520
 11
4.024240
 21
4.238960
 12
3.663440
 22
4.516160
 13
3.963960
 23
3.900600
  0
POLYLINE
  8
0
  6
CONTINUOUS
 66
     1
 40
0.000000
 41
0.000000
  0
VERTEX
  8
0
  6
CONTINUOUS
 10
3.724160
 20
4.854520
  0
VERTEX
  8
0
  6
CONTINUOUS
 10
4.024240
 20
4.238960
  0
VERTEX
  8
0
  6
CONTINUOUS
 10
3.963960
 20
3.900600
  0
VERTEX
  8
0
  6
CONTINUOUS
 10
3.663440
 20
4.516160
  0
VERTEX
  8
0
  6
CONTINUOUS
 10
3.724160
 20
4.854520
  0
SEQEND
  8
0
  0
SOLID
  8
0
 62
    15
 10
3.663440
 20
4.516160
 11
3.963960
 21
3.900600
 12
3.589080
 22
4.204200
 13
3.889160
 23
3.588640
  0
POLYLINE
  8
0
  6
CONTINUOUS
 66
     1
 40
0.000000
 41
0.000000
  0
VERTEX
  8
0
  6
CONTINUOUS
 10
3.663440
 20
4.516160
  0
VERTEX
  8
0
  6
CONTINUOUS
 10
3.963960
 20
3.900600
  0
VERTEX
  8
0
  6
CONTINUOUS
 10
3.889160
 20
3.588640
  0
VERTEX
  8
0
  6
CONTINUOUS
 10
3.589080
 20
4.204200
  0
VERTEX
  8
0
  6
CONTINUOUS
 10
3.663440
 20
4.516160
  0
SEQEND
  8
0
  0
SOLID
  8
0
 62
    15
 10
3.589080
 20
4.204200
 11
3.889160
 21
3.588640
 12
3.503280
 22
3.916000
 13
3.803360
 23
3.300440
  0
POLYLINE
  8
0
  6
CONTINUOUS
 66
     1
 40
0.000000
 41
0.000000
  0
VERTEX
  8
0
  6
CONTINUOUS
 10
3.589080
 20
4.204200
  0
VERTEX
  8
0
  6
CONTINUOUS
 10
3.889160
 20
3.588640
  0
VERTEX
  8
0
  6
CONTINUOUS
 10
3.803360
 20
3.300440
  0
VERTEX
  8
0
  6
CONTINUOUS
 10
3.503280
 20
3.916000
  0
VERTEX
  8
0
  6
CONTINUOUS
 10
3.589080
 20
4.204200
  0
SEQEND
  8
0
  0
SOLID
  8
0
 62
    15
 10
3.503280
 20
3.916000
 11
3.803360
 21
3.300440
 12
3.408680
 22
3.647600
 13
3.708760
 23
3.032040
  0
POLYLINE
  8
0
  6
CONTINUOUS
 66
     1
 40
0.000000
 41
0.000000
  0
VERTEX
  8
0
  6
CONTINUOUS
 10
3.503280
 20
3.916000
  0
VERTEX
  8
0
  6
CONTINUOUS
 10
3.803360
 20
3.300440
  0
VERTEX
  8
0
  6
CONTINUOUS
 10
3.708760
 20
3.032040
  0
VERTEX
  8
0
  6
CONTINUOUS
 10
3.408680
 20
3.647600
  0
VERTEX
  8
0
  6
CONTINUOUS
 10
3.503280
 20
3.916000
  0
SEQEND
  8
0
  0
SOLID
  8
0
 62
    15
 10
3.408680
 20
3.647600
 11
3.708760
 21
3.032040
 12
3.307920
 22
3.396800
 13
3.608000
 23
2.781240
  0
POLYLINE
  8
0
  6
CONTINUOUS
 66
     1
 40
0.000000
 41
0.000000
  0
VERTEX
  8
0
  6
CONTINUOUS
 10
3.408680
 20
3.647600
  0
VERTEX
  8
0
  6
CONTINUOUS
 10
3.708760
 20
3.032040
  0
VERTEX
  8
0
  6
CONTINUOUS
 10
3.608000
 20
2.781240
  0
VERTEX
  8
0
  6
CONTINUOUS
 10
3.307920
 20
3.396800
  0
VERTEX
  8
0
  6
CONTINUOUS
 10
3.408680
 20
3.647600
  0
SEQEND
  8
0
  0
SOLID
  8
0
 62
    15
 10
3.204080
 20
8.081040
 11
3.504160
 21
7.465480
 12
3.307920
 22
7.844320
 13
3.608000
 23
7.228760
  0
POLYLINE
  8
0
  6
CONTINUOUS
 66
     1
 40
0.000000
 41
0.000000
  0
VERTEX
  8
0
  6
CONTINUOUS
 10
3.204080
 20
8.081040
  0
VERTEX
  8
0
  6
CONTINUOUS
 10
3.504160
 20
7.465480
  0
VERTEX
  8
0
  6
CONTINUOUS
 10
3.608000
 20
7.228760
  0
VERTEX
  8
0
  6
CONTINUOUS
 10
3.307920
 20
7.844320
  0
VERTEX
  8
0
  6
CONTINUOUS
 10
3.204080
 20
8.081040
  0
SEQEND
  8
0
  0
SOLID
  8
0
 62
    15
 10
3.204080
 20
3.160080
 11
3.504600
 21
2.544520
 12
3.036440
 22
2.818640
 13
3.336520
 23
2.203080
  0
POLYLINE
  8
0
  6
CONTINUOUS
 66
     1
 40
0.000000
 41
0.000000
  0
VERTEX
  8
0
  6
CONTINUOUS
 10
3.204080
 20
3.160080
  0
VERTEX
  8
0
  6
CONTINUOUS
 10
3.504600
 20
2.544520
  0
VERTEX
  8
0
  6
CONTINUOUS
 10
3.336520
 20
2.203080
  0
VERTEX
  8
0
  6
CONTINUOUS
 10
3.036440
 20
2.818640
  0
VERTEX
  8
0
  6
CONTINUOUS
 10
3.204080
 20
3.160080
  0
SEQEND
  8
0
  0
SOLID
  8
0
 62
    15
 10
3.036440
 20
2.818640
 11
3.336520
 21
2.203080
 12
2.863080
 22
2.518560
 13
3.163160
 23
1.902560
  0
POLYLINE
  8
0
  6
CONTINUOUS
 66
     1
 40
0.000000
 41
0.000000
  0
VERTEX
  8
0
  6
CONTINUOUS
 10
3.036440
 20
2.818640
  0
VERTEX
  8
0
  6
CONTINUOUS
 10
3.336520
 20
2.203080
  0
VERTEX
  8
0
  6
CONTINUOUS
 10
3.163160
 20
1.902560
  0
VERTEX
  8
0
  6
CONTINUOUS
 10
2.863080
 20
2.518560
  0
VERTEX
  8
0
  6
CONTINUOUS
 10
3.036440
 20
2.818640
  0
SEQEND
  8
0
  0
SOLID
  8
0
 62
    15
 10
2.863080
 20
2.518560
 11
3.163160
 21
1.902560
 12
2.686200
 22
2.258080
 13
2.986280
 23
1.642520
  0
POLYLINE
  8
0
  6
CONTINUOUS
 66
     1
 40
0.000000
 41
0.000000
  0
VERTEX
  8
0
  6
CONTINUOUS
 10
2.863080
 20
2.518560
  0
VERTEX
  8
0
  6
CONTINUOUS
 10
3.163160
 20
1.902560
  0
VERTEX
  8
0
  6
CONTINUOUS
 10
2.986280
 20
1.642520
  0
VERTEX
  8
0
  6
CONTINUOUS
 10
2.686200
 20
2.258080
  0
VERTEX
  8
0
  6
CONTINUOUS
 10
2.863080
 20
2.518560
  0
SEQEND
  8
0
  0
SOLID
  8
0
 62
    15
 10
2.508000
 20
2.036760
 11
2.808080
 21
1.421200
 12
2.331120
 22
1.852400
 13
2.631200
 23
1.236840
  0
POLYLINE
  8
0
  6
CONTINUOUS
 66
     1
 40
0.000000
 41
0.000000
  0
VERTEX
  8
0
  6
CONTINUOUS
 10
2.508000
 20
2.036760
  0
VERTEX
  8
0
  6
CONTINUOUS
 10
2.808080
 20
1.421200
  0
VERTEX
  8
0
  6
CONTINUOUS
 10
2.631200
 20
1.236840
  0
VERTEX
  8
0
  6
CONTINUOUS
 10
2.331120
 20
1.852400
  0
VERTEX
  8
0
  6
CONTINUOUS
 10
2.508000
 20
2.036760
  0
SEQEND
  8
0
  0
SOLID
  8
0
 62
    15
 10
2.686200
 20
2.258080
 11
2.986280
 21
1.642520
 12
2.508000
 22
2.036760
 13
2.808080
 23
1.421200
  0
POLYLINE
  8
0
  6
CONTINUOUS
 66
     1
 40
0.000000
 41
0.000000
  0
VERTEX
  8
0
  6
CONTINUOUS
 10
2.686200
 20
2.258080
  0
VERTEX
  8
0
  6
CONTINUOUS
 10
2.986280
 20
1.642520
  0
VERTEX
  8
0
  6
CONTINUOUS
 10
2.808080
 20
1.421200
  0
VERTEX
  8
0
  6
CONTINUOUS
 10
2.508000
 20
2.036760
  0
VERTEX
  8
0
  6
CONTINUOUS
 10
2.686200
 20
2.258080
  0
SEQEND
  8
0
  0
SOLID
  8
0
 62
    15
 10
2.331120
 20
1.852400
 11
2.631200
 21
1.236840
 12
2.157320
 22
1.703240
 13
2.457400
 23
1.087680
  0
POLYLINE
  8
0
  6
CONTINUOUS
 66
     1
 40
0.000000
 41
0.000000
  0
VERTEX
  8
0
  6
CONTINUOUS
 10
2.331120
 20
1.852400
  0
VERTEX
  8
0
  6
CONTINUOUS
 10
2.631200
 20
1.236840
  0
VERTEX
  8
0
  6
CONTINUOUS
 10
2.457400
 20
1.087680
  0
VERTEX
  8
0
  6
CONTINUOUS
 10
2.157320
 20
1.703240
  0
VERTEX
  8
0
  6
CONTINUOUS
 10
2.331120
 20
1.852400
  0
SEQEND
  8
0
  0
SOLID
  8
0
 62
    15
 10
2.157320
 20
1.703240
 11
2.457400
 21
1.087680
 12
1.989680
 22
1.588840
 13
2.289760
 23
0.973280
  0
POLYLINE
  8
0
  6
CONTINUOUS
 66
     1
 40
0.000000
 41
0.000000
  0
VERTEX
  8
0
  6
CONTINUOUS
 10
2.157320
 20
1.703240
  0
VERTEX
  8
0
  6
CONTINUOUS
 10
2.457400
 20
1.087680
  0
VERTEX
  8
0
  6
CONTINUOUS
 10
2.289760
 20
0.973280
  0
VERTEX
  8
0
  6
CONTINUOUS
 10
1.989680
 20
1.588840
  0
VERTEX
  8
0
  6
CONTINUOUS
 10
2.157320
 20
1.703240
  0
SEQEND
  8
0
  0
SOLID
  8
0
 62
    15
 10
1.989680
 20
1.588840
 11
2.289760
 21
0.973280
 12
1.829520
 22
1.507000
 13
2.129600
 23
0.891440
  0
POLYLINE
  8
0
  6
CONTINUOUS
 66
     1
 40
0.000000
 41
0.000000
  0
VERTEX
  8
0
  6
CONTINUOUS
 10
1.989680
 20
1.588840
  0
VERTEX
  8
0
  6
CONTINUOUS
 10
2.289760
 20
0.973280
  0
VERTEX
  8
0
  6
CONTINUOUS
 10
2.129600
 20
0.891440
  0
VERTEX
  8
0
  6
CONTINUOUS
 10
1.829520
 20
1.507000
  0
VERTEX
  8
0
  6
CONTINUOUS
 10
1.989680
 20
1.588840
  0
SEQEND
  8
0
  0
SOLID
  8
0
 62
    15
 10
1.829520
 20
1.507000
 11
2.129600
 21
0.891440
 12
1.679480
 22
1.456840
 13
1.980000
 23
0.841280
  0
POLYLINE
  8
0
  6
CONTINUOUS
 66
     1
 40
0.000000
 41
0.000000
  0
VERTEX
  8
0
  6
CONTINUOUS
 10
1.829520
 20
1.507000
  0
VERTEX
  8
0
  6
CONTINUOUS
 10
2.129600
 20
0.891440
  0
VERTEX
  8
0
  6
CONTINUOUS
 10
1.980000
 20
0.841280
  0
VERTEX
  8
0
  6
CONTINUOUS
 10
1.679480
 20
1.456840
  0
VERTEX
  8
0
  6
CONTINUOUS
 10
1.829520
 20
1.507000
  0
SEQEND
  8
0
  0
SOLID
  8
0
 62
    15
 10
1.679480
 20
1.456840
 11
1.980000
 21
0.841280
 12
1.542200
 22
1.436600
 13
1.842280
 23
0.821040
  0
POLYLINE
  8
0
  6
CONTINUOUS
 66
     1
 40
0.000000
 41
0.000000
  0
VERTEX
  8
0
  6
CONTINUOUS
 10
1.679480
 20
1.456840
  0
VERTEX
  8
0
  6
CONTINUOUS
 10
1.980000
 20
0.841280
  0
VERTEX
  8
0
  6
CONTINUOUS
 10
1.842280
 20
0.821040
  0
VERTEX
  8
0
  6
CONTINUOUS
 10
1.542200
 20
1.436600
  0
VERTEX
  8
0
  6
CONTINUOUS
 10
1.679480
 20
1.456840
  0
SEQEND
  8
0
  0
SOLID
  8
0
 62
    15
 10
1.542200
 20
1.436600
 11
1.842280
 21
0.821040
 12
1.419880
 22
1.444520
 13
1.719960
 23
0.828960
  0
POLYLINE
  8
0
  6
CONTINUOUS
 66
     1
 40
0.000000
 41
0.000000
  0
VERTEX
  8
0
  6
CONTINUOUS
 10
1.542200
 20
1.436600
  0
VERTEX
  8
0
  6
CONTINUOUS
 10
1.842280
 20
0.821040
  0
VERTEX
  8
0
  6
CONTINUOUS
 10
1.719960
 20
0.828960
  0
VERTEX
  8
0
  6
CONTINUOUS
 10
1.419880
 20
1.444520
  0
VERTEX
  8
0
  6
CONTINUOUS
 10
1.542200
 20
1.436600
  0
SEQEND
  8
0
  0
SOLID
  8
0
 62
    15
 10
1.419880
 20
1.444520
 11
1.719960
 21
0.828960
 12
1.313840
 22
1.479720
 13
1.614360
 23
0.864160
  0
POLYLINE
  8
0
  6
CONTINUOUS
 66
     1
 40
0.000000
 41
0.000000
  0
VERTEX
  8
0
  6
CONTINUOUS
 10
1.419880
 20
1.444520
  0
VERTEX
  8
0
  6
CONTINUOUS
 10
1.719960
 20
0.828960
  0
VERTEX
  8
0
  6
CONTINUOUS
 10
1.614360
 20
0.864160
  0
VERTEX
  8
0
  6
CONTINUOUS
 10
1.313840
 20
1.479720
  0
VERTEX
  8
0
  6
CONTINUOUS
 10
1.419880
 20
1.444520
  0
SEQEND
  8
0
  0
SOLID
  8
0
 62
    15
 10
1.313840
 20
1.479720
 11
1.614360
 21
0.864160
 12
1.227600
 22
1.540440
 13
1.527680
 23
0.924880
  0
POLYLINE
  8
0
  6
CONTINUOUS
 66
     1
 40
0.000000
 41
0.000000
  0
VERTEX
  8
0
  6
CONTINUOUS
 10
1.313840
 20
1.479720
  0
VERTEX
  8
0
  6
CONTINUOUS
 10
1.614360
 20
0.864160
  0
VERTEX
  8
0
  6
CONTINUOUS
 10
1.527680
 20
0.924880
  0
VERTEX
  8
0
  6
CONTINUOUS
 10
1.227600
 20
1.540440
  0
VERTEX
  8
0
  6
CONTINUOUS
 10
1.313840
 20
1.479720
  0
SEQEND
  8
0
  0
SOLID
  8
0
 62
    15
 10
1.227600
 20
1.540440
 11
1.527680
 21
0.924880
 12
1.162920
 22
1.625800
 13
1.463000
 23
1.010240
  0
POLYLINE
  8
0
  6
CONTINUOUS
 66
     1
 40
0.000000
 41
0.000000
  0
VERTEX
  8
0
  6
CONTINUOUS
 10
1.227600
 20
1.540440
  0
VERTEX
  8
0
  6
CONTINUOUS
 10
1.527680
 20
0.924880
  0
VERTEX
  8
0
  6
CONTINUOUS
 10
1.463000
 20
1.010240
  0
VERTEX
  8
0
  6
CONTINUOUS
 10
1.162920
 20
1.625800
  0
VERTEX
  8
0
  6
CONTINUOUS
 10
1.227600
 20
1.540440
  0
SEQEND
  8
0
  0
POLYLINE
  8
0
  6
CONTINUOUS
 66
     1
 40
0.000000
 41
0.000000
  0
VERTEX
  8
0
  6
CONTINUOUS
 10
1.106160
 20
1.871320
  0
VERTEX
  8
0
  6
CONTINUOUS
 10
1.106160
 20
9.378600
  0
VERTEX
  8
0
  6
CONTINUOUS
 10
1.121560
 20
9.507520
  0
VERTEX
  8
0
  6
CONTINUOUS
 10
1.162480
 20
9.615320
  0
VERTEX
  8
0
  6
CONTINUOUS
 10
1.227600
 20
9.700680
  0
VERTEX
  8
0
  6
CONTINUOUS
 10
1.313840
 20
9.761400
  0
VERTEX
  8
0
  6
CONTINUOUS
 10
1.419440
 20
9.796600
  0
VERTEX
  8
0
  6
CONTINUOUS
 10
1.542200
 20
9.804960
  0
VERTEX
  8
0
  6
CONTINUOUS
 10
1.679480
 20
9.784280
  0
VERTEX
  8
0
  6
CONTINUOUS
 10
1.829080
 20
9.734120
  0
VERTEX
  8
0
  6
CONTINUOUS
 10
1.989240
 20
9.652280
  0
VERTEX
  8
0
  6
CONTINUOUS
 10
2.156880
 20
9.537880
  0
VERTEX
  8
0
  6
CONTINUOUS
 10
2.330680
 20
9.389160
  0
VERTEX
  8
0
  6
CONTINUOUS
 10
2.507560
 20
9.204360
  0
VERTEX
  8
0
  6
CONTINUOUS
 10
2.685760
 20
8.983040
  0
VERTEX
  8
0
  6
CONTINUOUS
 10
2.862640
 20
8.723000
  0
VERTEX
  8
0
  6
CONTINUOUS
 10
3.036000
 20
8.422920
  0
VERTEX
  8
0
  6
CONTINUOUS
 10
3.204080
 20
8.081040
  0
VERTEX
  8
0
  6
CONTINUOUS
 10
3.307920
 20
7.844320
  0
VERTEX
  8
0
  6
CONTINUOUS
 10
3.408240
 20
7.593520
  0
VERTEX
  8
0
  6
CONTINUOUS
 10
3.502840
 20
7.325560
  0
VERTEX
  8
0
  6
CONTINUOUS
 10
3.588640
 20
7.036920
  0
VERTEX
  8
0
  6
CONTINUOUS
 10
3.663440
 20
6.724960
  0
VERTEX
  8
0
  6
CONTINUOUS
 10
3.723720
 20
6.386600
  0
VERTEX
  8
0
  6
CONTINUOUS
 10
3.767720
 20
6.019200
  0
VERTEX
  8
0
  6
CONTINUOUS
 10
3.791920
 20
5.618800
  0
VERTEX
  8
0
  6
CONTINUOUS
 10
3.792360
 20
5.622320
  0
VERTEX
  8
0
  6
CONTINUOUS
 10
3.768160
 20
5.222360
  0
VERTEX
  8
0
  6
CONTINUOUS
 10
3.724160
 20
4.854520
  0
VERTEX
  8
0
  6
CONTINUOUS
 10
3.663440
 20
4.516160
  0
VERTEX
  8
0
  6
CONTINUOUS
 10
3.589080
 20
4.204200
  0
VERTEX
  8
0
  6
CONTINUOUS
 10
3.503280
 20
3.916000
  0
VERTEX
  8
0
  6
CONTINUOUS
 10
3.408680
 20
3.647600
  0
VERTEX
  8
0
  6
CONTINUOUS
 10
3.307920
 20
3.396800
  0
VERTEX
  8
0
  6
CONTINUOUS
 10
3.204080
 20
3.160080
  0
VERTEX
  8
0
  6
CONTINUOUS
 10
3.036440
 20
2.818640
  0
VERTEX
  8
0
  6
CONTINUOUS
 10
2.863080
 20
2.518560
  0
VERTEX
  8
0
  6
CONTINUOUS
 10
2.686200
 20
2.258080
  0
VERTEX
  8
0
  6
CONTINUOUS
 10
2.508000
 20
2.036760
  0
VERTEX
  8
0
  6
CONTINUOUS
 10
2.331120
 20
1.852400
  0
VERTEX
  8
0
  6
CONTINUOUS
 10
2.157320
 20
1.703240
  0
VERTEX
  8
0
  6
CONTINUOUS
 10
1.989680
 20
1.588840
  0
VERTEX
  8
0
  6
CONTINUOUS
 10
1.829520
 20
1.507000
  0
VERTEX
  8
0
  6
CONTINUOUS
 10
1.679480
 20
1.456840
  0
VERTEX
  8
0
  6
CONTINUOUS
 10
1.542200
 20
1.436600
  0
VERTEX
  8
0
  6
CONTINUOUS
 10
1.419880
 20
1.444520
  0
VERTEX
  8
0
  6
CONTINUOUS
 10
1.313840
 20
1.479720
  0
VERTEX
  8
0
  6
CONTINUOUS
 10
1.227600
 20
1.540440
  0
VERTEX
  8
0
  6
CONTINUOUS
 10
1.162920
 20
1.625800
  0
VERTEX
  8
0
  6
CONTINUOUS
 10
1.121560
 20
1.733600
  0
VERTEX
  8
0
  6
CONTINUOUS
 10
1.106160
 20
1.871320
  0
SEQEND
  8
0
  0
LINE
  8
0
  6
CONTINUOUS
 10
0.497640
 20
8.536000
 11
0.873840
 21
7.884360
  0
TEXT
  8
0
 10
0.900680
 20
8.886240
 40
0.134665
  1
207
 50
269.819476
 41
1.000000
  7
SN0
 71
     0
 72
     5
 11
0.899817
 21
8.615350
  0
TEXT
  8
0
 10
1.187120
 20
8.886240
 40
0.134665
  1
795
 50
269.819476
 41
1.000000
  7
SN0
 71
     0
 72
     5
 11
1.186257
 21
8.615350
  0
ENDSEC
  0
EOF
