  0
SECTION
  2
HEADER
  9
$ACADVER
  1
AC1006
  9
$EXTMIN
 10
2.593360
 20
0.752840
  9
$EXTMAX
 10
7.109520
 20
4.089360
  9
$LTSCALE
 40
0.044000
  9
$PDMODE
 70
    35
  9
$PDSIZE
 40
0.035200
  0
ENDSEC
  0
SECTION
  2
TABLES
  0
TABLE
  2
LTYPE
 70
     9
  0
LTYPE
  2
CONTINUOUS
 70
    64
  3
Solid line
 72
    65
 73
     0
 40
0.000000
  0
LTYPE
  2
DASHED
 70
    64
  3
__ __ __ __ __ __ __ __ __ __ __ __ __ __ __
 72
    65
 73
     2
 40
0.000330
 49
0.000220
 49
-0.000110
  0
LTYPE
  2
HIDDEN
 70
    64
  3
 _ _ _ _ _ _ _ _ _ _ _ _ _ _ _ _ _ _ _ _ _ _
 72
    65
 73
     2
 40
0.000165
 49
0.000110
 49
-0.000055
  0
LTYPE
  2
CENTER
 70
    64
  3
____ _ ____ _ ____ _ ____ _ ____ _ ____ _ ____
 72
    65
 73
     4
 40
0.000880
 49
0.000550
 49
-0.000110
 49
0.000110
 49
-0.000110
  0
LTYPE
  2
PHANTOM
 70
    64
  3
_____ _ _ _____ _ _ _____ _ _ _____ _ _ ____
 72
    65
 73
     6
 40
0.001100
 49
0.000550
 49
-0.000110
 49
0.000110
 49
-0.000110
 49
0.000110
 49
-0.000110
  0
LTYPE
  2
DOT
 70
    64
  3
...............................................
 72
    65
 73
     2
 40
0.000110
 49
0.000000
 49
-0.000110
  0
LTYPE
  2
DASHDOT
 70
    64
  3
__ . __ . __ . __ . __ . __ . __ . __ . __ . __
 72
    65
 73
     4
 40
0.000440
 49
0.000220
 49
-0.000110
 49
0.000000
 49
-0.000110
  0
LTYPE
  2
BORDER
 70
    64
  3
__ __ . __ __ . __ __ . __ __ . __ __ . __ __
 72
    65
 73
     6
 40
0.000770
 49
0.000220
 49
-0.000110
 49
0.000220
 49
-0.000110
 49
0.000000
 49
-0.000110
  0
LTYPE
  2
DIVIDE
 70
    64
  3
__ . . __ . . __ . . __ . . __ . . __ . . __
 72
    65
 73
     6
 40
0.000550
 49
0.000220
 49
-0.000110
 49
0.000000
 49
-0.000110
 49
0.000000
 49
-0.000110
  0
LTYPE
  2
DOTDOT
 70
    64
  3
 . .  . .  . .  . .  . .  . . 
 72
    65
 73
     5
 40
0.000242
 49
-0.000110
 49
0.000000
 49
-0.000110
 49
0.000000
 49
-0.000110
  0
ENDTAB
  0
TABLE
  2
STYLE
 70
     2
  0
STYLE
 70
     0
  2
SN0
 40
0.000000
 41
0.000440
 50
0.000000
 71
     0
 42
0.000000
  3
ROMAND
  0
STYLE
 70
    68
  2
SV0
 40
0.000000
 41
0.000440
 50
0.000000
 71
     0
 42
0.000000
  3
ROMAND
  0
ENDTAB
  0
TABLE
  2
LAYER
 70
     3
  0
LAYER
  2
FOREGROUND
 70
    64
 62
     7
  6
CONTINUOUS
  0
LAYER
  2
BACKGROUND
 70
    65
 62
    -7
  6
CONTINUOUS
  0
LAYER
  2
0
 70
    64
 62
     7
  6
CONTINUOUS
  0
ENDTAB
  0
ENDSEC
  0
SECTION
  2
ENTITIES
  0
POLYLINE
  8
FOREGROUND
  6
CONTINUOUS
 66
     1
 40
0.000000
 41
0.000000
  0
VERTEX
  8
FOREGROUND
  6
CONTINUOUS
 10
0.000000
 20
4.842200
  0
VERTEX
  8
FOREGROUND
  6
CONTINUOUS
 10
8.499920
 20
4.842200
  0
VERTEX
  8
FOREGROUND
  6
CONTINUOUS
 10
8.499920
 20
-6.157800
  0
VERTEX
  8
FOREGROUND
  6
CONTINUOUS
 10
0.000000
 20
-6.157800
  0
VERTEX
  8
FOREGROUND
  6
CONTINUOUS
 10
0.000000
 20
4.842200
  0
SEQEND
  8
0
  0
POLYLINE
  8
FOREGROUND
  6
CONTINUOUS
 66
     1
 40
0.000000
 41
0.000000
  0
VERTEX
  8
FOREGROUND
  6
CONTINUOUS
 10
0.000000
 20
4.842200
  0
VERTEX
  8
FOREGROUND
  6
CONTINUOUS
 10
8.499920
 20
4.842200
  0
VERTEX
  8
FOREGROUND
  6
CONTINUOUS
 10
8.499920
 20
-6.157800
  0
VERTEX
  8
FOREGROUND
  6
CONTINUOUS
 10
0.000000
 20
-6.157800
  0
VERTEX
  8
FOREGROUND
  6
CONTINUOUS
 10
0.000000
 20
4.842200
  0
SEQEND
  8
0
  0
SOLID
  8
0
 62
    15
 10
6.387920
 20
1.854600
 11
6.390560
 21
2.599080
 12
6.388800
 22
1.983960
 13
6.391000
 23
2.728440
  0
POLYLINE
  8
0
  6
CONTINUOUS
 66
     1
 40
0.000000
 41
0.000000
  0
VERTEX
  8
0
  6
CONTINUOUS
 10
6.387920
 20
1.854600
  0
VERTEX
  8
0
  6
CONTINUOUS
 10
6.390560
 20
2.599080
  0
VERTEX
  8
0
  6
CONTINUOUS
 10
6.391000
 20
2.728440
  0
VERTEX
  8
0
  6
CONTINUOUS
 10
6.388800
 20
1.983960
  0
VERTEX
  8
0
  6
CONTINUOUS
 10
6.387920
 20
1.854600
  0
SEQEND
  8
0
  0
SOLID
  8
0
 62
    15
 10
3.365560
 20
1.854600
 11
3.367760
 21
2.599080
 12
6.387920
 22
1.854600
 13
6.390560
 23
2.599080
  0
POLYLINE
  8
0
  6
CONTINUOUS
 66
     1
 40
0.000000
 41
0.000000
  0
VERTEX
  8
0
  6
CONTINUOUS
 10
3.365560
 20
1.854600
  0
VERTEX
  8
0
  6
CONTINUOUS
 10
3.367760
 20
2.599080
  0
VERTEX
  8
0
  6
CONTINUOUS
 10
6.390560
 20
2.599080
  0
VERTEX
  8
0
  6
CONTINUOUS
 10
6.387920
 20
1.854600
  0
VERTEX
  8
0
  6
CONTINUOUS
 10
3.365560
 20
1.854600
  0
SEQEND
  8
0
  0
SOLID
  8
0
 62
    15
 10
2.646600
 20
1.458600
 11
2.648800
 21
2.203080
 12
2.754840
 22
1.458600
 13
2.757480
 23
2.203080
  0
POLYLINE
  8
0
  6
CONTINUOUS
 66
     1
 40
0.000000
 41
0.000000
  0
VERTEX
  8
0
  6
CONTINUOUS
 10
2.646600
 20
1.458600
  0
VERTEX
  8
0
  6
CONTINUOUS
 10
2.648800
 20
2.203080
  0
VERTEX
  8
0
  6
CONTINUOUS
 10
2.757480
 20
2.203080
  0
VERTEX
  8
0
  6
CONTINUOUS
 10
2.754840
 20
1.458600
  0
VERTEX
  8
0
  6
CONTINUOUS
 10
2.646600
 20
1.458600
  0
SEQEND
  8
0
  0
SOLID
  8
0
 62
    15
 10
2.757040
 20
1.506120
 11
2.759240
 21
2.251040
 12
2.761880
 22
1.547480
 13
2.764080
 23
2.292400
  0
POLYLINE
  8
0
  6
CONTINUOUS
 66
     1
 40
0.000000
 41
0.000000
  0
VERTEX
  8
0
  6
CONTINUOUS
 10
2.757040
 20
1.506120
  0
VERTEX
  8
0
  6
CONTINUOUS
 10
2.759240
 20
2.251040
  0
VERTEX
  8
0
  6
CONTINUOUS
 10
2.764080
 20
2.292400
  0
VERTEX
  8
0
  6
CONTINUOUS
 10
2.761880
 20
1.547480
  0
VERTEX
  8
0
  6
CONTINUOUS
 10
2.757040
 20
1.506120
  0
SEQEND
  8
0
  0
SOLID
  8
0
 62
    15
 10
2.761880
 20
1.547480
 11
2.764080
 21
2.292400
 12
2.768920
 22
1.582680
 13
2.771120
 23
2.327600
  0
POLYLINE
  8
0
  6
CONTINUOUS
 66
     1
 40
0.000000
 41
0.000000
  0
VERTEX
  8
0
  6
CONTINUOUS
 10
2.761880
 20
1.547480
  0
VERTEX
  8
0
  6
CONTINUOUS
 10
2.764080
 20
2.292400
  0
VERTEX
  8
0
  6
CONTINUOUS
 10
2.771120
 20
2.327600
  0
VERTEX
  8
0
  6
CONTINUOUS
 10
2.768920
 20
1.582680
  0
VERTEX
  8
0
  6
CONTINUOUS
 10
2.761880
 20
1.547480
  0
SEQEND
  8
0
  0
SOLID
  8
0
 62
    15
 10
2.768920
 20
1.582680
 11
2.771120
 21
2.327600
 12
2.778160
 22
1.612600
 13
2.780360
 23
2.357080
  0
POLYLINE
  8
0
  6
CONTINUOUS
 66
     1
 40
0.000000
 41
0.000000
  0
VERTEX
  8
0
  6
CONTINUOUS
 10
2.768920
 20
1.582680
  0
VERTEX
  8
0
  6
CONTINUOUS
 10
2.771120
 20
2.327600
  0
VERTEX
  8
0
  6
CONTINUOUS
 10
2.780360
 20
2.357080
  0
VERTEX
  8
0
  6
CONTINUOUS
 10
2.778160
 20
1.612600
  0
VERTEX
  8
0
  6
CONTINUOUS
 10
2.768920
 20
1.582680
  0
SEQEND
  8
0
  0
SOLID
  8
0
 62
    15
 10
2.778160
 20
1.612600
 11
2.780360
 21
2.357080
 12
2.788720
 22
1.637680
 13
2.791360
 23
2.382600
  0
POLYLINE
  8
0
  6
CONTINUOUS
 66
     1
 40
0.000000
 41
0.000000
  0
VERTEX
  8
0
  6
CONTINUOUS
 10
2.778160
 20
1.612600
  0
VERTEX
  8
0
  6
CONTINUOUS
 10
2.780360
 20
2.357080
  0
VERTEX
  8
0
  6
CONTINUOUS
 10
2.791360
 20
2.382600
  0
VERTEX
  8
0
  6
CONTINUOUS
 10
2.788720
 20
1.637680
  0
VERTEX
  8
0
  6
CONTINUOUS
 10
2.778160
 20
1.612600
  0
SEQEND
  8
0
  0
SOLID
  8
0
 62
    15
 10
2.788720
 20
1.637680
 11
2.791360
 21
2.382600
 12
2.801480
 22
1.658800
 13
2.803680
 23
2.403720
  0
POLYLINE
  8
0
  6
CONTINUOUS
 66
     1
 40
0.000000
 41
0.000000
  0
VERTEX
  8
0
  6
CONTINUOUS
 10
2.788720
 20
1.637680
  0
VERTEX
  8
0
  6
CONTINUOUS
 10
2.791360
 20
2.382600
  0
VERTEX
  8
0
  6
CONTINUOUS
 10
2.803680
 20
2.403720
  0
VERTEX
  8
0
  6
CONTINUOUS
 10
2.801480
 20
1.658800
  0
VERTEX
  8
0
  6
CONTINUOUS
 10
2.788720
 20
1.637680
  0
SEQEND
  8
0
  0
SOLID
  8
0
 62
    15
 10
2.801480
 20
1.658800
 11
2.803680
 21
2.403720
 12
2.830080
 22
1.690920
 13
2.832280
 23
2.435840
  0
POLYLINE
  8
0
  6
CONTINUOUS
 66
     1
 40
0.000000
 41
0.000000
  0
VERTEX
  8
0
  6
CONTINUOUS
 10
2.801480
 20
1.658800
  0
VERTEX
  8
0
  6
CONTINUOUS
 10
2.803680
 20
2.403720
  0
VERTEX
  8
0
  6
CONTINUOUS
 10
2.832280
 20
2.435840
  0
VERTEX
  8
0
  6
CONTINUOUS
 10
2.830080
 20
1.690920
  0
VERTEX
  8
0
  6
CONTINUOUS
 10
2.801480
 20
1.658800
  0
SEQEND
  8
0
  0
SOLID
  8
0
 62
    15
 10
2.830080
 20
1.690920
 11
2.832280
 21
2.435840
 12
2.860880
 22
1.714680
 13
2.863520
 23
2.459160
  0
POLYLINE
  8
0
  6
CONTINUOUS
 66
     1
 40
0.000000
 41
0.000000
  0
VERTEX
  8
0
  6
CONTINUOUS
 10
2.830080
 20
1.690920
  0
VERTEX
  8
0
  6
CONTINUOUS
 10
2.832280
 20
2.435840
  0
VERTEX
  8
0
  6
CONTINUOUS
 10
2.863520
 20
2.459160
  0
VERTEX
  8
0
  6
CONTINUOUS
 10
2.860880
 20
1.714680
  0
VERTEX
  8
0
  6
CONTINUOUS
 10
2.830080
 20
1.690920
  0
SEQEND
  8
0
  0
SOLID
  8
0
 62
    15
 10
2.860880
 20
1.714680
 11
2.863520
 21
2.459160
 12
2.893000
 22
1.734040
 13
2.895200
 23
2.478520
  0
POLYLINE
  8
0
  6
CONTINUOUS
 66
     1
 40
0.000000
 41
0.000000
  0
VERTEX
  8
0
  6
CONTINUOUS
 10
2.860880
 20
1.714680
  0
VERTEX
  8
0
  6
CONTINUOUS
 10
2.863520
 20
2.459160
  0
VERTEX
  8
0
  6
CONTINUOUS
 10
2.895200
 20
2.478520
  0
VERTEX
  8
0
  6
CONTINUOUS
 10
2.893000
 20
1.734040
  0
VERTEX
  8
0
  6
CONTINUOUS
 10
2.860880
 20
1.714680
  0
SEQEND
  8
0
  0
SOLID
  8
0
 62
    15
 10
2.893000
 20
1.734040
 11
2.895200
 21
2.478520
 12
2.923360
 22
1.754280
 13
2.925560
 23
2.498760
  0
POLYLINE
  8
0
  6
CONTINUOUS
 66
     1
 40
0.000000
 41
0.000000
  0
VERTEX
  8
0
  6
CONTINUOUS
 10
2.893000
 20
1.734040
  0
VERTEX
  8
0
  6
CONTINUOUS
 10
2.895200
 20
2.478520
  0
VERTEX
  8
0
  6
CONTINUOUS
 10
2.925560
 20
2.498760
  0
VERTEX
  8
0
  6
CONTINUOUS
 10
2.923360
 20
1.754280
  0
VERTEX
  8
0
  6
CONTINUOUS
 10
2.893000
 20
1.734040
  0
SEQEND
  8
0
  0
SOLID
  8
0
 62
    15
 10
2.923360
 20
1.754280
 11
2.925560
 21
2.498760
 12
2.949760
 22
1.780240
 13
2.951960
 23
2.525160
  0
POLYLINE
  8
0
  6
CONTINUOUS
 66
     1
 40
0.000000
 41
0.000000
  0
VERTEX
  8
0
  6
CONTINUOUS
 10
2.923360
 20
1.754280
  0
VERTEX
  8
0
  6
CONTINUOUS
 10
2.925560
 20
2.498760
  0
VERTEX
  8
0
  6
CONTINUOUS
 10
2.951960
 20
2.525160
  0
VERTEX
  8
0
  6
CONTINUOUS
 10
2.949760
 20
1.780240
  0
VERTEX
  8
0
  6
CONTINUOUS
 10
2.923360
 20
1.754280
  0
SEQEND
  8
0
  0
SOLID
  8
0
 62
    15
 10
2.949760
 20
1.780240
 11
2.951960
 21
2.525160
 12
2.970000
 22
1.812800
 13
2.972200
 23
2.557720
  0
POLYLINE
  8
0
  6
CONTINUOUS
 66
     1
 40
0.000000
 41
0.000000
  0
VERTEX
  8
0
  6
CONTINUOUS
 10
2.949760
 20
1.780240
  0
VERTEX
  8
0
  6
CONTINUOUS
 10
2.951960
 20
2.525160
  0
VERTEX
  8
0
  6
CONTINUOUS
 10
2.972200
 20
2.557720
  0
VERTEX
  8
0
  6
CONTINUOUS
 10
2.970000
 20
1.812800
  0
VERTEX
  8
0
  6
CONTINUOUS
 10
2.949760
 20
1.780240
  0
SEQEND
  8
0
  0
SOLID
  8
0
 62
    15
 10
2.970000
 20
1.812800
 11
2.972200
 21
2.557720
 12
2.984080
 22
1.846680
 13
2.986280
 23
2.591600
  0
POLYLINE
  8
0
  6
CONTINUOUS
 66
     1
 40
0.000000
 41
0.000000
  0
VERTEX
  8
0
  6
CONTINUOUS
 10
2.970000
 20
1.812800
  0
VERTEX
  8
0
  6
CONTINUOUS
 10
2.972200
 20
2.557720
  0
VERTEX
  8
0
  6
CONTINUOUS
 10
2.986280
 20
2.591600
  0
VERTEX
  8
0
  6
CONTINUOUS
 10
2.984080
 20
1.846680
  0
VERTEX
  8
0
  6
CONTINUOUS
 10
2.970000
 20
1.812800
  0
SEQEND
  8
0
  0
SOLID
  8
0
 62
    15
 10
2.984080
 20
1.846680
 11
2.986280
 21
2.591600
 12
2.992880
 22
1.880560
 13
2.995520
 23
2.625480
  0
POLYLINE
  8
0
  6
CONTINUOUS
 66
     1
 40
0.000000
 41
0.000000
  0
VERTEX
  8
0
  6
CONTINUOUS
 10
2.984080
 20
1.846680
  0
VERTEX
  8
0
  6
CONTINUOUS
 10
2.986280
 20
2.591600
  0
VERTEX
  8
0
  6
CONTINUOUS
 10
2.995520
 20
2.625480
  0
VERTEX
  8
0
  6
CONTINUOUS
 10
2.992880
 20
1.880560
  0
VERTEX
  8
0
  6
CONTINUOUS
 10
2.984080
 20
1.846680
  0
SEQEND
  8
0
  0
SOLID
  8
0
 62
    15
 10
2.992880
 20
1.880560
 11
2.995520
 21
2.625480
 12
2.998160
 22
1.912680
 13
3.000360
 23
2.657160
  0
POLYLINE
  8
0
  6
CONTINUOUS
 66
     1
 40
0.000000
 41
0.000000
  0
VERTEX
  8
0
  6
CONTINUOUS
 10
2.992880
 20
1.880560
  0
VERTEX
  8
0
  6
CONTINUOUS
 10
2.995520
 20
2.625480
  0
VERTEX
  8
0
  6
CONTINUOUS
 10
3.000360
 20
2.657160
  0
VERTEX
  8
0
  6
CONTINUOUS
 10
2.998160
 20
1.912680
  0
VERTEX
  8
0
  6
CONTINUOUS
 10
2.992880
 20
1.880560
  0
SEQEND
  8
0
  0
SOLID
  8
0
 62
    15
 10
2.998160
 20
1.912680
 11
3.000360
 21
2.657160
 12
2.999920
 22
1.940400
 13
3.002120
 23
2.685320
  0
POLYLINE
  8
0
  6
CONTINUOUS
 66
     1
 40
0.000000
 41
0.000000
  0
VERTEX
  8
0
  6
CONTINUOUS
 10
2.998160
 20
1.912680
  0
VERTEX
  8
0
  6
CONTINUOUS
 10
3.000360
 20
2.657160
  0
VERTEX
  8
0
  6
CONTINUOUS
 10
3.002120
 20
2.685320
  0
VERTEX
  8
0
  6
CONTINUOUS
 10
2.999920
 20
1.940400
  0
VERTEX
  8
0
  6
CONTINUOUS
 10
2.998160
 20
1.912680
  0
SEQEND
  8
0
  0
SOLID
  8
0
 62
    15
 10
2.998600
 20
1.982640
 11
3.000800
 21
2.727560
 12
3.365560
 22
1.982640
 13
3.367760
 23
2.727560
  0
POLYLINE
  8
0
  6
CONTINUOUS
 66
     1
 40
0.000000
 41
0.000000
  0
VERTEX
  8
0
  6
CONTINUOUS
 10
2.998600
 20
1.982640
  0
VERTEX
  8
0
  6
CONTINUOUS
 10
3.000800
 20
2.727560
  0
VERTEX
  8
0
  6
CONTINUOUS
 10
3.367760
 20
2.727560
  0
VERTEX
  8
0
  6
CONTINUOUS
 10
3.365560
 20
1.982640
  0
VERTEX
  8
0
  6
CONTINUOUS
 10
2.998600
 20
1.982640
  0
SEQEND
  8
0
  0
SOLID
  8
0
 62
    15
 10
3.365560
 20
1.982640
 11
3.367760
 21
2.727560
 12
3.365560
 22
1.854600
 13
3.367760
 23
2.599080
  0
POLYLINE
  8
0
  6
CONTINUOUS
 66
     1
 40
0.000000
 41
0.000000
  0
VERTEX
  8
0
  6
CONTINUOUS
 10
3.365560
 20
1.982640
  0
VERTEX
  8
0
  6
CONTINUOUS
 10
3.367760
 20
2.727560
  0
VERTEX
  8
0
  6
CONTINUOUS
 10
3.367760
 20
2.599080
  0
VERTEX
  8
0
  6
CONTINUOUS
 10
3.365560
 20
1.854600
  0
VERTEX
  8
0
  6
CONTINUOUS
 10
3.365560
 20
1.982640
  0
SEQEND
  8
0
  0
SOLID
  8
0
 62
    15
 10
6.753560
 20
1.941720
 11
6.756200
 21
2.686200
 12
6.755760
 22
1.913560
 13
6.757960
 23
2.658480
  0
POLYLINE
  8
0
  6
CONTINUOUS
 66
     1
 40
0.000000
 41
0.000000
  0
VERTEX
  8
0
  6
CONTINUOUS
 10
6.753560
 20
1.941720
  0
VERTEX
  8
0
  6
CONTINUOUS
 10
6.756200
 20
2.686200
  0
VERTEX
  8
0
  6
CONTINUOUS
 10
6.757960
 20
2.658480
  0
VERTEX
  8
0
  6
CONTINUOUS
 10
6.755760
 20
1.913560
  0
VERTEX
  8
0
  6
CONTINUOUS
 10
6.753560
 20
1.941720
  0
SEQEND
  8
0
  0
SOLID
  8
0
 62
    15
 10
2.754840
 20
1.458600
 11
2.757480
 21
2.203080
 12
2.757040
 22
1.506120
 13
2.759240
 23
2.251040
  0
POLYLINE
  8
0
  6
CONTINUOUS
 66
     1
 40
0.000000
 41
0.000000
  0
VERTEX
  8
0
  6
CONTINUOUS
 10
2.754840
 20
1.458600
  0
VERTEX
  8
0
  6
CONTINUOUS
 10
2.757480
 20
2.203080
  0
VERTEX
  8
0
  6
CONTINUOUS
 10
2.759240
 20
2.251040
  0
VERTEX
  8
0
  6
CONTINUOUS
 10
2.757040
 20
1.506120
  0
VERTEX
  8
0
  6
CONTINUOUS
 10
2.754840
 20
1.458600
  0
SEQEND
  8
0
  0
SOLID
  8
0
 62
    15
 10
6.388360
 20
1.983960
 11
6.390560
 21
2.728440
 12
6.755320
 22
1.983960
 13
6.757520
 23
2.728440
  0
POLYLINE
  8
0
  6
CONTINUOUS
 66
     1
 40
0.000000
 41
0.000000
  0
VERTEX
  8
0
  6
CONTINUOUS
 10
6.388360
 20
1.983960
  0
VERTEX
  8
0
  6
CONTINUOUS
 10
6.390560
 20
2.728440
  0
VERTEX
  8
0
  6
CONTINUOUS
 10
6.757520
 20
2.728440
  0
VERTEX
  8
0
  6
CONTINUOUS
 10
6.755320
 20
1.983960
  0
VERTEX
  8
0
  6
CONTINUOUS
 10
6.388360
 20
1.983960
  0
SEQEND
  8
0
  0
SOLID
  8
0
 62
    15
 10
6.391000
 20
2.728440
 11
6.391000
 21
2.729320
 12
6.388800
 22
1.983960
 13
6.388800
 23
1.984400
  0
POLYLINE
  8
0
  6
CONTINUOUS
 66
     1
 40
0.000000
 41
0.000000
  0
VERTEX
  8
0
  6
CONTINUOUS
 10
6.391000
 20
2.728440
  0
VERTEX
  8
0
  6
CONTINUOUS
 10
6.391000
 20
2.729320
  0
VERTEX
  8
0
  6
CONTINUOUS
 10
6.388800
 20
1.984400
  0
VERTEX
  8
0
  6
CONTINUOUS
 10
6.388800
 20
1.983960
  0
VERTEX
  8
0
  6
CONTINUOUS
 10
6.391000
 20
2.728440
  0
SEQEND
  8
0
  0
SOLID
  8
0
 62
    15
 10
6.755760
 20
1.913560
 11
6.757960
 21
2.658480
 12
6.760600
 22
1.881880
 13
6.762800
 23
2.626800
  0
POLYLINE
  8
0
  6
CONTINUOUS
 66
     1
 40
0.000000
 41
0.000000
  0
VERTEX
  8
0
  6
CONTINUOUS
 10
6.755760
 20
1.913560
  0
VERTEX
  8
0
  6
CONTINUOUS
 10
6.757960
 20
2.658480
  0
VERTEX
  8
0
  6
CONTINUOUS
 10
6.762800
 20
2.626800
  0
VERTEX
  8
0
  6
CONTINUOUS
 10
6.760600
 20
1.881880
  0
VERTEX
  8
0
  6
CONTINUOUS
 10
6.755760
 20
1.913560
  0
SEQEND
  8
0
  0
SOLID
  8
0
 62
    15
 10
6.769400
 20
1.848000
 11
6.771600
 21
2.592920
 12
6.783480
 22
1.814120
 13
6.785680
 23
2.558600
  0
POLYLINE
  8
0
  6
CONTINUOUS
 66
     1
 40
0.000000
 41
0.000000
  0
VERTEX
  8
0
  6
CONTINUOUS
 10
6.769400
 20
1.848000
  0
VERTEX
  8
0
  6
CONTINUOUS
 10
6.771600
 20
2.592920
  0
VERTEX
  8
0
  6
CONTINUOUS
 10
6.785680
 20
2.558600
  0
VERTEX
  8
0
  6
CONTINUOUS
 10
6.783480
 20
1.814120
  0
VERTEX
  8
0
  6
CONTINUOUS
 10
6.769400
 20
1.848000
  0
SEQEND
  8
0
  0
SOLID
  8
0
 62
    15
 10
6.760600
 20
1.881880
 11
6.762800
 21
2.626800
 12
6.769400
 22
1.848000
 13
6.771600
 23
2.592920
  0
POLYLINE
  8
0
  6
CONTINUOUS
 66
     1
 40
0.000000
 41
0.000000
  0
VERTEX
  8
0
  6
CONTINUOUS
 10
6.760600
 20
1.881880
  0
VERTEX
  8
0
  6
CONTINUOUS
 10
6.762800
 20
2.626800
  0
VERTEX
  8
0
  6
CONTINUOUS
 10
6.771600
 20
2.592920
  0
VERTEX
  8
0
  6
CONTINUOUS
 10
6.769400
 20
1.848000
  0
VERTEX
  8
0
  6
CONTINUOUS
 10
6.760600
 20
1.881880
  0
SEQEND
  8
0
  0
SOLID
  8
0
 62
    15
 10
6.783480
 20
1.814120
 11
6.785680
 21
2.558600
 12
6.803720
 22
1.781560
 13
6.805920
 23
2.526480
  0
POLYLINE
  8
0
  6
CONTINUOUS
 66
     1
 40
0.000000
 41
0.000000
  0
VERTEX
  8
0
  6
CONTINUOUS
 10
6.783480
 20
1.814120
  0
VERTEX
  8
0
  6
CONTINUOUS
 10
6.785680
 20
2.558600
  0
VERTEX
  8
0
  6
CONTINUOUS
 10
6.805920
 20
2.526480
  0
VERTEX
  8
0
  6
CONTINUOUS
 10
6.803720
 20
1.781560
  0
VERTEX
  8
0
  6
CONTINUOUS
 10
6.783480
 20
1.814120
  0
SEQEND
  8
0
  0
SOLID
  8
0
 62
    15
 10
6.803720
 20
1.781560
 11
6.805920
 21
2.526480
 12
6.830120
 22
1.755600
 13
6.832760
 23
2.500080
  0
POLYLINE
  8
0
  6
CONTINUOUS
 66
     1
 40
0.000000
 41
0.000000
  0
VERTEX
  8
0
  6
CONTINUOUS
 10
6.803720
 20
1.781560
  0
VERTEX
  8
0
  6
CONTINUOUS
 10
6.805920
 20
2.526480
  0
VERTEX
  8
0
  6
CONTINUOUS
 10
6.832760
 20
2.500080
  0
VERTEX
  8
0
  6
CONTINUOUS
 10
6.830120
 20
1.755600
  0
VERTEX
  8
0
  6
CONTINUOUS
 10
6.803720
 20
1.781560
  0
SEQEND
  8
0
  0
SOLID
  8
0
 62
    15
 10
6.830120
 20
1.755600
 11
6.832760
 21
2.500080
 12
6.860480
 22
1.734920
 13
6.862680
 23
2.479840
  0
POLYLINE
  8
0
  6
CONTINUOUS
 66
     1
 40
0.000000
 41
0.000000
  0
VERTEX
  8
0
  6
CONTINUOUS
 10
6.830120
 20
1.755600
  0
VERTEX
  8
0
  6
CONTINUOUS
 10
6.832760
 20
2.500080
  0
VERTEX
  8
0
  6
CONTINUOUS
 10
6.862680
 20
2.479840
  0
VERTEX
  8
0
  6
CONTINUOUS
 10
6.860480
 20
1.734920
  0
VERTEX
  8
0
  6
CONTINUOUS
 10
6.830120
 20
1.755600
  0
SEQEND
  8
0
  0
SOLID
  8
0
 62
    15
 10
6.860480
 20
1.734920
 11
6.862680
 21
2.479840
 12
6.892600
 22
1.715560
 13
6.894800
 23
2.460480
  0
POLYLINE
  8
0
  6
CONTINUOUS
 66
     1
 40
0.000000
 41
0.000000
  0
VERTEX
  8
0
  6
CONTINUOUS
 10
6.860480
 20
1.734920
  0
VERTEX
  8
0
  6
CONTINUOUS
 10
6.862680
 20
2.479840
  0
VERTEX
  8
0
  6
CONTINUOUS
 10
6.894800
 20
2.460480
  0
VERTEX
  8
0
  6
CONTINUOUS
 10
6.892600
 20
1.715560
  0
VERTEX
  8
0
  6
CONTINUOUS
 10
6.860480
 20
1.734920
  0
SEQEND
  8
0
  0
SOLID
  8
0
 62
    15
 10
6.892600
 20
1.715560
 11
6.894800
 21
2.460480
 12
6.923840
 22
1.692240
 13
6.926040
 23
2.437160
  0
POLYLINE
  8
0
  6
CONTINUOUS
 66
     1
 40
0.000000
 41
0.000000
  0
VERTEX
  8
0
  6
CONTINUOUS
 10
6.892600
 20
1.715560
  0
VERTEX
  8
0
  6
CONTINUOUS
 10
6.894800
 20
2.460480
  0
VERTEX
  8
0
  6
CONTINUOUS
 10
6.926040
 20
2.437160
  0
VERTEX
  8
0
  6
CONTINUOUS
 10
6.923840
 20
1.692240
  0
VERTEX
  8
0
  6
CONTINUOUS
 10
6.892600
 20
1.715560
  0
SEQEND
  8
0
  0
SOLID
  8
0
 62
    15
 10
6.923840
 20
1.692240
 11
6.926040
 21
2.437160
 12
6.952000
 22
1.660120
 13
6.954200
 23
2.404600
  0
POLYLINE
  8
0
  6
CONTINUOUS
 66
     1
 40
0.000000
 41
0.000000
  0
VERTEX
  8
0
  6
CONTINUOUS
 10
6.923840
 20
1.692240
  0
VERTEX
  8
0
  6
CONTINUOUS
 10
6.926040
 20
2.437160
  0
VERTEX
  8
0
  6
CONTINUOUS
 10
6.954200
 20
2.404600
  0
VERTEX
  8
0
  6
CONTINUOUS
 10
6.952000
 20
1.660120
  0
VERTEX
  8
0
  6
CONTINUOUS
 10
6.923840
 20
1.692240
  0
SEQEND
  8
0
  0
SOLID
  8
0
 62
    15
 10
6.952000
 20
1.660120
 11
6.954200
 21
2.404600
 12
6.964320
 22
1.639000
 13
6.966960
 23
2.383480
  0
POLYLINE
  8
0
  6
CONTINUOUS
 66
     1
 40
0.000000
 41
0.000000
  0
VERTEX
  8
0
  6
CONTINUOUS
 10
6.952000
 20
1.660120
  0
VERTEX
  8
0
  6
CONTINUOUS
 10
6.954200
 20
2.404600
  0
VERTEX
  8
0
  6
CONTINUOUS
 10
6.966960
 20
2.383480
  0
VERTEX
  8
0
  6
CONTINUOUS
 10
6.964320
 20
1.639000
  0
VERTEX
  8
0
  6
CONTINUOUS
 10
6.952000
 20
1.660120
  0
SEQEND
  8
0
  0
SOLID
  8
0
 62
    15
 10
6.975320
 20
1.613480
 11
6.977960
 21
2.358400
 12
6.984560
 22
1.584000
 13
6.986760
 23
2.328480
  0
POLYLINE
  8
0
  6
CONTINUOUS
 66
     1
 40
0.000000
 41
0.000000
  0
VERTEX
  8
0
  6
CONTINUOUS
 10
6.975320
 20
1.613480
  0
VERTEX
  8
0
  6
CONTINUOUS
 10
6.977960
 20
2.358400
  0
VERTEX
  8
0
  6
CONTINUOUS
 10
6.986760
 20
2.328480
  0
VERTEX
  8
0
  6
CONTINUOUS
 10
6.984560
 20
1.584000
  0
VERTEX
  8
0
  6
CONTINUOUS
 10
6.975320
 20
1.613480
  0
SEQEND
  8
0
  0
SOLID
  8
0
 62
    15
 10
6.964320
 20
1.639000
 11
6.966960
 21
2.383480
 12
6.975320
 22
1.613480
 13
6.977960
 23
2.358400
  0
POLYLINE
  8
0
  6
CONTINUOUS
 66
     1
 40
0.000000
 41
0.000000
  0
VERTEX
  8
0
  6
CONTINUOUS
 10
6.964320
 20
1.639000
  0
VERTEX
  8
0
  6
CONTINUOUS
 10
6.966960
 20
2.383480
  0
VERTEX
  8
0
  6
CONTINUOUS
 10
6.977960
 20
2.358400
  0
VERTEX
  8
0
  6
CONTINUOUS
 10
6.975320
 20
1.613480
  0
VERTEX
  8
0
  6
CONTINUOUS
 10
6.964320
 20
1.639000
  0
SEQEND
  8
0
  0
SOLID
  8
0
 62
    15
 10
6.984560
 20
1.584000
 11
6.986760
 21
2.328480
 12
6.991600
 22
1.548800
 13
6.993800
 23
2.293280
  0
POLYLINE
  8
0
  6
CONTINUOUS
 66
     1
 40
0.000000
 41
0.000000
  0
VERTEX
  8
0
  6
CONTINUOUS
 10
6.984560
 20
1.584000
  0
VERTEX
  8
0
  6
CONTINUOUS
 10
6.986760
 20
2.328480
  0
VERTEX
  8
0
  6
CONTINUOUS
 10
6.993800
 20
2.293280
  0
VERTEX
  8
0
  6
CONTINUOUS
 10
6.991600
 20
1.548800
  0
VERTEX
  8
0
  6
CONTINUOUS
 10
6.984560
 20
1.584000
  0
SEQEND
  8
0
  0
SOLID
  8
0
 62
    15
 10
6.991600
 20
1.548800
 11
6.993800
 21
2.293280
 12
6.996440
 22
1.507440
 13
6.998640
 23
2.252360
  0
POLYLINE
  8
0
  6
CONTINUOUS
 66
     1
 40
0.000000
 41
0.000000
  0
VERTEX
  8
0
  6
CONTINUOUS
 10
6.991600
 20
1.548800
  0
VERTEX
  8
0
  6
CONTINUOUS
 10
6.993800
 20
2.293280
  0
VERTEX
  8
0
  6
CONTINUOUS
 10
6.998640
 20
2.252360
  0
VERTEX
  8
0
  6
CONTINUOUS
 10
6.996440
 20
1.507440
  0
VERTEX
  8
0
  6
CONTINUOUS
 10
6.991600
 20
1.548800
  0
SEQEND
  8
0
  0
SOLID
  8
0
 62
    15
 10
7.107320
 20
1.459480
 11
7.109520
 21
2.204400
 12
7.107320
 22
1.223640
 13
7.109520
 23
1.968560
  0
POLYLINE
  8
0
  6
CONTINUOUS
 66
     1
 40
0.000000
 41
0.000000
  0
VERTEX
  8
0
  6
CONTINUOUS
 10
7.107320
 20
1.459480
  0
VERTEX
  8
0
  6
CONTINUOUS
 10
7.109520
 20
2.204400
  0
VERTEX
  8
0
  6
CONTINUOUS
 10
7.109520
 20
1.968560
  0
VERTEX
  8
0
  6
CONTINUOUS
 10
7.107320
 20
1.223640
  0
VERTEX
  8
0
  6
CONTINUOUS
 10
7.107320
 20
1.459480
  0
SEQEND
  8
0
  0
SOLID
  8
0
 62
    15
 10
6.998640
 20
1.459480
 11
7.000840
 21
2.204400
 12
7.107320
 22
1.459480
 13
7.109520
 23
2.204400
  0
POLYLINE
  8
0
  6
CONTINUOUS
 66
     1
 40
0.000000
 41
0.000000
  0
VERTEX
  8
0
  6
CONTINUOUS
 10
6.998640
 20
1.459480
  0
VERTEX
  8
0
  6
CONTINUOUS
 10
7.000840
 20
2.204400
  0
VERTEX
  8
0
  6
CONTINUOUS
 10
7.109520
 20
2.204400
  0
VERTEX
  8
0
  6
CONTINUOUS
 10
7.107320
 20
1.459480
  0
VERTEX
  8
0
  6
CONTINUOUS
 10
6.998640
 20
1.459480
  0
SEQEND
  8
0
  0
SOLID
  8
0
 62
    15
 10
6.996440
 20
1.507440
 11
6.998640
 21
2.252360
 12
6.998640
 22
1.459480
 13
7.000840
 23
2.204400
  0
POLYLINE
  8
0
  6
CONTINUOUS
 66
     1
 40
0.000000
 41
0.000000
  0
VERTEX
  8
0
  6
CONTINUOUS
 10
6.996440
 20
1.507440
  0
VERTEX
  8
0
  6
CONTINUOUS
 10
6.998640
 20
2.252360
  0
VERTEX
  8
0
  6
CONTINUOUS
 10
7.000840
 20
2.204400
  0
VERTEX
  8
0
  6
CONTINUOUS
 10
6.998640
 20
1.459480
  0
VERTEX
  8
0
  6
CONTINUOUS
 10
6.996440
 20
1.507440
  0
SEQEND
  8
0
  0
POLYLINE
  8
0
  6
CONTINUOUS
 66
     1
 40
0.000000
 41
0.000000
  0
VERTEX
  8
0
  6
CONTINUOUS
 10
7.106880
 20
1.222320
  0
VERTEX
  8
0
  6
CONTINUOUS
 10
2.646600
 20
1.222320
  0
VERTEX
  8
0
  6
CONTINUOUS
 10
2.646600
 20
1.458600
  0
VERTEX
  8
0
  6
CONTINUOUS
 10
2.754840
 20
1.458600
  0
VERTEX
  8
0
  6
CONTINUOUS
 10
2.757040
 20
1.506120
  0
VERTEX
  8
0
  6
CONTINUOUS
 10
2.761880
 20
1.547480
  0
VERTEX
  8
0
  6
CONTINUOUS
 10
2.768920
 20
1.582680
  0
VERTEX
  8
0
  6
CONTINUOUS
 10
2.778160
 20
1.612600
  0
VERTEX
  8
0
  6
CONTINUOUS
 10
2.788720
 20
1.637680
  0
VERTEX
  8
0
  6
CONTINUOUS
 10
2.801480
 20
1.658800
  0
VERTEX
  8
0
  6
CONTINUOUS
 10
2.830080
 20
1.690920
  0
VERTEX
  8
0
  6
CONTINUOUS
 10
2.860880
 20
1.714680
  0
VERTEX
  8
0
  6
CONTINUOUS
 10
2.923360
 20
1.754280
  0
VERTEX
  8
0
  6
CONTINUOUS
 10
2.949760
 20
1.780240
  0
VERTEX
  8
0
  6
CONTINUOUS
 10
2.970000
 20
1.812800
  0
VERTEX
  8
0
  6
CONTINUOUS
 10
2.984080
 20
1.846680
  0
VERTEX
  8
0
  6
CONTINUOUS
 10
2.992880
 20
1.880560
  0
VERTEX
  8
0
  6
CONTINUOUS
 10
2.998160
 20
1.912680
  0
VERTEX
  8
0
  6
CONTINUOUS
 10
2.999920
 20
1.940400
  0
VERTEX
  8
0
  6
CONTINUOUS
 10
2.999040
 20
1.977360
  0
VERTEX
  8
0
  6
CONTINUOUS
 10
2.998600
 20
1.982640
  0
VERTEX
  8
0
  6
CONTINUOUS
 10
3.365560
 20
1.982640
  0
VERTEX
  8
0
  6
CONTINUOUS
 10
3.365560
 20
1.854600
  0
VERTEX
  8
0
  6
CONTINUOUS
 10
6.387920
 20
1.854600
  0
VERTEX
  8
0
  6
CONTINUOUS
 10
6.388800
 20
1.984400
  0
VERTEX
  8
0
  6
CONTINUOUS
 10
6.388360
 20
1.983960
  0
VERTEX
  8
0
  6
CONTINUOUS
 10
6.755320
 20
1.983960
  0
VERTEX
  8
0
  6
CONTINUOUS
 10
6.753560
 20
1.941720
  0
VERTEX
  8
0
  6
CONTINUOUS
 10
6.755760
 20
1.913560
  0
VERTEX
  8
0
  6
CONTINUOUS
 10
6.760600
 20
1.881880
  0
VERTEX
  8
0
  6
CONTINUOUS
 10
6.769400
 20
1.848000
  0
VERTEX
  8
0
  6
CONTINUOUS
 10
6.783480
 20
1.814120
  0
VERTEX
  8
0
  6
CONTINUOUS
 10
6.803720
 20
1.781560
  0
VERTEX
  8
0
  6
CONTINUOUS
 10
6.830120
 20
1.755600
  0
VERTEX
  8
0
  6
CONTINUOUS
 10
6.860480
 20
1.734920
  0
VERTEX
  8
0
  6
CONTINUOUS
 10
6.892600
 20
1.715560
  0
VERTEX
  8
0
  6
CONTINUOUS
 10
6.923840
 20
1.692240
  0
VERTEX
  8
0
  6
CONTINUOUS
 10
6.952000
 20
1.660120
  0
VERTEX
  8
0
  6
CONTINUOUS
 10
6.964320
 20
1.639000
  0
VERTEX
  8
0
  6
CONTINUOUS
 10
6.975320
 20
1.613480
  0
VERTEX
  8
0
  6
CONTINUOUS
 10
6.984560
 20
1.584000
  0
VERTEX
  8
0
  6
CONTINUOUS
 10
6.991600
 20
1.548800
  0
VERTEX
  8
0
  6
CONTINUOUS
 10
6.996440
 20
1.507440
  0
VERTEX
  8
0
  6
CONTINUOUS
 10
6.998640
 20
1.459480
  0
VERTEX
  8
0
  6
CONTINUOUS
 10
7.107320
 20
1.459480
  0
VERTEX
  8
0
  6
CONTINUOUS
 10
7.106880
 20
1.222320
  0
SEQEND
  8
0
  0
TEXT
  8
0
 10
4.583480
 20
0.987800
 40
0.138068
  1
BA  794
 41
1.000000
  7
SN0
 71
     0
 72
     5
 11
5.174645
 21
0.987800
  0
TEXT
  8
0
 10
4.381520
 20
0.795960
 40
0.138068
  1
3/4" x 4-7/16"
 41
1.000000
  7
SN0
 71
     0
 72
     5
 11
5.376204
 21
0.795960
  0
POLYLINE
  8
0
  6
CONTINUOUS
 66
     1
 40
0.014080
 41
0.014080
  0
VERTEX
  8
0
  6
CONTINUOUS
 10
7.061560
 20
3.320240
  0
VERTEX
  8
0
  6
CONTINUOUS
 10
2.600840
 20
3.320240
  0
VERTEX
  8
0
  6
CONTINUOUS
 10
2.600840
 20
3.556080
  0
VERTEX
  8
0
  6
CONTINUOUS
 10
2.709520
 20
3.556080
  0
VERTEX
  8
0
  6
CONTINUOUS
 10
2.711720
 20
3.604040
  0
VERTEX
  8
0
  6
CONTINUOUS
 10
2.719640
 20
3.663440
  0
VERTEX
  8
0
  6
CONTINUOUS
 10
2.728000
 20
3.696000
  0
VERTEX
  8
0
  6
CONTINUOUS
 10
2.743840
 20
3.735160
  0
VERTEX
  8
0
  6
CONTINUOUS
 10
2.756160
 20
3.756280
  0
VERTEX
  8
0
  6
CONTINUOUS
 10
2.777280
 20
3.781800
  0
VERTEX
  8
0
  6
CONTINUOUS
 10
2.800160
 20
3.801160
  0
VERTEX
  8
0
  6
CONTINUOUS
 10
2.878040
 20
3.851760
  0
VERTEX
  8
0
  6
CONTINUOUS
 10
2.904440
 20
3.878160
  0
VERTEX
  8
0
  6
CONTINUOUS
 10
2.924680
 20
3.910280
  0
VERTEX
  8
0
  6
CONTINUOUS
 10
2.938760
 20
3.944600
  0
VERTEX
  8
0
  6
CONTINUOUS
 10
2.950640
 20
3.994760
  0
VERTEX
  8
0
  6
CONTINUOUS
 10
2.954160
 20
4.038320
  0
VERTEX
  8
0
  6
CONTINUOUS
 10
2.953280
 20
4.075280
  0
VERTEX
  8
0
  6
CONTINUOUS
 10
2.952840
 20
4.080560
  0
VERTEX
  8
0
  6
CONTINUOUS
 10
3.319800
 20
4.080560
  0
VERTEX
  8
0
  6
CONTINUOUS
 10
3.319800
 20
3.952080
  0
VERTEX
  8
0
  6
CONTINUOUS
 10
6.342600
 20
3.952080
  0
VERTEX
  8
0
  6
CONTINUOUS
 10
6.343480
 20
4.081880
  0
VERTEX
  8
0
  6
CONTINUOUS
 10
6.342600
 20
4.081440
  0
VERTEX
  8
0
  6
CONTINUOUS
 10
6.709560
 20
4.081440
  0
VERTEX
  8
0
  6
CONTINUOUS
 10
6.708240
 20
4.061640
  0
VERTEX
  8
0
  6
CONTINUOUS
 10
6.708680
 20
4.026000
  0
VERTEX
  8
0
  6
CONTINUOUS
 10
6.714840
 20
3.979360
  0
VERTEX
  8
0
  6
CONTINUOUS
 10
6.723640
 20
3.945920
  0
VERTEX
  8
0
  6
CONTINUOUS
 10
6.738160
 20
3.911600
  0
VERTEX
  8
0
  6
CONTINUOUS
 10
6.758400
 20
3.879480
  0
VERTEX
  8
0
  6
CONTINUOUS
 10
6.784800
 20
3.853080
  0
VERTEX
  8
0
  6
CONTINUOUS
 10
6.862680
 20
3.802480
  0
VERTEX
  8
0
  6
CONTINUOUS
 10
6.893040
 20
3.775200
  0
VERTEX
  8
0
  6
CONTINUOUS
 10
6.912840
 20
3.747480
  0
VERTEX
  8
0
  6
CONTINUOUS
 10
6.924720
 20
3.724600
  0
VERTEX
  8
0
  6
CONTINUOUS
 10
6.939240
 20
3.681480
  0
VERTEX
  8
0
  6
CONTINUOUS
 10
6.946280
 20
3.646280
  0
VERTEX
  8
0
  6
CONTINUOUS
 10
6.950680
 20
3.604920
  0
VERTEX
  8
0
  6
CONTINUOUS
 10
6.952880
 20
3.557400
  0
VERTEX
  8
0
  6
CONTINUOUS
 10
7.061560
 20
3.557400
  0
VERTEX
  8
0
  6
CONTINUOUS
 10
7.061560
 20
3.320240
  0
SEQEND
  8
0
  0
ENDSEC
  0
EOF
