  0
SECTION
  2
HEADER
  9
$ACADVER
  1
AC1006
  9
$EXTMIN
 10
0.862840
 20
0.321200
  9
$EXTMAX
 10
7.636640
 20
10.562200
  9
$LTSCALE
 40
0.044000
  9
$PDMODE
 70
    35
  9
$PDSIZE
 40
0.035200
  0
ENDSEC
  0
SECTION
  2
TABLES
  0
TABLE
  2
LTYPE
 70
     9
  0
LTYPE
  2
CONTINUOUS
 70
    64
  3
Solid line
 72
    65
 73
     0
 40
0.000000
  0
LTYPE
  2
DASHED
 70
    64
  3
__ __ __ __ __ __ __ __ __ __ __ __ __ __ __
 72
    65
 73
     2
 40
0.000330
 49
0.000220
 49
-0.000110
  0
LTYPE
  2
HIDDEN
 70
    64
  3
 _ _ _ _ _ _ _ _ _ _ _ _ _ _ _ _ _ _ _ _ _ _
 72
    65
 73
     2
 40
0.000165
 49
0.000110
 49
-0.000055
  0
LTYPE
  2
CENTER
 70
    64
  3
____ _ ____ _ ____ _ ____ _ ____ _ ____ _ ____
 72
    65
 73
     4
 40
0.000880
 49
0.000550
 49
-0.000110
 49
0.000110
 49
-0.000110
  0
LTYPE
  2
PHANTOM
 70
    64
  3
_____ _ _ _____ _ _ _____ _ _ _____ _ _ ____
 72
    65
 73
     6
 40
0.001100
 49
0.000550
 49
-0.000110
 49
0.000110
 49
-0.000110
 49
0.000110
 49
-0.000110
  0
LTYPE
  2
DOT
 70
    64
  3
...............................................
 72
    65
 73
     2
 40
0.000110
 49
0.000000
 49
-0.000110
  0
LTYPE
  2
DASHDOT
 70
    64
  3
__ . __ . __ . __ . __ . __ . __ . __ . __ . __
 72
    65
 73
     4
 40
0.000440
 49
0.000220
 49
-0.000110
 49
0.000000
 49
-0.000110
  0
LTYPE
  2
BORDER
 70
    64
  3
__ __ . __ __ . __ __ . __ __ . __ __ . __ __
 72
    65
 73
     6
 40
0.000770
 49
0.000220
 49
-0.000110
 49
0.000220
 49
-0.000110
 49
0.000000
 49
-0.000110
  0
LTYPE
  2
DIVIDE
 70
    64
  3
__ . . __ . . __ . . __ . . __ . . __ . . __
 72
    65
 73
     6
 40
0.000550
 49
0.000220
 49
-0.000110
 49
0.000000
 49
-0.000110
 49
0.000000
 49
-0.000110
  0
LTYPE
  2
DOTDOT
 70
    64
  3
 . .  . .  . .  . .  . .  . . 
 72
    65
 73
     5
 40
0.000242
 49
-0.000110
 49
0.000000
 49
-0.000110
 49
0.000000
 49
-0.000110
  0
ENDTAB
  0
TABLE
  2
STYLE
 70
     2
  0
STYLE
 70
     0
  2
SN0
 40
0.000000
 41
0.000440
 50
0.000000
 71
     0
 42
0.000000
  3
ROMAND
  0
STYLE
 70
    68
  2
SV0
 40
0.000000
 41
0.000440
 50
0.000000
 71
     0
 42
0.000000
  3
ROMAND
  0
ENDTAB
  0
TABLE
  2
LAYER
 70
     3
  0
LAYER
  2
FOREGROUND
 70
    64
 62
     7
  6
CONTINUOUS
  0
LAYER
  2
BACKGROUND
 70
    65
 62
    -7
  6
CONTINUOUS
  0
LAYER
  2
0
 70
    64
 62
     7
  6
CONTINUOUS
  0
ENDTAB
  0
ENDSEC
  0
SECTION
  2
ENTITIES
  0
POLYLINE
  8
FOREGROUND
  6
CONTINUOUS
 66
     1
 40
0.000000
 41
0.000000
  0
VERTEX
  8
FOREGROUND
  6
CONTINUOUS
 10
0.000000
 20
10.883400
  0
VERTEX
  8
FOREGROUND
  6
CONTINUOUS
 10
8.499920
 20
10.883400
  0
VERTEX
  8
FOREGROUND
  6
CONTINUOUS
 10
8.499920
 20
-0.116600
  0
VERTEX
  8
FOREGROUND
  6
CONTINUOUS
 10
0.000000
 20
-0.116600
  0
VERTEX
  8
FOREGROUND
  6
CONTINUOUS
 10
0.000000
 20
10.883400
  0
SEQEND
  8
0
  0
POLYLINE
  8
FOREGROUND
  6
CONTINUOUS
 66
     1
 40
0.000000
 41
0.000000
  0
VERTEX
  8
FOREGROUND
  6
CONTINUOUS
 10
0.000000
 20
10.883400
  0
VERTEX
  8
FOREGROUND
  6
CONTINUOUS
 10
8.499920
 20
10.883400
  0
VERTEX
  8
FOREGROUND
  6
CONTINUOUS
 10
8.499920
 20
-0.116600
  0
VERTEX
  8
FOREGROUND
  6
CONTINUOUS
 10
0.000000
 20
-0.116600
  0
VERTEX
  8
FOREGROUND
  6
CONTINUOUS
 10
0.000000
 20
10.883400
  0
SEQEND
  8
0
  0
POLYLINE
  8
0
  6
CONTINUOUS
 66
     1
 40
0.000000
 41
0.000000
  0
VERTEX
  8
0
  6
CONTINUOUS
 10
7.457560
 20
8.737080
  0
VERTEX
  8
0
  6
CONTINUOUS
 10
2.546720
 20
8.743680
  0
VERTEX
  8
0
  6
CONTINUOUS
 10
2.546720
 20
9.167840
  0
VERTEX
  8
0
  6
CONTINUOUS
 10
2.576640
 20
9.174000
  0
VERTEX
  8
0
  6
CONTINUOUS
 10
2.611840
 20
9.187200
  0
VERTEX
  8
0
  6
CONTINUOUS
 10
2.629440
 20
9.198200
  0
VERTEX
  8
0
  6
CONTINUOUS
 10
2.642640
 20
9.210960
  0
VERTEX
  8
0
  6
CONTINUOUS
 10
2.651000
 20
9.224600
  0
VERTEX
  8
0
  6
CONTINUOUS
 10
2.654520
 20
9.238680
  0
VERTEX
  8
0
  6
CONTINUOUS
 10
2.654960
 20
9.246160
  0
VERTEX
  8
0
  6
CONTINUOUS
 10
2.651880
 20
9.260680
  0
VERTEX
  8
0
  6
CONTINUOUS
 10
2.644840
 20
9.274760
  0
VERTEX
  8
0
  6
CONTINUOUS
 10
2.633400
 20
9.288400
  0
VERTEX
  8
0
  6
CONTINUOUS
 10
2.608320
 20
9.306880
  0
VERTEX
  8
0
  6
CONTINUOUS
 10
2.574440
 20
9.321400
  0
VERTEX
  8
0
  6
CONTINUOUS
 10
2.546720
 20
9.328440
  0
VERTEX
  8
0
  6
CONTINUOUS
 10
2.515480
 20
9.332840
  0
VERTEX
  8
0
  6
CONTINUOUS
 10
2.467520
 20
9.335480
  0
VERTEX
  8
0
  6
CONTINUOUS
 10
2.445520
 20
9.340320
  0
VERTEX
  8
0
  6
CONTINUOUS
 10
2.429240
 20
9.349120
  0
VERTEX
  8
0
  6
CONTINUOUS
 10
2.422640
 20
9.355280
  0
VERTEX
  8
0
  6
CONTINUOUS
 10
2.413400
 20
9.371120
  0
VERTEX
  8
0
  6
CONTINUOUS
 10
2.409000
 20
9.391360
  0
VERTEX
  8
0
  6
CONTINUOUS
 10
2.408120
 20
9.403240
  0
VERTEX
  8
0
  6
CONTINUOUS
 10
2.410320
 20
9.431400
  0
VERTEX
  8
0
  6
CONTINUOUS
 10
2.421760
 20
9.484200
  0
VERTEX
  8
0
  6
CONTINUOUS
 10
2.436720
 20
9.534800
  0
VERTEX
  8
0
  6
CONTINUOUS
 10
2.456080
 20
9.584080
  0
VERTEX
  8
0
  6
CONTINUOUS
 10
2.479840
 20
9.632920
  0
VERTEX
  8
0
  6
CONTINUOUS
 10
2.524720
 20
9.706400
  0
VERTEX
  8
0
  6
CONTINUOUS
 10
2.580160
 20
9.779000
  0
VERTEX
  8
0
  6
CONTINUOUS
 10
2.622840
 20
9.826520
  0
VERTEX
  8
0
  6
CONTINUOUS
 10
2.695440
 20
9.896920
  0
VERTEX
  8
0
  6
CONTINUOUS
 10
2.777720
 20
9.966000
  0
VERTEX
  8
0
  6
CONTINUOUS
 10
2.870120
 20
10.032440
  0
VERTEX
  8
0
  6
CONTINUOUS
 10
2.937000
 20
10.076000
  0
VERTEX
  8
0
  6
CONTINUOUS
 10
3.045240
 20
10.138480
  0
VERTEX
  8
0
  6
CONTINUOUS
 10
3.162720
 20
10.198320
  0
VERTEX
  8
0
  6
CONTINUOUS
 10
3.289000
 20
10.254640
  0
VERTEX
  8
0
  6
CONTINUOUS
 10
3.378320
 20
10.289840
  0
VERTEX
  8
0
  6
CONTINUOUS
 10
3.519120
 20
10.340000
  0
VERTEX
  8
0
  6
CONTINUOUS
 10
3.618120
 20
10.371240
  0
VERTEX
  8
0
  6
CONTINUOUS
 10
3.773000
 20
10.413920
  0
VERTEX
  8
0
  6
CONTINUOUS
 10
3.936680
 20
10.452200
  0
VERTEX
  8
0
  6
CONTINUOUS
 10
4.049760
 20
10.474640
  0
VERTEX
  8
0
  6
CONTINUOUS
 10
4.226200
 20
10.503680
  0
VERTEX
  8
0
  6
CONTINUOUS
 10
4.348080
 20
10.519960
  0
VERTEX
  8
0
  6
CONTINUOUS
 10
4.473480
 20
10.533600
  0
VERTEX
  8
0
  6
CONTINUOUS
 10
4.601960
 20
10.544600
  0
VERTEX
  8
0
  6
CONTINUOUS
 10
4.733960
 20
10.552960
  0
VERTEX
  8
0
  6
CONTINUOUS
 10
4.937240
 20
10.559560
  0
VERTEX
  8
0
  6
CONTINUOUS
 10
5.006760
 20
10.560000
  0
VERTEX
  8
0
  6
CONTINUOUS
 10
4.997960
 20
10.561760
  0
VERTEX
  8
0
  6
CONTINUOUS
 10
5.136120
 20
10.559560
  0
VERTEX
  8
0
  6
CONTINUOUS
 10
5.270760
 20
10.554720
  0
VERTEX
  8
0
  6
CONTINUOUS
 10
5.467440
 20
10.541520
  0
VERTEX
  8
0
  6
CONTINUOUS
 10
5.594600
 20
10.529200
  0
VERTEX
  8
0
  6
CONTINUOUS
 10
5.718240
 20
10.514240
  0
VERTEX
  8
0
  6
CONTINUOUS
 10
5.897320
 20
10.486520
  0
VERTEX
  8
0
  6
CONTINUOUS
 10
6.012160
 20
10.465400
  0
VERTEX
  8
0
  6
CONTINUOUS
 10
6.123920
 20
10.441640
  0
VERTEX
  8
0
  6
CONTINUOUS
 10
6.284520
 20
10.402040
  0
VERTEX
  8
0
  6
CONTINUOUS
 10
6.387040
 20
10.373000
  0
VERTEX
  8
0
  6
CONTINUOUS
 10
6.534000
 20
10.325480
  0
VERTEX
  8
0
  6
CONTINUOUS
 10
6.672160
 20
10.274000
  0
VERTEX
  8
0
  6
CONTINUOUS
 10
6.759280
 20
10.237920
  0
VERTEX
  8
0
  6
CONTINUOUS
 10
6.882920
 20
10.180280
  0
VERTEX
  8
0
  6
CONTINUOUS
 10
6.996880
 20
10.119560
  0
VERTEX
  8
0
  6
CONTINUOUS
 10
7.068160
 20
10.077320
  0
VERTEX
  8
0
  6
CONTINUOUS
 10
7.135040
 20
10.034200
  0
VERTEX
  8
0
  6
CONTINUOUS
 10
7.197520
 20
9.990200
  0
VERTEX
  8
0
  6
CONTINUOUS
 10
7.283320
 20
9.922000
  0
VERTEX
  8
0
  6
CONTINUOUS
 10
7.359000
 20
9.851600
  0
VERTEX
  8
0
  6
CONTINUOUS
 10
7.403880
 20
9.804520
  0
VERTEX
  8
0
  6
CONTINUOUS
 10
7.444360
 20
9.756120
  0
VERTEX
  8
0
  6
CONTINUOUS
 10
7.480440
 20
9.707720
  0
VERTEX
  8
0
  6
CONTINUOUS
 10
7.525320
 20
9.634240
  0
VERTEX
  8
0
  6
CONTINUOUS
 10
7.549080
 20
9.585400
  0
VERTEX
  8
0
  6
CONTINUOUS
 10
7.568440
 20
9.536120
  0
VERTEX
  8
0
  6
CONTINUOUS
 10
7.587800
 20
9.467040
  0
VERTEX
  8
0
  6
CONTINUOUS
 10
7.594400
 20
9.433160
  0
VERTEX
  8
0
  6
CONTINUOUS
 10
7.596600
 20
9.405000
  0
VERTEX
  8
0
  6
CONTINUOUS
 10
7.596160
 20
9.392680
  0
VERTEX
  8
0
  6
CONTINUOUS
 10
7.591760
 20
9.372440
  0
VERTEX
  8
0
  6
CONTINUOUS
 10
7.582520
 20
9.357040
  0
VERTEX
  8
0
  6
CONTINUOUS
 10
7.568440
 20
9.345600
  0
VERTEX
  8
0
  6
CONTINUOUS
 10
7.549080
 20
9.339000
  0
VERTEX
  8
0
  6
CONTINUOUS
 10
7.537640
 20
9.336800
  0
VERTEX
  8
0
  6
CONTINUOUS
 10
7.489680
 20
9.334160
  0
VERTEX
  8
0
  6
CONTINUOUS
 10
7.458440
 20
9.329760
  0
VERTEX
  8
0
  6
CONTINUOUS
 10
7.430720
 20
9.322720
  0
VERTEX
  8
0
  6
CONTINUOUS
 10
7.396840
 20
9.308200
  0
VERTEX
  8
0
  6
CONTINUOUS
 10
7.379240
 20
9.296320
  0
VERTEX
  8
0
  6
CONTINUOUS
 10
7.360320
 20
9.276520
  0
VERTEX
  8
0
  6
CONTINUOUS
 10
7.352840
 20
9.262000
  0
VERTEX
  8
0
  6
CONTINUOUS
 10
7.350200
 20
9.247480
  0
VERTEX
  8
0
  6
CONTINUOUS
 10
7.351520
 20
9.233400
  0
VERTEX
  8
0
  6
CONTINUOUS
 10
7.357680
 20
9.219320
  0
VERTEX
  8
0
  6
CONTINUOUS
 10
7.368240
 20
9.206120
  0
VERTEX
  8
0
  6
CONTINUOUS
 10
7.383200
 20
9.194240
  0
VERTEX
  8
0
  6
CONTINUOUS
 10
7.403440
 20
9.184120
  0
VERTEX
  8
0
  6
CONTINUOUS
 10
7.428080
 20
9.175760
  0
VERTEX
  8
0
  6
CONTINUOUS
 10
7.458000
 20
9.169600
  0
VERTEX
  8
0
  6
CONTINUOUS
 10
7.457560
 20
8.737080
  0
SEQEND
  8
0
  0
POLYLINE
  8
0
  6
CONTINUOUS
 66
     1
 40
0.000000
 41
0.000000
  0
VERTEX
  8
0
  6
CONTINUOUS
 10
0.875160
 20
7.282880
  0
VERTEX
  8
0
  6
CONTINUOUS
 10
0.867680
 20
7.282880
  0
VERTEX
  8
0
  6
CONTINUOUS
 10
1.980880
 20
7.282880
  0
VERTEX
  8
0
  6
CONTINUOUS
 10
2.023120
 20
7.296080
  0
VERTEX
  8
0
  6
CONTINUOUS
 10
2.061400
 20
7.311040
  0
VERTEX
  8
0
  6
CONTINUOUS
 10
2.096160
 20
7.328640
  0
VERTEX
  8
0
  6
CONTINUOUS
 10
2.127400
 20
7.347560
  0
VERTEX
  8
0
  6
CONTINUOUS
 10
2.167880
 20
7.379680
  0
VERTEX
  8
0
  6
CONTINUOUS
 10
2.190760
 20
7.403000
  0
VERTEX
  8
0
  6
CONTINUOUS
 10
2.218920
 20
7.440400
  0
VERTEX
  8
0
  6
CONTINUOUS
 10
2.233880
 20
7.466360
  0
VERTEX
  8
0
  6
CONTINUOUS
 10
2.250600
 20
7.507280
  0
VERTEX
  8
0
  6
CONTINUOUS
 10
2.260720
 20
7.549520
  0
VERTEX
  8
0
  6
CONTINUOUS
 10
2.264240
 20
7.578120
  0
VERTEX
  8
0
  6
CONTINUOUS
 10
2.265120
 20
7.606720
  0
VERTEX
  8
0
  6
CONTINUOUS
 10
2.263360
 20
7.635760
  0
VERTEX
  8
0
  6
CONTINUOUS
 10
2.258960
 20
7.664360
  0
VERTEX
  8
0
  6
CONTINUOUS
 10
2.252360
 20
7.692520
  0
VERTEX
  8
0
  6
CONTINUOUS
 10
2.243560
 20
7.720240
  0
VERTEX
  8
0
  6
CONTINUOUS
 10
2.232120
 20
7.747080
  0
VERTEX
  8
0
  6
CONTINUOUS
 10
2.218920
 20
7.773040
  0
VERTEX
  8
0
  6
CONTINUOUS
 10
2.203960
 20
7.798120
  0
VERTEX
  8
0
  6
CONTINUOUS
 10
2.186800
 20
7.821880
  0
VERTEX
  8
0
  6
CONTINUOUS
 10
2.146760
 20
7.865440
  0
VERTEX
  8
0
  6
CONTINUOUS
 10
2.112440
 20
7.893160
  0
VERTEX
  8
0
  6
CONTINUOUS
 10
2.074600
 20
7.916480
  0
VERTEX
  8
0
  6
CONTINUOUS
 10
2.033680
 20
7.934520
  0
VERTEX
  8
0
  6
CONTINUOUS
 10
1.990120
 20
7.947280
  0
VERTEX
  8
0
  6
CONTINUOUS
 10
1.959320
 20
7.952120
  0
VERTEX
  8
0
  6
CONTINUOUS
 10
1.927640
 20
7.953880
  0
VERTEX
  8
0
  6
CONTINUOUS
 10
1.927640
 20
8.073120
  0
VERTEX
  8
0
  6
CONTINUOUS
 10
1.883640
 20
8.075320
  0
VERTEX
  8
0
  6
CONTINUOUS
 10
1.802240
 20
8.083240
  0
VERTEX
  8
0
  6
CONTINUOUS
 10
1.728760
 20
8.094680
  0
VERTEX
  8
0
  6
CONTINUOUS
 10
1.663200
 20
8.109200
  0
VERTEX
  8
0
  6
CONTINUOUS
 10
1.605120
 20
8.127680
  0
VERTEX
  8
0
  6
CONTINUOUS
 10
1.554520
 20
8.148800
  0
VERTEX
  8
0
  6
CONTINUOUS
 10
1.510520
 20
8.172560
  0
VERTEX
  8
0
  6
CONTINUOUS
 10
1.473120
 20
8.198520
  0
VERTEX
  8
0
  6
CONTINUOUS
 10
1.441880
 20
8.226680
  0
VERTEX
  8
0
  6
CONTINUOUS
 10
1.416360
 20
8.256600
  0
VERTEX
  8
0
  6
CONTINUOUS
 10
1.396560
 20
8.288280
  0
VERTEX
  8
0
  6
CONTINUOUS
 10
1.382040
 20
8.321280
  0
VERTEX
  8
0
  6
CONTINUOUS
 10
1.372360
 20
8.355160
  0
VERTEX
  8
0
  6
CONTINUOUS
 10
1.367080
 20
8.389480
  0
VERTEX
  8
0
  6
CONTINUOUS
 10
1.366200
 20
8.424240
  0
VERTEX
  8
0
  6
CONTINUOUS
 10
1.368840
 20
8.459440
  0
VERTEX
  8
0
  6
CONTINUOUS
 10
1.379840
 20
8.511800
  0
VERTEX
  8
0
  6
CONTINUOUS
 10
1.397440
 20
8.562840
  0
VERTEX
  8
0
  6
CONTINUOUS
 10
1.421200
 20
8.611680
  0
VERTEX
  8
0
  6
CONTINUOUS
 10
1.439240
 20
8.642480
  0
VERTEX
  8
0
  6
CONTINUOUS
 10
1.459040
 20
8.671520
  0
VERTEX
  8
0
  6
CONTINUOUS
 10
1.491600
 20
8.711560
  0
VERTEX
  8
0
  6
CONTINUOUS
 10
1.525920
 20
8.746320
  0
VERTEX
  8
0
  6
CONTINUOUS
 10
1.561120
 20
8.774480
  0
VERTEX
  8
0
  6
CONTINUOUS
 10
1.596320
 20
8.795600
  0
VERTEX
  8
0
  6
CONTINUOUS
 10
1.618760
 20
8.805280
  0
VERTEX
  8
0
  6
CONTINUOUS
 10
1.640760
 20
8.811000
  0
VERTEX
  8
0
  6
CONTINUOUS
 10
1.661000
 20
8.812320
  0
VERTEX
  8
0
  6
CONTINUOUS
 10
1.679920
 20
8.809240
  0
VERTEX
  8
0
  6
CONTINUOUS
 10
1.689160
 20
8.835640
  0
VERTEX
  8
0
  6
CONTINUOUS
 10
1.691800
 20
8.848840
  0
VERTEX
  8
0
  6
CONTINUOUS
 10
1.692680
 20
8.862920
  0
VERTEX
  8
0
  6
CONTINUOUS
 10
1.691360
 20
8.877440
  0
VERTEX
  8
0
  6
CONTINUOUS
 10
1.687840
 20
8.892400
  0
VERTEX
  8
0
  6
CONTINUOUS
 10
1.677280
 20
8.916160
  0
VERTEX
  8
0
  6
CONTINUOUS
 10
1.660120
 20
8.941240
  0
VERTEX
  8
0
  6
CONTINUOUS
 10
1.634600
 20
8.968520
  0
VERTEX
  8
0
  6
CONTINUOUS
 10
1.587520
 20
9.008560
  0
VERTEX
  8
0
  6
CONTINUOUS
 10
1.522400
 20
9.052560
  0
VERTEX
  8
0
  6
CONTINUOUS
 10
1.460360
 20
9.089080
  0
VERTEX
  8
0
  6
CONTINUOUS
 10
1.526800
 20
9.095680
  0
VERTEX
  8
0
  6
CONTINUOUS
 10
1.587080
 20
9.107120
  0
VERTEX
  8
0
  6
CONTINUOUS
 10
1.641200
 20
9.123840
  0
VERTEX
  8
0
  6
CONTINUOUS
 10
1.689160
 20
9.144520
  0
VERTEX
  8
0
  6
CONTINUOUS
 10
1.730960
 20
9.169160
  0
VERTEX
  8
0
  6
CONTINUOUS
 10
1.767040
 20
9.197760
  0
VERTEX
  8
0
  6
CONTINUOUS
 10
1.797400
 20
9.229440
  0
VERTEX
  8
0
  6
CONTINUOUS
 10
1.821600
 20
9.264200
  0
VERTEX
  8
0
  6
CONTINUOUS
 10
1.840520
 20
9.301600
  0
VERTEX
  8
0
  6
CONTINUOUS
 10
1.848000
 20
9.321400
  0
VERTEX
  8
0
  6
CONTINUOUS
 10
1.858120
 20
9.361880
  0
VERTEX
  8
0
  6
CONTINUOUS
 10
1.862960
 20
9.404560
  0
VERTEX
  8
0
  6
CONTINUOUS
 10
1.863400
 20
9.426120
  0
VERTEX
  8
0
  6
CONTINUOUS
 10
1.859880
 20
9.470560
  0
VERTEX
  8
0
  6
CONTINUOUS
 10
1.856360
 20
9.493440
  0
VERTEX
  8
0
  6
CONTINUOUS
 10
1.844920
 20
9.538760
  0
VERTEX
  8
0
  6
CONTINUOUS
 10
1.828200
 20
9.584960
  0
VERTEX
  8
0
  6
CONTINUOUS
 10
1.806640
 20
9.630720
  0
VERTEX
  8
0
  6
CONTINUOUS
 10
1.779800
 20
9.676480
  0
VERTEX
  8
0
  6
CONTINUOUS
 10
1.748120
 20
9.721360
  0
VERTEX
  8
0
  6
CONTINUOUS
 10
1.711160
 20
9.764920
  0
VERTEX
  8
0
  6
CONTINUOUS
 10
1.669360
 20
9.807600
  0
VERTEX
  8
0
  6
CONTINUOUS
 10
1.623160
 20
9.848080
  0
VERTEX
  8
0
  6
CONTINUOUS
 10
1.571680
 20
9.886800
  0
VERTEX
  8
0
  6
CONTINUOUS
 10
1.515800
 20
9.922880
  0
VERTEX
  8
0
  6
CONTINUOUS
 10
1.455520
 20
9.956320
  0
VERTEX
  8
0
  6
CONTINUOUS
 10
1.390840
 20
9.986240
  0
VERTEX
  8
0
  6
CONTINUOUS
 10
1.321320
 20
10.013080
  0
VERTEX
  8
0
  6
CONTINUOUS
 10
1.247400
 20
10.035960
  0
VERTEX
  8
0
  6
CONTINUOUS
 10
1.169520
 20
10.054440
  0
VERTEX
  8
0
  6
CONTINUOUS
 10
1.087240
 20
10.068520
  0
VERTEX
  8
0
  6
CONTINUOUS
 10
1.001000
 20
10.077760
  0
VERTEX
  8
0
  6
CONTINUOUS
 10
0.910360
 20
10.081280
  0
VERTEX
  8
0
  6
CONTINUOUS
 10
0.863720
 20
10.081280
  0
VERTEX
  8
0
  6
CONTINUOUS
 10
0.863720
 20
7.282880
  0
VERTEX
  8
0
  6
CONTINUOUS
 10
0.875160
 20
7.282880
  0
SEQEND
  8
0
  0
SOLID
  8
0
 62
    15
 10
3.768600
 20
8.376720
 11
4.079240
 21
7.741360
 12
3.775200
 22
8.314240
 13
4.086280
 23
7.678880
  0
POLYLINE
  8
0
  6
CONTINUOUS
 66
     1
 40
0.000000
 41
0.000000
  0
VERTEX
  8
0
  6
CONTINUOUS
 10
3.768600
 20
8.376720
  0
VERTEX
  8
0
  6
CONTINUOUS
 10
4.079240
 20
7.741360
  0
VERTEX
  8
0
  6
CONTINUOUS
 10
4.086280
 20
7.678880
  0
VERTEX
  8
0
  6
CONTINUOUS
 10
3.775200
 20
8.314240
  0
VERTEX
  8
0
  6
CONTINUOUS
 10
3.768600
 20
8.376720
  0
SEQEND
  8
0
  0
SOLID
  8
0
 62
    15
 10
3.958680
 20
7.965320
 11
4.269760
 21
7.329960
 12
3.981120
 22
7.918240
 13
4.292200
 23
7.282880
  0
POLYLINE
  8
0
  6
CONTINUOUS
 66
     1
 40
0.000000
 41
0.000000
  0
VERTEX
  8
0
  6
CONTINUOUS
 10
3.958680
 20
7.965320
  0
VERTEX
  8
0
  6
CONTINUOUS
 10
4.269760
 20
7.329960
  0
VERTEX
  8
0
  6
CONTINUOUS
 10
4.292200
 20
7.282880
  0
VERTEX
  8
0
  6
CONTINUOUS
 10
3.981120
 20
7.918240
  0
VERTEX
  8
0
  6
CONTINUOUS
 10
3.958680
 20
7.965320
  0
SEQEND
  8
0
  0
SOLID
  8
0
 62
    15
 10
3.894440
 20
8.314240
 11
4.205080
 21
7.678880
 12
3.899720
 22
8.228440
 13
4.210800
 23
7.593080
  0
POLYLINE
  8
0
  6
CONTINUOUS
 66
     1
 40
0.000000
 41
0.000000
  0
VERTEX
  8
0
  6
CONTINUOUS
 10
3.894440
 20
8.314240
  0
VERTEX
  8
0
  6
CONTINUOUS
 10
4.205080
 20
7.678880
  0
VERTEX
  8
0
  6
CONTINUOUS
 10
4.210800
 20
7.593080
  0
VERTEX
  8
0
  6
CONTINUOUS
 10
3.899720
 20
8.228440
  0
VERTEX
  8
0
  6
CONTINUOUS
 10
3.894440
 20
8.314240
  0
SEQEND
  8
0
  0
SOLID
  8
0
 62
    15
 10
3.899720
 20
8.228440
 11
4.210800
 21
7.593080
 12
3.909400
 22
8.151000
 13
4.220480
 23
7.515640
  0
POLYLINE
  8
0
  6
CONTINUOUS
 66
     1
 40
0.000000
 41
0.000000
  0
VERTEX
  8
0
  6
CONTINUOUS
 10
3.899720
 20
8.228440
  0
VERTEX
  8
0
  6
CONTINUOUS
 10
4.210800
 20
7.593080
  0
VERTEX
  8
0
  6
CONTINUOUS
 10
4.220480
 20
7.515640
  0
VERTEX
  8
0
  6
CONTINUOUS
 10
3.909400
 20
8.151000
  0
VERTEX
  8
0
  6
CONTINUOUS
 10
3.899720
 20
8.228440
  0
SEQEND
  8
0
  0
SOLID
  8
0
 62
    15
 10
3.750560
 20
8.434360
 11
4.061200
 21
7.799000
 12
3.768600
 22
8.376720
 13
4.079240
 23
7.741360
  0
POLYLINE
  8
0
  6
CONTINUOUS
 66
     1
 40
0.000000
 41
0.000000
  0
VERTEX
  8
0
  6
CONTINUOUS
 10
3.750560
 20
8.434360
  0
VERTEX
  8
0
  6
CONTINUOUS
 10
4.061200
 20
7.799000
  0
VERTEX
  8
0
  6
CONTINUOUS
 10
4.079240
 20
7.741360
  0
VERTEX
  8
0
  6
CONTINUOUS
 10
3.768600
 20
8.376720
  0
VERTEX
  8
0
  6
CONTINUOUS
 10
3.750560
 20
8.434360
  0
SEQEND
  8
0
  0
SOLID
  8
0
 62
    15
 10
3.922600
 20
8.081480
 11
4.233680
 21
7.446120
 12
3.939320
 22
8.019880
 13
4.249960
 23
7.384520
  0
POLYLINE
  8
0
  6
CONTINUOUS
 66
     1
 40
0.000000
 41
0.000000
  0
VERTEX
  8
0
  6
CONTINUOUS
 10
3.922600
 20
8.081480
  0
VERTEX
  8
0
  6
CONTINUOUS
 10
4.233680
 20
7.446120
  0
VERTEX
  8
0
  6
CONTINUOUS
 10
4.249960
 20
7.384520
  0
VERTEX
  8
0
  6
CONTINUOUS
 10
3.939320
 20
8.019880
  0
VERTEX
  8
0
  6
CONTINUOUS
 10
3.922600
 20
8.081480
  0
SEQEND
  8
0
  0
SOLID
  8
0
 62
    15
 10
3.939320
 20
8.019880
 11
4.249960
 21
7.384520
 12
3.958680
 22
7.965320
 13
4.269760
 23
7.329960
  0
POLYLINE
  8
0
  6
CONTINUOUS
 66
     1
 40
0.000000
 41
0.000000
  0
VERTEX
  8
0
  6
CONTINUOUS
 10
3.939320
 20
8.019880
  0
VERTEX
  8
0
  6
CONTINUOUS
 10
4.249960
 20
7.384520
  0
VERTEX
  8
0
  6
CONTINUOUS
 10
4.269760
 20
7.329960
  0
VERTEX
  8
0
  6
CONTINUOUS
 10
3.958680
 20
7.965320
  0
VERTEX
  8
0
  6
CONTINUOUS
 10
3.939320
 20
8.019880
  0
SEQEND
  8
0
  0
SOLID
  8
0
 62
    15
 10
3.909400
 20
8.151000
 11
4.220480
 21
7.515640
 12
3.922600
 22
8.081480
 13
4.233680
 23
7.446120
  0
POLYLINE
  8
0
  6
CONTINUOUS
 66
     1
 40
0.000000
 41
0.000000
  0
VERTEX
  8
0
  6
CONTINUOUS
 10
3.909400
 20
8.151000
  0
VERTEX
  8
0
  6
CONTINUOUS
 10
4.220480
 20
7.515640
  0
VERTEX
  8
0
  6
CONTINUOUS
 10
4.233680
 20
7.446120
  0
VERTEX
  8
0
  6
CONTINUOUS
 10
3.922600
 20
8.081480
  0
VERTEX
  8
0
  6
CONTINUOUS
 10
3.909400
 20
8.151000
  0
SEQEND
  8
0
  0
SOLID
  8
0
 62
    15
 10
5.761360
 20
7.872920
 11
6.072000
 21
7.237560
 12
5.821200
 22
7.743120
 13
6.132280
 23
7.107760
  0
POLYLINE
  8
0
  6
CONTINUOUS
 66
     1
 40
0.000000
 41
0.000000
  0
VERTEX
  8
0
  6
CONTINUOUS
 10
5.761360
 20
7.872920
  0
VERTEX
  8
0
  6
CONTINUOUS
 10
6.072000
 20
7.237560
  0
VERTEX
  8
0
  6
CONTINUOUS
 10
6.132280
 20
7.107760
  0
VERTEX
  8
0
  6
CONTINUOUS
 10
5.821200
 20
7.743120
  0
VERTEX
  8
0
  6
CONTINUOUS
 10
5.761360
 20
7.872920
  0
SEQEND
  8
0
  0
SOLID
  8
0
 62
    15
 10
5.821200
 20
7.743120
 11
6.132280
 21
7.107760
 12
5.866960
 22
7.595720
 13
6.177600
 23
6.960360
  0
POLYLINE
  8
0
  6
CONTINUOUS
 66
     1
 40
0.000000
 41
0.000000
  0
VERTEX
  8
0
  6
CONTINUOUS
 10
5.821200
 20
7.743120
  0
VERTEX
  8
0
  6
CONTINUOUS
 10
6.132280
 20
7.107760
  0
VERTEX
  8
0
  6
CONTINUOUS
 10
6.177600
 20
6.960360
  0
VERTEX
  8
0
  6
CONTINUOUS
 10
5.866960
 20
7.595720
  0
VERTEX
  8
0
  6
CONTINUOUS
 10
5.821200
 20
7.743120
  0
SEQEND
  8
0
  0
SOLID
  8
0
 62
    15
 10
5.866960
 20
7.595720
 11
6.177600
 21
6.960360
 12
5.894680
 22
7.431160
 13
6.205760
 23
6.795800
  0
POLYLINE
  8
0
  6
CONTINUOUS
 66
     1
 40
0.000000
 41
0.000000
  0
VERTEX
  8
0
  6
CONTINUOUS
 10
5.866960
 20
7.595720
  0
VERTEX
  8
0
  6
CONTINUOUS
 10
6.177600
 20
6.960360
  0
VERTEX
  8
0
  6
CONTINUOUS
 10
6.205760
 20
6.795800
  0
VERTEX
  8
0
  6
CONTINUOUS
 10
5.894680
 20
7.431160
  0
VERTEX
  8
0
  6
CONTINUOUS
 10
5.866960
 20
7.595720
  0
SEQEND
  8
0
  0
SOLID
  8
0
 62
    15
 10
5.894680
 20
7.431160
 11
6.205760
 21
6.795800
 12
5.901280
 22
7.342720
 13
6.212360
 23
6.707360
  0
POLYLINE
  8
0
  6
CONTINUOUS
 66
     1
 40
0.000000
 41
0.000000
  0
VERTEX
  8
0
  6
CONTINUOUS
 10
5.894680
 20
7.431160
  0
VERTEX
  8
0
  6
CONTINUOUS
 10
6.205760
 20
6.795800
  0
VERTEX
  8
0
  6
CONTINUOUS
 10
6.212360
 20
6.707360
  0
VERTEX
  8
0
  6
CONTINUOUS
 10
5.901280
 20
7.342720
  0
VERTEX
  8
0
  6
CONTINUOUS
 10
5.894680
 20
7.431160
  0
SEQEND
  8
0
  0
SOLID
  8
0
 62
    15
 10
5.901280
 20
7.342720
 11
6.212360
 21
6.707360
 12
5.902160
 22
7.250320
 13
6.213240
 23
6.614960
  0
POLYLINE
  8
0
  6
CONTINUOUS
 66
     1
 40
0.000000
 41
0.000000
  0
VERTEX
  8
0
  6
CONTINUOUS
 10
5.901280
 20
7.342720
  0
VERTEX
  8
0
  6
CONTINUOUS
 10
6.212360
 20
6.707360
  0
VERTEX
  8
0
  6
CONTINUOUS
 10
6.213240
 20
6.614960
  0
VERTEX
  8
0
  6
CONTINUOUS
 10
5.902160
 20
7.250320
  0
VERTEX
  8
0
  6
CONTINUOUS
 10
5.901280
 20
7.342720
  0
SEQEND
  8
0
  0
SOLID
  8
0
 62
    15
 10
5.902160
 20
7.250320
 11
6.213240
 21
6.614960
 12
3.103760
 22
7.250320
 13
3.414840
 23
6.614960
  0
POLYLINE
  8
0
  6
CONTINUOUS
 66
     1
 40
0.000000
 41
0.000000
  0
VERTEX
  8
0
  6
CONTINUOUS
 10
5.902160
 20
7.250320
  0
VERTEX
  8
0
  6
CONTINUOUS
 10
6.213240
 20
6.614960
  0
VERTEX
  8
0
  6
CONTINUOUS
 10
3.414840
 20
6.614960
  0
VERTEX
  8
0
  6
CONTINUOUS
 10
3.103760
 20
7.250320
  0
VERTEX
  8
0
  6
CONTINUOUS
 10
5.902160
 20
7.250320
  0
SEQEND
  8
0
  0
POLYLINE
  8
0
  6
CONTINUOUS
 66
     1
 40
0.000000
 41
0.000000
  0
VERTEX
  8
0
  6
CONTINUOUS
 10
3.103760
 20
7.261760
  0
VERTEX
  8
0
  6
CONTINUOUS
 10
3.103760
 20
8.367480
  0
VERTEX
  8
0
  6
CONTINUOUS
 10
3.132360
 20
8.448000
  0
VERTEX
  8
0
  6
CONTINUOUS
 10
3.168880
 20
8.514000
  0
VERTEX
  8
0
  6
CONTINUOUS
 10
3.212440
 20
8.566360
  0
VERTEX
  8
0
  6
CONTINUOUS
 10
3.261280
 20
8.605520
  0
VERTEX
  8
0
  6
CONTINUOUS
 10
3.314520
 20
8.632360
  0
VERTEX
  8
0
  6
CONTINUOUS
 10
3.370840
 20
8.647320
  0
VERTEX
  8
0
  6
CONTINUOUS
 10
3.428040
 20
8.651720
  0
VERTEX
  8
0
  6
CONTINUOUS
 10
3.485240
 20
8.645560
  0
VERTEX
  8
0
  6
CONTINUOUS
 10
3.541120
 20
8.630160
  0
VERTEX
  8
0
  6
CONTINUOUS
 10
3.594360
 20
8.605960
  0
VERTEX
  8
0
  6
CONTINUOUS
 10
3.643200
 20
8.573400
  0
VERTEX
  8
0
  6
CONTINUOUS
 10
3.686320
 20
8.533360
  0
VERTEX
  8
0
  6
CONTINUOUS
 10
3.722840
 20
8.487160
  0
VERTEX
  8
0
  6
CONTINUOUS
 10
3.750560
 20
8.434360
  0
VERTEX
  8
0
  6
CONTINUOUS
 10
3.768600
 20
8.376720
  0
VERTEX
  8
0
  6
CONTINUOUS
 10
3.775200
 20
8.314240
  0
VERTEX
  8
0
  6
CONTINUOUS
 10
3.894440
 20
8.314240
  0
VERTEX
  8
0
  6
CONTINUOUS
 10
3.899720
 20
8.228440
  0
VERTEX
  8
0
  6
CONTINUOUS
 10
3.909400
 20
8.151000
  0
VERTEX
  8
0
  6
CONTINUOUS
 10
3.922600
 20
8.081480
  0
VERTEX
  8
0
  6
CONTINUOUS
 10
3.939320
 20
8.019880
  0
VERTEX
  8
0
  6
CONTINUOUS
 10
3.958680
 20
7.965320
  0
VERTEX
  8
0
  6
CONTINUOUS
 10
3.981120
 20
7.918240
  0
VERTEX
  8
0
  6
CONTINUOUS
 10
4.006200
 20
7.877760
  0
VERTEX
  8
0
  6
CONTINUOUS
 10
4.033480
 20
7.843440
  0
VERTEX
  8
0
  6
CONTINUOUS
 10
4.093320
 20
7.792400
  0
VERTEX
  8
0
  6
CONTINUOUS
 10
4.158880
 20
7.763360
  0
VERTEX
  8
0
  6
CONTINUOUS
 10
4.227960
 20
7.752800
  0
VERTEX
  8
0
  6
CONTINUOUS
 10
4.297920
 20
7.758520
  0
VERTEX
  8
0
  6
CONTINUOUS
 10
4.367000
 20
7.777440
  0
VERTEX
  8
0
  6
CONTINUOUS
 10
4.432560
 20
7.807800
  0
VERTEX
  8
0
  6
CONTINUOUS
 10
4.492840
 20
7.845640
  0
VERTEX
  8
0
  6
CONTINUOUS
 10
4.544760
 20
7.889640
  0
VERTEX
  8
0
  6
CONTINUOUS
 10
4.587000
 20
7.936280
  0
VERTEX
  8
0
  6
CONTINUOUS
 10
4.616480
 20
7.982920
  0
VERTEX
  8
0
  6
CONTINUOUS
 10
4.631880
 20
8.027360
  0
VERTEX
  8
0
  6
CONTINUOUS
 10
4.630120
 20
8.066520
  0
VERTEX
  8
0
  6
CONTINUOUS
 10
4.683800
 20
8.078840
  0
VERTEX
  8
0
  6
CONTINUOUS
 10
4.713280
 20
8.074000
  0
VERTEX
  8
0
  6
CONTINUOUS
 10
4.745400
 20
8.058600
  0
VERTEX
  8
0
  6
CONTINUOUS
 10
4.780600
 20
8.030440
  0
VERTEX
  8
0
  6
CONTINUOUS
 10
4.819320
 20
7.987320
  0
VERTEX
  8
0
  6
CONTINUOUS
 10
4.862000
 20
7.927040
  0
VERTEX
  8
0
  6
CONTINUOUS
 10
4.909960
 20
7.846960
  0
VERTEX
  8
0
  6
CONTINUOUS
 10
4.916560
 20
7.913400
  0
VERTEX
  8
0
  6
CONTINUOUS
 10
4.928440
 20
7.973680
  0
VERTEX
  8
0
  6
CONTINUOUS
 10
4.944720
 20
8.027800
  0
VERTEX
  8
0
  6
CONTINUOUS
 10
4.965400
 20
8.075760
  0
VERTEX
  8
0
  6
CONTINUOUS
 10
4.990480
 20
8.118000
  0
VERTEX
  8
0
  6
CONTINUOUS
 10
5.019080
 20
8.154080
  0
VERTEX
  8
0
  6
CONTINUOUS
 10
5.050760
 20
8.184000
  0
VERTEX
  8
0
  6
CONTINUOUS
 10
5.085520
 20
8.208640
  0
VERTEX
  8
0
  6
CONTINUOUS
 10
5.162520
 20
8.240320
  0
VERTEX
  8
0
  6
CONTINUOUS
 10
5.247440
 20
8.250000
  0
VERTEX
  8
0
  6
CONTINUOUS
 10
5.337200
 20
8.238120
  0
VERTEX
  8
0
  6
CONTINUOUS
 10
5.429160
 20
8.204680
  0
VERTEX
  8
0
  6
CONTINUOUS
 10
5.520240
 20
8.151000
  0
VERTEX
  8
0
  6
CONTINUOUS
 10
5.607800
 20
8.077520
  0
VERTEX
  8
0
  6
CONTINUOUS
 10
5.689200
 20
7.984680
  0
VERTEX
  8
0
  6
CONTINUOUS
 10
5.761360
 20
7.872920
  0
VERTEX
  8
0
  6
CONTINUOUS
 10
5.821200
 20
7.743120
  0
VERTEX
  8
0
  6
CONTINUOUS
 10
5.866960
 20
7.595720
  0
VERTEX
  8
0
  6
CONTINUOUS
 10
5.894680
 20
7.431160
  0
VERTEX
  8
0
  6
CONTINUOUS
 10
5.901280
 20
7.342720
  0
VERTEX
  8
0
  6
CONTINUOUS
 10
5.902160
 20
7.250320
  0
VERTEX
  8
0
  6
CONTINUOUS
 10
3.103760
 20
7.250320
  0
VERTEX
  8
0
  6
CONTINUOUS
 10
3.103760
 20
7.261760
  0
SEQEND
  8
0
  0
SOLID
  8
0
 62
    15
 10
6.953760
 20
2.837560
 11
7.215120
 21
2.367640
 12
6.869720
 22
2.695440
 13
7.131080
 23
2.225520
  0
POLYLINE
  8
0
  6
CONTINUOUS
 66
     1
 40
0.000000
 41
0.000000
  0
VERTEX
  8
0
  6
CONTINUOUS
 10
6.953760
 20
2.837560
  0
VERTEX
  8
0
  6
CONTINUOUS
 10
7.215120
 20
2.367640
  0
VERTEX
  8
0
  6
CONTINUOUS
 10
7.131080
 20
2.225520
  0
VERTEX
  8
0
  6
CONTINUOUS
 10
6.869720
 20
2.695440
  0
VERTEX
  8
0
  6
CONTINUOUS
 10
6.953760
 20
2.837560
  0
SEQEND
  8
0
  0
SOLID
  8
0
 62
    15
 10
6.952000
 20
6.752240
 11
7.213360
 21
6.282320
 12
7.030760
 22
6.593400
 13
7.292120
 23
6.123920
  0
POLYLINE
  8
0
  6
CONTINUOUS
 66
     1
 40
0.000000
 41
0.000000
  0
VERTEX
  8
0
  6
CONTINUOUS
 10
6.952000
 20
6.752240
  0
VERTEX
  8
0
  6
CONTINUOUS
 10
7.213360
 20
6.282320
  0
VERTEX
  8
0
  6
CONTINUOUS
 10
7.292120
 20
6.123920
  0
VERTEX
  8
0
  6
CONTINUOUS
 10
7.030760
 20
6.593400
  0
VERTEX
  8
0
  6
CONTINUOUS
 10
6.952000
 20
6.752240
  0
SEQEND
  8
0
  0
SOLID
  8
0
 62
    15
 10
7.030760
 20
6.593400
 11
7.292120
 21
6.123920
 12
7.103800
 22
6.419160
 13
7.365160
 23
5.949240
  0
POLYLINE
  8
0
  6
CONTINUOUS
 66
     1
 40
0.000000
 41
0.000000
  0
VERTEX
  8
0
  6
CONTINUOUS
 10
7.030760
 20
6.593400
  0
VERTEX
  8
0
  6
CONTINUOUS
 10
7.292120
 20
6.123920
  0
VERTEX
  8
0
  6
CONTINUOUS
 10
7.365160
 20
5.949240
  0
VERTEX
  8
0
  6
CONTINUOUS
 10
7.103800
 20
6.419160
  0
VERTEX
  8
0
  6
CONTINUOUS
 10
7.030760
 20
6.593400
  0
SEQEND
  8
0
  0
SOLID
  8
0
 62
    15
 10
7.103800
 20
6.419160
 11
7.365160
 21
5.949240
 12
7.169360
 22
6.229080
 13
7.431160
 23
5.759600
  0
POLYLINE
  8
0
  6
CONTINUOUS
 66
     1
 40
0.000000
 41
0.000000
  0
VERTEX
  8
0
  6
CONTINUOUS
 10
7.103800
 20
6.419160
  0
VERTEX
  8
0
  6
CONTINUOUS
 10
7.365160
 20
5.949240
  0
VERTEX
  8
0
  6
CONTINUOUS
 10
7.431160
 20
5.759600
  0
VERTEX
  8
0
  6
CONTINUOUS
 10
7.169360
 20
6.229080
  0
VERTEX
  8
0
  6
CONTINUOUS
 10
7.103800
 20
6.419160
  0
SEQEND
  8
0
  0
SOLID
  8
0
 62
    15
 10
7.169360
 20
6.229080
 11
7.431160
 21
5.759600
 12
7.227440
 22
6.024040
 13
7.489240
 23
5.554560
  0
POLYLINE
  8
0
  6
CONTINUOUS
 66
     1
 40
0.000000
 41
0.000000
  0
VERTEX
  8
0
  6
CONTINUOUS
 10
7.169360
 20
6.229080
  0
VERTEX
  8
0
  6
CONTINUOUS
 10
7.431160
 20
5.759600
  0
VERTEX
  8
0
  6
CONTINUOUS
 10
7.489240
 20
5.554560
  0
VERTEX
  8
0
  6
CONTINUOUS
 10
7.227440
 20
6.024040
  0
VERTEX
  8
0
  6
CONTINUOUS
 10
7.169360
 20
6.229080
  0
SEQEND
  8
0
  0
SOLID
  8
0
 62
    15
 10
7.227440
 20
6.024040
 11
7.489240
 21
5.554560
 12
7.277160
 22
5.804480
 13
7.538520
 23
5.335000
  0
POLYLINE
  8
0
  6
CONTINUOUS
 66
     1
 40
0.000000
 41
0.000000
  0
VERTEX
  8
0
  6
CONTINUOUS
 10
7.227440
 20
6.024040
  0
VERTEX
  8
0
  6
CONTINUOUS
 10
7.489240
 20
5.554560
  0
VERTEX
  8
0
  6
CONTINUOUS
 10
7.538520
 20
5.335000
  0
VERTEX
  8
0
  6
CONTINUOUS
 10
7.277160
 20
5.804480
  0
VERTEX
  8
0
  6
CONTINUOUS
 10
7.227440
 20
6.024040
  0
SEQEND
  8
0
  0
SOLID
  8
0
 62
    15
 10
7.277160
 20
5.804480
 11
7.538520
 21
5.335000
 12
7.317200
 22
5.570840
 13
7.579000
 23
5.101360
  0
POLYLINE
  8
0
  6
CONTINUOUS
 66
     1
 40
0.000000
 41
0.000000
  0
VERTEX
  8
0
  6
CONTINUOUS
 10
7.277160
 20
5.804480
  0
VERTEX
  8
0
  6
CONTINUOUS
 10
7.538520
 20
5.335000
  0
VERTEX
  8
0
  6
CONTINUOUS
 10
7.579000
 20
5.101360
  0
VERTEX
  8
0
  6
CONTINUOUS
 10
7.317200
 20
5.570840
  0
VERTEX
  8
0
  6
CONTINUOUS
 10
7.277160
 20
5.804480
  0
SEQEND
  8
0
  0
SOLID
  8
0
 62
    15
 10
7.317200
 20
5.570840
 11
7.579000
 21
5.101360
 12
7.347120
 22
5.323560
 13
7.608920
 23
4.854080
  0
POLYLINE
  8
0
  6
CONTINUOUS
 66
     1
 40
0.000000
 41
0.000000
  0
VERTEX
  8
0
  6
CONTINUOUS
 10
7.317200
 20
5.570840
  0
VERTEX
  8
0
  6
CONTINUOUS
 10
7.579000
 20
5.101360
  0
VERTEX
  8
0
  6
CONTINUOUS
 10
7.608920
 20
4.854080
  0
VERTEX
  8
0
  6
CONTINUOUS
 10
7.347120
 20
5.323560
  0
VERTEX
  8
0
  6
CONTINUOUS
 10
7.317200
 20
5.570840
  0
SEQEND
  8
0
  0
SOLID
  8
0
 62
    15
 10
7.347120
 20
5.323560
 11
7.608920
 21
4.854080
 12
7.366480
 22
5.063520
 13
7.627840
 23
4.593600
  0
POLYLINE
  8
0
  6
CONTINUOUS
 66
     1
 40
0.000000
 41
0.000000
  0
VERTEX
  8
0
  6
CONTINUOUS
 10
7.347120
 20
5.323560
  0
VERTEX
  8
0
  6
CONTINUOUS
 10
7.608920
 20
4.854080
  0
VERTEX
  8
0
  6
CONTINUOUS
 10
7.627840
 20
4.593600
  0
VERTEX
  8
0
  6
CONTINUOUS
 10
7.366480
 20
5.063520
  0
VERTEX
  8
0
  6
CONTINUOUS
 10
7.347120
 20
5.323560
  0
SEQEND
  8
0
  0
SOLID
  8
0
 62
    15
 10
7.366480
 20
5.063520
 11
7.627840
 21
4.593600
 12
7.373520
 22
4.790280
 13
7.634880
 23
4.320800
  0
POLYLINE
  8
0
  6
CONTINUOUS
 66
     1
 40
0.000000
 41
0.000000
  0
VERTEX
  8
0
  6
CONTINUOUS
 10
7.366480
 20
5.063520
  0
VERTEX
  8
0
  6
CONTINUOUS
 10
7.627840
 20
4.593600
  0
VERTEX
  8
0
  6
CONTINUOUS
 10
7.634880
 20
4.320800
  0
VERTEX
  8
0
  6
CONTINUOUS
 10
7.373520
 20
4.790280
  0
VERTEX
  8
0
  6
CONTINUOUS
 10
7.366480
 20
5.063520
  0
SEQEND
  8
0
  0
SOLID
  8
0
 62
    15
 10
7.375280
 20
4.799080
 11
7.636640
 21
4.329160
 12
7.367800
 22
4.526280
 13
7.629600
 23
4.056360
  0
POLYLINE
  8
0
  6
CONTINUOUS
 66
     1
 40
0.000000
 41
0.000000
  0
VERTEX
  8
0
  6
CONTINUOUS
 10
7.375280
 20
4.799080
  0
VERTEX
  8
0
  6
CONTINUOUS
 10
7.636640
 20
4.329160
  0
VERTEX
  8
0
  6
CONTINUOUS
 10
7.629600
 20
4.056360
  0
VERTEX
  8
0
  6
CONTINUOUS
 10
7.367800
 20
4.526280
  0
VERTEX
  8
0
  6
CONTINUOUS
 10
7.375280
 20
4.799080
  0
SEQEND
  8
0
  0
SOLID
  8
0
 62
    15
 10
7.367800
 20
4.526280
 11
7.629600
 21
4.056360
 12
7.348880
 22
4.265800
 13
7.610680
 23
3.796320
  0
POLYLINE
  8
0
  6
CONTINUOUS
 66
     1
 40
0.000000
 41
0.000000
  0
VERTEX
  8
0
  6
CONTINUOUS
 10
7.367800
 20
4.526280
  0
VERTEX
  8
0
  6
CONTINUOUS
 10
7.629600
 20
4.056360
  0
VERTEX
  8
0
  6
CONTINUOUS
 10
7.610680
 20
3.796320
  0
VERTEX
  8
0
  6
CONTINUOUS
 10
7.348880
 20
4.265800
  0
VERTEX
  8
0
  6
CONTINUOUS
 10
7.367800
 20
4.526280
  0
SEQEND
  8
0
  0
SOLID
  8
0
 62
    15
 10
7.348880
 20
4.265800
 11
7.610680
 21
3.796320
 12
7.318960
 22
4.018520
 13
7.580320
 23
3.549040
  0
POLYLINE
  8
0
  6
CONTINUOUS
 66
     1
 40
0.000000
 41
0.000000
  0
VERTEX
  8
0
  6
CONTINUOUS
 10
7.348880
 20
4.265800
  0
VERTEX
  8
0
  6
CONTINUOUS
 10
7.610680
 20
3.796320
  0
VERTEX
  8
0
  6
CONTINUOUS
 10
7.580320
 20
3.549040
  0
VERTEX
  8
0
  6
CONTINUOUS
 10
7.318960
 20
4.018520
  0
VERTEX
  8
0
  6
CONTINUOUS
 10
7.348880
 20
4.265800
  0
SEQEND
  8
0
  0
SOLID
  8
0
 62
    15
 10
7.318960
 20
4.018520
 11
7.580320
 21
3.549040
 12
7.278920
 22
3.784880
 13
7.540280
 23
3.315400
  0
POLYLINE
  8
0
  6
CONTINUOUS
 66
     1
 40
0.000000
 41
0.000000
  0
VERTEX
  8
0
  6
CONTINUOUS
 10
7.318960
 20
4.018520
  0
VERTEX
  8
0
  6
CONTINUOUS
 10
7.580320
 20
3.549040
  0
VERTEX
  8
0
  6
CONTINUOUS
 10
7.540280
 20
3.315400
  0
VERTEX
  8
0
  6
CONTINUOUS
 10
7.278920
 20
3.784880
  0
VERTEX
  8
0
  6
CONTINUOUS
 10
7.318960
 20
4.018520
  0
SEQEND
  8
0
  0
SOLID
  8
0
 62
    15
 10
7.278920
 20
3.784880
 11
7.540280
 21
3.315400
 12
7.229200
 22
3.565320
 13
7.490560
 23
3.095840
  0
POLYLINE
  8
0
  6
CONTINUOUS
 66
     1
 40
0.000000
 41
0.000000
  0
VERTEX
  8
0
  6
CONTINUOUS
 10
7.278920
 20
3.784880
  0
VERTEX
  8
0
  6
CONTINUOUS
 10
7.540280
 20
3.315400
  0
VERTEX
  8
0
  6
CONTINUOUS
 10
7.490560
 20
3.095840
  0
VERTEX
  8
0
  6
CONTINUOUS
 10
7.229200
 20
3.565320
  0
VERTEX
  8
0
  6
CONTINUOUS
 10
7.278920
 20
3.784880
  0
SEQEND
  8
0
  0
SOLID
  8
0
 62
    15
 10
7.229200
 20
3.565320
 11
7.490560
 21
3.095840
 12
7.171120
 22
3.360280
 13
7.432480
 23
2.890800
  0
POLYLINE
  8
0
  6
CONTINUOUS
 66
     1
 40
0.000000
 41
0.000000
  0
VERTEX
  8
0
  6
CONTINUOUS
 10
7.229200
 20
3.565320
  0
VERTEX
  8
0
  6
CONTINUOUS
 10
7.490560
 20
3.095840
  0
VERTEX
  8
0
  6
CONTINUOUS
 10
7.432480
 20
2.890800
  0
VERTEX
  8
0
  6
CONTINUOUS
 10
7.171120
 20
3.360280
  0
VERTEX
  8
0
  6
CONTINUOUS
 10
7.229200
 20
3.565320
  0
SEQEND
  8
0
  0
SOLID
  8
0
 62
    15
 10
7.171120
 20
3.360280
 11
7.432480
 21
2.890800
 12
7.105120
 22
3.170200
 13
7.366920
 23
2.700720
  0
POLYLINE
  8
0
  6
CONTINUOUS
 66
     1
 40
0.000000
 41
0.000000
  0
VERTEX
  8
0
  6
CONTINUOUS
 10
7.171120
 20
3.360280
  0
VERTEX
  8
0
  6
CONTINUOUS
 10
7.432480
 20
2.890800
  0
VERTEX
  8
0
  6
CONTINUOUS
 10
7.366920
 20
2.700720
  0
VERTEX
  8
0
  6
CONTINUOUS
 10
7.105120
 20
3.170200
  0
VERTEX
  8
0
  6
CONTINUOUS
 10
7.171120
 20
3.360280
  0
SEQEND
  8
0
  0
SOLID
  8
0
 62
    15
 10
7.105120
 20
3.170200
 11
7.366920
 21
2.700720
 12
7.032520
 22
2.995960
 13
7.293880
 23
2.526040
  0
POLYLINE
  8
0
  6
CONTINUOUS
 66
     1
 40
0.000000
 41
0.000000
  0
VERTEX
  8
0
  6
CONTINUOUS
 10
7.105120
 20
3.170200
  0
VERTEX
  8
0
  6
CONTINUOUS
 10
7.366920
 20
2.700720
  0
VERTEX
  8
0
  6
CONTINUOUS
 10
7.293880
 20
2.526040
  0
VERTEX
  8
0
  6
CONTINUOUS
 10
7.032520
 20
2.995960
  0
VERTEX
  8
0
  6
CONTINUOUS
 10
7.105120
 20
3.170200
  0
SEQEND
  8
0
  0
SOLID
  8
0
 62
    15
 10
7.032520
 20
2.995960
 11
7.293880
 21
2.526040
 12
6.953760
 22
2.837560
 13
7.215120
 23
2.367640
  0
POLYLINE
  8
0
  6
CONTINUOUS
 66
     1
 40
0.000000
 41
0.000000
  0
VERTEX
  8
0
  6
CONTINUOUS
 10
7.032520
 20
2.995960
  0
VERTEX
  8
0
  6
CONTINUOUS
 10
7.293880
 20
2.526040
  0
VERTEX
  8
0
  6
CONTINUOUS
 10
7.215120
 20
2.367640
  0
VERTEX
  8
0
  6
CONTINUOUS
 10
6.953760
 20
2.837560
  0
VERTEX
  8
0
  6
CONTINUOUS
 10
7.032520
 20
2.995960
  0
SEQEND
  8
0
  0
SOLID
  8
0
 62
    15
 10
5.981360
 20
7.250320
 11
6.242720
 21
6.780840
 12
5.995880
 22
7.195760
 13
6.257240
 23
6.726280
  0
POLYLINE
  8
0
  6
CONTINUOUS
 66
     1
 40
0.000000
 41
0.000000
  0
VERTEX
  8
0
  6
CONTINUOUS
 10
5.981360
 20
7.250320
  0
VERTEX
  8
0
  6
CONTINUOUS
 10
6.242720
 20
6.780840
  0
VERTEX
  8
0
  6
CONTINUOUS
 10
6.257240
 20
6.726280
  0
VERTEX
  8
0
  6
CONTINUOUS
 10
5.995880
 20
7.195760
  0
VERTEX
  8
0
  6
CONTINUOUS
 10
5.981360
 20
7.250320
  0
SEQEND
  8
0
  0
SOLID
  8
0
 62
    15
 10
6.869720
 20
2.695440
 11
7.131080
 21
2.225520
 12
6.781280
 22
2.570040
 13
7.042640
 23
2.100560
  0
POLYLINE
  8
0
  6
CONTINUOUS
 66
     1
 40
0.000000
 41
0.000000
  0
VERTEX
  8
0
  6
CONTINUOUS
 10
6.869720
 20
2.695440
  0
VERTEX
  8
0
  6
CONTINUOUS
 10
7.131080
 20
2.225520
  0
VERTEX
  8
0
  6
CONTINUOUS
 10
7.042640
 20
2.100560
  0
VERTEX
  8
0
  6
CONTINUOUS
 10
6.781280
 20
2.570040
  0
VERTEX
  8
0
  6
CONTINUOUS
 10
6.869720
 20
2.695440
  0
SEQEND
  8
0
  0
SOLID
  8
0
 62
    15
 10
6.781280
 20
2.570040
 11
7.042640
 21
2.100560
 12
6.688880
 22
2.462240
 13
6.950240
 23
1.992760
  0
POLYLINE
  8
0
  6
CONTINUOUS
 66
     1
 40
0.000000
 41
0.000000
  0
VERTEX
  8
0
  6
CONTINUOUS
 10
6.781280
 20
2.570040
  0
VERTEX
  8
0
  6
CONTINUOUS
 10
7.042640
 20
2.100560
  0
VERTEX
  8
0
  6
CONTINUOUS
 10
6.950240
 20
1.992760
  0
VERTEX
  8
0
  6
CONTINUOUS
 10
6.688880
 20
2.462240
  0
VERTEX
  8
0
  6
CONTINUOUS
 10
6.781280
 20
2.570040
  0
SEQEND
  8
0
  0
SOLID
  8
0
 62
    15
 10
6.688880
 20
2.462240
 11
6.950240
 21
1.992760
 12
6.593840
 22
2.372480
 13
6.855640
 23
1.902560
  0
POLYLINE
  8
0
  6
CONTINUOUS
 66
     1
 40
0.000000
 41
0.000000
  0
VERTEX
  8
0
  6
CONTINUOUS
 10
6.688880
 20
2.462240
  0
VERTEX
  8
0
  6
CONTINUOUS
 10
6.950240
 20
1.992760
  0
VERTEX
  8
0
  6
CONTINUOUS
 10
6.855640
 20
1.902560
  0
VERTEX
  8
0
  6
CONTINUOUS
 10
6.593840
 20
2.372480
  0
VERTEX
  8
0
  6
CONTINUOUS
 10
6.688880
 20
2.462240
  0
SEQEND
  8
0
  0
SOLID
  8
0
 62
    15
 10
6.593840
 20
2.372480
 11
6.855640
 21
1.902560
 12
6.497040
 22
2.300760
 13
6.758400
 23
1.831280
  0
POLYLINE
  8
0
  6
CONTINUOUS
 66
     1
 40
0.000000
 41
0.000000
  0
VERTEX
  8
0
  6
CONTINUOUS
 10
6.593840
 20
2.372480
  0
VERTEX
  8
0
  6
CONTINUOUS
 10
6.855640
 20
1.902560
  0
VERTEX
  8
0
  6
CONTINUOUS
 10
6.758400
 20
1.831280
  0
VERTEX
  8
0
  6
CONTINUOUS
 10
6.497040
 20
2.300760
  0
VERTEX
  8
0
  6
CONTINUOUS
 10
6.593840
 20
2.372480
  0
SEQEND
  8
0
  0
SOLID
  8
0
 62
    15
 10
6.497040
 20
2.300760
 11
6.758400
 21
1.831280
 12
6.398920
 22
2.248400
 13
6.660280
 23
1.778480
  0
POLYLINE
  8
0
  6
CONTINUOUS
 66
     1
 40
0.000000
 41
0.000000
  0
VERTEX
  8
0
  6
CONTINUOUS
 10
6.497040
 20
2.300760
  0
VERTEX
  8
0
  6
CONTINUOUS
 10
6.758400
 20
1.831280
  0
VERTEX
  8
0
  6
CONTINUOUS
 10
6.660280
 20
1.778480
  0
VERTEX
  8
0
  6
CONTINUOUS
 10
6.398920
 20
2.248400
  0
VERTEX
  8
0
  6
CONTINUOUS
 10
6.497040
 20
2.300760
  0
SEQEND
  8
0
  0
SOLID
  8
0
 62
    15
 10
6.398920
 20
2.248400
 11
6.660280
 21
1.778480
 12
6.300360
 22
2.214960
 13
6.562160
 23
1.745040
  0
POLYLINE
  8
0
  6
CONTINUOUS
 66
     1
 40
0.000000
 41
0.000000
  0
VERTEX
  8
0
  6
CONTINUOUS
 10
6.398920
 20
2.248400
  0
VERTEX
  8
0
  6
CONTINUOUS
 10
6.660280
 20
1.778480
  0
VERTEX
  8
0
  6
CONTINUOUS
 10
6.562160
 20
1.745040
  0
VERTEX
  8
0
  6
CONTINUOUS
 10
6.300360
 20
2.214960
  0
VERTEX
  8
0
  6
CONTINUOUS
 10
6.398920
 20
2.248400
  0
SEQEND
  8
0
  0
SOLID
  8
0
 62
    15
 10
6.300360
 20
2.214960
 11
6.562160
 21
1.745040
 12
6.299480
 22
2.214080
 13
6.560840
 23
1.744600
  0
POLYLINE
  8
0
  6
CONTINUOUS
 66
     1
 40
0.000000
 41
0.000000
  0
VERTEX
  8
0
  6
CONTINUOUS
 10
6.300360
 20
2.214960
  0
VERTEX
  8
0
  6
CONTINUOUS
 10
6.562160
 20
1.745040
  0
VERTEX
  8
0
  6
CONTINUOUS
 10
6.560840
 20
1.744600
  0
VERTEX
  8
0
  6
CONTINUOUS
 10
6.299480
 20
2.214080
  0
VERTEX
  8
0
  6
CONTINUOUS
 10
6.300360
 20
2.214960
  0
SEQEND
  8
0
  0
SOLID
  8
0
 62
    15
 10
6.127000
 20
2.390080
 11
6.388800
 21
1.920600
 12
6.103680
 22
2.425720
 13
6.365040
 23
1.955800
  0
POLYLINE
  8
0
  6
CONTINUOUS
 66
     1
 40
0.000000
 41
0.000000
  0
VERTEX
  8
0
  6
CONTINUOUS
 10
6.127000
 20
2.390080
  0
VERTEX
  8
0
  6
CONTINUOUS
 10
6.388800
 20
1.920600
  0
VERTEX
  8
0
  6
CONTINUOUS
 10
6.365040
 20
1.955800
  0
VERTEX
  8
0
  6
CONTINUOUS
 10
6.103680
 20
2.425720
  0
VERTEX
  8
0
  6
CONTINUOUS
 10
6.127000
 20
2.390080
  0
SEQEND
  8
0
  0
SOLID
  8
0
 62
    15
 10
6.185960
 20
2.205720
 11
6.447760
 21
1.735800
 12
6.159560
 22
2.229040
 13
6.420920
 23
1.759120
  0
POLYLINE
  8
0
  6
CONTINUOUS
 66
     1
 40
0.000000
 41
0.000000
  0
VERTEX
  8
0
  6
CONTINUOUS
 10
6.185960
 20
2.205720
  0
VERTEX
  8
0
  6
CONTINUOUS
 10
6.447760
 20
1.735800
  0
VERTEX
  8
0
  6
CONTINUOUS
 10
6.420920
 20
1.759120
  0
VERTEX
  8
0
  6
CONTINUOUS
 10
6.159560
 20
2.229040
  0
VERTEX
  8
0
  6
CONTINUOUS
 10
6.185960
 20
2.205720
  0
SEQEND
  8
0
  0
SOLID
  8
0
 62
    15
 10
6.075520
 20
2.444200
 11
6.337320
 21
1.974720
 12
6.046920
 22
2.445520
 13
6.308280
 23
1.976040
  0
POLYLINE
  8
0
  6
CONTINUOUS
 66
     1
 40
0.000000
 41
0.000000
  0
VERTEX
  8
0
  6
CONTINUOUS
 10
6.075520
 20
2.444200
  0
VERTEX
  8
0
  6
CONTINUOUS
 10
6.337320
 20
1.974720
  0
VERTEX
  8
0
  6
CONTINUOUS
 10
6.308280
 20
1.976040
  0
VERTEX
  8
0
  6
CONTINUOUS
 10
6.046920
 20
2.445520
  0
VERTEX
  8
0
  6
CONTINUOUS
 10
6.075520
 20
2.444200
  0
SEQEND
  8
0
  0
SOLID
  8
0
 62
    15
 10
6.299480
 20
2.214080
 11
6.560840
 21
1.744600
 12
6.232160
 22
2.201320
 13
6.493520
 23
1.731400
  0
POLYLINE
  8
0
  6
CONTINUOUS
 66
     1
 40
0.000000
 41
0.000000
  0
VERTEX
  8
0
  6
CONTINUOUS
 10
6.299480
 20
2.214080
  0
VERTEX
  8
0
  6
CONTINUOUS
 10
6.560840
 20
1.744600
  0
VERTEX
  8
0
  6
CONTINUOUS
 10
6.493520
 20
1.731400
  0
VERTEX
  8
0
  6
CONTINUOUS
 10
6.232160
 20
2.201320
  0
VERTEX
  8
0
  6
CONTINUOUS
 10
6.299480
 20
2.214080
  0
SEQEND
  8
0
  0
SOLID
  8
0
 62
    15
 10
6.103680
 20
2.425720
 11
6.365040
 21
1.955800
 12
6.075520
 22
2.444200
 13
6.337320
 23
1.974720
  0
POLYLINE
  8
0
  6
CONTINUOUS
 66
     1
 40
0.000000
 41
0.000000
  0
VERTEX
  8
0
  6
CONTINUOUS
 10
6.103680
 20
2.425720
  0
VERTEX
  8
0
  6
CONTINUOUS
 10
6.365040
 20
1.955800
  0
VERTEX
  8
0
  6
CONTINUOUS
 10
6.337320
 20
1.974720
  0
VERTEX
  8
0
  6
CONTINUOUS
 10
6.075520
 20
2.444200
  0
VERTEX
  8
0
  6
CONTINUOUS
 10
6.103680
 20
2.425720
  0
SEQEND
  8
0
  0
SOLID
  8
0
 62
    15
 10
6.232160
 20
2.201320
 11
6.493520
 21
1.731400
 12
6.185960
 22
2.205720
 13
6.447760
 23
1.735800
  0
POLYLINE
  8
0
  6
CONTINUOUS
 66
     1
 40
0.000000
 41
0.000000
  0
VERTEX
  8
0
  6
CONTINUOUS
 10
6.232160
 20
2.201320
  0
VERTEX
  8
0
  6
CONTINUOUS
 10
6.493520
 20
1.731400
  0
VERTEX
  8
0
  6
CONTINUOUS
 10
6.447760
 20
1.735800
  0
VERTEX
  8
0
  6
CONTINUOUS
 10
6.185960
 20
2.205720
  0
VERTEX
  8
0
  6
CONTINUOUS
 10
6.232160
 20
2.201320
  0
SEQEND
  8
0
  0
SOLID
  8
0
 62
    15
 10
6.046920
 20
2.445520
 11
6.308280
 21
1.976040
 12
6.019640
 22
2.429240
 13
6.281000
 23
1.959320
  0
POLYLINE
  8
0
  6
CONTINUOUS
 66
     1
 40
0.000000
 41
0.000000
  0
VERTEX
  8
0
  6
CONTINUOUS
 10
6.046920
 20
2.445520
  0
VERTEX
  8
0
  6
CONTINUOUS
 10
6.308280
 20
1.976040
  0
VERTEX
  8
0
  6
CONTINUOUS
 10
6.281000
 20
1.959320
  0
VERTEX
  8
0
  6
CONTINUOUS
 10
6.019640
 20
2.429240
  0
VERTEX
  8
0
  6
CONTINUOUS
 10
6.046920
 20
2.445520
  0
SEQEND
  8
0
  0
SOLID
  8
0
 62
    15
 10
6.019640
 20
2.429240
 11
6.281000
 21
1.959320
 12
5.997200
 22
2.393600
 13
6.259000
 23
1.924120
  0
POLYLINE
  8
0
  6
CONTINUOUS
 66
     1
 40
0.000000
 41
0.000000
  0
VERTEX
  8
0
  6
CONTINUOUS
 10
6.019640
 20
2.429240
  0
VERTEX
  8
0
  6
CONTINUOUS
 10
6.281000
 20
1.959320
  0
VERTEX
  8
0
  6
CONTINUOUS
 10
6.259000
 20
1.924120
  0
VERTEX
  8
0
  6
CONTINUOUS
 10
5.997200
 20
2.393600
  0
VERTEX
  8
0
  6
CONTINUOUS
 10
6.019640
 20
2.429240
  0
SEQEND
  8
0
  0
SOLID
  8
0
 62
    15
 10
5.997200
 20
2.393600
 11
6.259000
 21
1.924120
 12
5.983120
 22
2.339040
 13
6.244480
 23
1.869560
  0
POLYLINE
  8
0
  6
CONTINUOUS
 66
     1
 40
0.000000
 41
0.000000
  0
VERTEX
  8
0
  6
CONTINUOUS
 10
5.997200
 20
2.393600
  0
VERTEX
  8
0
  6
CONTINUOUS
 10
6.259000
 20
1.924120
  0
VERTEX
  8
0
  6
CONTINUOUS
 10
6.244480
 20
1.869560
  0
VERTEX
  8
0
  6
CONTINUOUS
 10
5.983120
 20
2.339040
  0
VERTEX
  8
0
  6
CONTINUOUS
 10
5.997200
 20
2.393600
  0
SEQEND
  8
0
  0
SOLID
  8
0
 62
    15
 10
5.983120
 20
2.339040
 11
6.244480
 21
1.869560
 12
5.583160
 22
2.339040
 13
5.844520
 23
1.869560
  0
POLYLINE
  8
0
  6
CONTINUOUS
 66
     1
 40
0.000000
 41
0.000000
  0
VERTEX
  8
0
  6
CONTINUOUS
 10
5.983120
 20
2.339040
  0
VERTEX
  8
0
  6
CONTINUOUS
 10
6.244480
 20
1.869560
  0
VERTEX
  8
0
  6
CONTINUOUS
 10
5.844520
 20
1.869560
  0
VERTEX
  8
0
  6
CONTINUOUS
 10
5.583160
 20
2.339040
  0
VERTEX
  8
0
  6
CONTINUOUS
 10
5.983120
 20
2.339040
  0
SEQEND
  8
0
  0
SOLID
  8
0
 62
    15
 10
5.583160
 20
2.339040
 11
5.844520
 21
1.869560
 12
5.550600
 22
2.339480
 13
5.811960
 23
1.870000
  0
POLYLINE
  8
0
  6
CONTINUOUS
 66
     1
 40
0.000000
 41
0.000000
  0
VERTEX
  8
0
  6
CONTINUOUS
 10
5.583160
 20
2.339040
  0
VERTEX
  8
0
  6
CONTINUOUS
 10
5.844520
 20
1.869560
  0
VERTEX
  8
0
  6
CONTINUOUS
 10
5.811960
 20
1.870000
  0
VERTEX
  8
0
  6
CONTINUOUS
 10
5.550600
 20
2.339480
  0
VERTEX
  8
0
  6
CONTINUOUS
 10
5.583160
 20
2.339040
  0
SEQEND
  8
0
  0
POLYLINE
  8
0
  6
CONTINUOUS
 66
     1
 40
0.000000
 41
0.000000
  0
VERTEX
  8
0
  6
CONTINUOUS
 10
5.550600
 20
2.339480
  0
VERTEX
  8
0
  6
CONTINUOUS
 10
5.557200
 20
7.250760
  0
VERTEX
  8
0
  6
CONTINUOUS
 10
5.981360
 20
7.250320
  0
VERTEX
  8
0
  6
CONTINUOUS
 10
5.995880
 20
7.195760
  0
VERTEX
  8
0
  6
CONTINUOUS
 10
6.017880
 20
7.160560
  0
VERTEX
  8
0
  6
CONTINUOUS
 10
6.045160
 20
7.143840
  0
VERTEX
  8
0
  6
CONTINUOUS
 10
6.074200
 20
7.145160
  0
VERTEX
  8
0
  6
CONTINUOUS
 10
6.101920
 20
7.164080
  0
VERTEX
  8
0
  6
CONTINUOUS
 10
6.125240
 20
7.199280
  0
VERTEX
  8
0
  6
CONTINUOUS
 10
6.141960
 20
7.250760
  0
VERTEX
  8
0
  6
CONTINUOUS
 10
6.148120
 20
7.317200
  0
VERTEX
  8
0
  6
CONTINUOUS
 10
6.157800
 20
7.360760
  0
VERTEX
  8
0
  6
CONTINUOUS
 10
6.184200
 20
7.384080
  0
VERTEX
  8
0
  6
CONTINUOUS
 10
6.230400
 20
7.388480
  0
VERTEX
  8
0
  6
CONTINUOUS
 10
6.299040
 20
7.374840
  0
VERTEX
  8
0
  6
CONTINUOUS
 10
6.397160
 20
7.341400
  0
VERTEX
  8
0
  6
CONTINUOUS
 10
6.495280
 20
7.288600
  0
VERTEX
  8
0
  6
CONTINUOUS
 10
6.592520
 20
7.217320
  0
VERTEX
  8
0
  6
CONTINUOUS
 10
6.687120
 20
7.127120
  0
VERTEX
  8
0
  6
CONTINUOUS
 10
6.779520
 20
7.019320
  0
VERTEX
  8
0
  6
CONTINUOUS
 10
6.867960
 20
6.894360
  0
VERTEX
  8
0
  6
CONTINUOUS
 10
6.952000
 20
6.752240
  0
VERTEX
  8
0
  6
CONTINUOUS
 10
7.030760
 20
6.593400
  0
VERTEX
  8
0
  6
CONTINUOUS
 10
7.103800
 20
6.419160
  0
VERTEX
  8
0
  6
CONTINUOUS
 10
7.169360
 20
6.229080
  0
VERTEX
  8
0
  6
CONTINUOUS
 10
7.227440
 20
6.024040
  0
VERTEX
  8
0
  6
CONTINUOUS
 10
7.277160
 20
5.804480
  0
VERTEX
  8
0
  6
CONTINUOUS
 10
7.317200
 20
5.570840
  0
VERTEX
  8
0
  6
CONTINUOUS
 10
7.347120
 20
5.323560
  0
VERTEX
  8
0
  6
CONTINUOUS
 10
7.366480
 20
5.063520
  0
VERTEX
  8
0
  6
CONTINUOUS
 10
7.373520
 20
4.790280
  0
VERTEX
  8
0
  6
CONTINUOUS
 10
7.375280
 20
4.799080
  0
VERTEX
  8
0
  6
CONTINUOUS
 10
7.367800
 20
4.526280
  0
VERTEX
  8
0
  6
CONTINUOUS
 10
7.348880
 20
4.265800
  0
VERTEX
  8
0
  6
CONTINUOUS
 10
7.318960
 20
4.018520
  0
VERTEX
  8
0
  6
CONTINUOUS
 10
7.278920
 20
3.784880
  0
VERTEX
  8
0
  6
CONTINUOUS
 10
7.229200
 20
3.565320
  0
VERTEX
  8
0
  6
CONTINUOUS
 10
7.171120
 20
3.360280
  0
VERTEX
  8
0
  6
CONTINUOUS
 10
7.105120
 20
3.170200
  0
VERTEX
  8
0
  6
CONTINUOUS
 10
7.032520
 20
2.995960
  0
VERTEX
  8
0
  6
CONTINUOUS
 10
6.953760
 20
2.837560
  0
VERTEX
  8
0
  6
CONTINUOUS
 10
6.869720
 20
2.695440
  0
VERTEX
  8
0
  6
CONTINUOUS
 10
6.781280
 20
2.570040
  0
VERTEX
  8
0
  6
CONTINUOUS
 10
6.688880
 20
2.462240
  0
VERTEX
  8
0
  6
CONTINUOUS
 10
6.593840
 20
2.372480
  0
VERTEX
  8
0
  6
CONTINUOUS
 10
6.497040
 20
2.300760
  0
VERTEX
  8
0
  6
CONTINUOUS
 10
6.398920
 20
2.248400
  0
VERTEX
  8
0
  6
CONTINUOUS
 10
6.299480
 20
2.214080
  0
VERTEX
  8
0
  6
CONTINUOUS
 10
6.232160
 20
2.201320
  0
VERTEX
  8
0
  6
CONTINUOUS
 10
6.185960
 20
2.205720
  0
VERTEX
  8
0
  6
CONTINUOUS
 10
6.159560
 20
2.229040
  0
VERTEX
  8
0
  6
CONTINUOUS
 10
6.149440
 20
2.272600
  0
VERTEX
  8
0
  6
CONTINUOUS
 10
6.143280
 20
2.339040
  0
VERTEX
  8
0
  6
CONTINUOUS
 10
6.127000
 20
2.390080
  0
VERTEX
  8
0
  6
CONTINUOUS
 10
6.103680
 20
2.425720
  0
VERTEX
  8
0
  6
CONTINUOUS
 10
6.075520
 20
2.444200
  0
VERTEX
  8
0
  6
CONTINUOUS
 10
6.046920
 20
2.445520
  0
VERTEX
  8
0
  6
CONTINUOUS
 10
6.019640
 20
2.429240
  0
VERTEX
  8
0
  6
CONTINUOUS
 10
5.997200
 20
2.393600
  0
VERTEX
  8
0
  6
CONTINUOUS
 10
5.983120
 20
2.339040
  0
VERTEX
  8
0
  6
CONTINUOUS
 10
5.550600
 20
2.339480
  0
SEQEND
  8
0
  0
SOLID
  8
0
 62
    15
 10
4.436960
 20
1.782000
 11
4.788080
 21
1.165120
 12
4.371400
 22
1.812360
 13
4.722520
 23
1.195040
  0
POLYLINE
  8
0
  6
CONTINUOUS
 66
     1
 40
0.000000
 41
0.000000
  0
VERTEX
  8
0
  6
CONTINUOUS
 10
4.436960
 20
1.782000
  0
VERTEX
  8
0
  6
CONTINUOUS
 10
4.788080
 20
1.165120
  0
VERTEX
  8
0
  6
CONTINUOUS
 10
4.722520
 20
1.195040
  0
VERTEX
  8
0
  6
CONTINUOUS
 10
4.371400
 20
1.812360
  0
VERTEX
  8
0
  6
CONTINUOUS
 10
4.436960
 20
1.782000
  0
SEQEND
  8
0
  0
SOLID
  8
0
 62
    15
 10
5.905680
 20
2.247080
 11
6.256800
 21
1.630200
 12
5.899080
 22
2.158640
 13
6.250200
 23
1.541760
  0
POLYLINE
  8
0
  6
CONTINUOUS
 66
     1
 40
0.000000
 41
0.000000
  0
VERTEX
  8
0
  6
CONTINUOUS
 10
5.905680
 20
2.247080
  0
VERTEX
  8
0
  6
CONTINUOUS
 10
6.256800
 20
1.630200
  0
VERTEX
  8
0
  6
CONTINUOUS
 10
6.250200
 20
1.541760
  0
VERTEX
  8
0
  6
CONTINUOUS
 10
5.899080
 20
2.158640
  0
VERTEX
  8
0
  6
CONTINUOUS
 10
5.905680
 20
2.247080
  0
SEQEND
  8
0
  0
SOLID
  8
0
 62
    15
 10
5.899080
 20
2.158640
 11
6.250200
 21
1.541760
 12
5.871360
 22
1.994080
 13
6.222480
 23
1.377200
  0
POLYLINE
  8
0
  6
CONTINUOUS
 66
     1
 40
0.000000
 41
0.000000
  0
VERTEX
  8
0
  6
CONTINUOUS
 10
5.899080
 20
2.158640
  0
VERTEX
  8
0
  6
CONTINUOUS
 10
6.250200
 20
1.541760
  0
VERTEX
  8
0
  6
CONTINUOUS
 10
6.222480
 20
1.377200
  0
VERTEX
  8
0
  6
CONTINUOUS
 10
5.871360
 20
1.994080
  0
VERTEX
  8
0
  6
CONTINUOUS
 10
5.899080
 20
2.158640
  0
SEQEND
  8
0
  0
SOLID
  8
0
 62
    15
 10
5.871360
 20
1.994080
 11
6.222480
 21
1.377200
 12
5.825600
 22
1.846680
 13
6.176720
 23
1.229800
  0
POLYLINE
  8
0
  6
CONTINUOUS
 66
     1
 40
0.000000
 41
0.000000
  0
VERTEX
  8
0
  6
CONTINUOUS
 10
5.871360
 20
1.994080
  0
VERTEX
  8
0
  6
CONTINUOUS
 10
6.222480
 20
1.377200
  0
VERTEX
  8
0
  6
CONTINUOUS
 10
6.176720
 20
1.229800
  0
VERTEX
  8
0
  6
CONTINUOUS
 10
5.825600
 20
1.846680
  0
VERTEX
  8
0
  6
CONTINUOUS
 10
5.871360
 20
1.994080
  0
SEQEND
  8
0
  0
SOLID
  8
0
 62
    15
 10
5.825600
 20
1.846680
 11
6.176720
 21
1.229800
 12
5.765320
 22
1.716880
 13
6.116440
 23
1.100000
  0
POLYLINE
  8
0
  6
CONTINUOUS
 66
     1
 40
0.000000
 41
0.000000
  0
VERTEX
  8
0
  6
CONTINUOUS
 10
5.825600
 20
1.846680
  0
VERTEX
  8
0
  6
CONTINUOUS
 10
6.176720
 20
1.229800
  0
VERTEX
  8
0
  6
CONTINUOUS
 10
6.116440
 20
1.100000
  0
VERTEX
  8
0
  6
CONTINUOUS
 10
5.765320
 20
1.716880
  0
VERTEX
  8
0
  6
CONTINUOUS
 10
5.825600
 20
1.846680
  0
SEQEND
  8
0
  0
SOLID
  8
0
 62
    15
 10
5.765320
 20
1.716880
 11
6.116440
 21
1.100000
 12
5.693160
 22
1.605120
 13
6.044720
 23
0.988240
  0
POLYLINE
  8
0
  6
CONTINUOUS
 66
     1
 40
0.000000
 41
0.000000
  0
VERTEX
  8
0
  6
CONTINUOUS
 10
5.765320
 20
1.716880
  0
VERTEX
  8
0
  6
CONTINUOUS
 10
6.116440
 20
1.100000
  0
VERTEX
  8
0
  6
CONTINUOUS
 10
6.044720
 20
0.988240
  0
VERTEX
  8
0
  6
CONTINUOUS
 10
5.693160
 20
1.605120
  0
VERTEX
  8
0
  6
CONTINUOUS
 10
5.765320
 20
1.716880
  0
SEQEND
  8
0
  0
SOLID
  8
0
 62
    15
 10
5.693160
 20
1.605120
 11
6.044720
 21
0.988240
 12
5.612200
 22
1.512280
 13
5.963320
 23
0.895400
  0
POLYLINE
  8
0
  6
CONTINUOUS
 66
     1
 40
0.000000
 41
0.000000
  0
VERTEX
  8
0
  6
CONTINUOUS
 10
5.693160
 20
1.605120
  0
VERTEX
  8
0
  6
CONTINUOUS
 10
6.044720
 20
0.988240
  0
VERTEX
  8
0
  6
CONTINUOUS
 10
5.963320
 20
0.895400
  0
VERTEX
  8
0
  6
CONTINUOUS
 10
5.612200
 20
1.512280
  0
VERTEX
  8
0
  6
CONTINUOUS
 10
5.693160
 20
1.605120
  0
SEQEND
  8
0
  0
SOLID
  8
0
 62
    15
 10
5.612200
 20
1.512280
 11
5.963320
 21
0.895400
 12
5.524640
 22
1.438800
 13
5.875760
 23
0.821920
  0
POLYLINE
  8
0
  6
CONTINUOUS
 66
     1
 40
0.000000
 41
0.000000
  0
VERTEX
  8
0
  6
CONTINUOUS
 10
5.612200
 20
1.512280
  0
VERTEX
  8
0
  6
CONTINUOUS
 10
5.963320
 20
0.895400
  0
VERTEX
  8
0
  6
CONTINUOUS
 10
5.875760
 20
0.821920
  0
VERTEX
  8
0
  6
CONTINUOUS
 10
5.524640
 20
1.438800
  0
VERTEX
  8
0
  6
CONTINUOUS
 10
5.612200
 20
1.512280
  0
SEQEND
  8
0
  0
SOLID
  8
0
 62
    15
 10
5.524640
 20
1.438800
 11
5.875760
 21
0.821920
 12
5.433120
 22
1.385120
 13
5.784680
 23
0.768240
  0
POLYLINE
  8
0
  6
CONTINUOUS
 66
     1
 40
0.000000
 41
0.000000
  0
VERTEX
  8
0
  6
CONTINUOUS
 10
5.524640
 20
1.438800
  0
VERTEX
  8
0
  6
CONTINUOUS
 10
5.875760
 20
0.821920
  0
VERTEX
  8
0
  6
CONTINUOUS
 10
5.784680
 20
0.768240
  0
VERTEX
  8
0
  6
CONTINUOUS
 10
5.433120
 20
1.385120
  0
VERTEX
  8
0
  6
CONTINUOUS
 10
5.524640
 20
1.438800
  0
SEQEND
  8
0
  0
SOLID
  8
0
 62
    15
 10
5.433120
 20
1.385120
 11
5.784680
 21
0.768240
 12
5.341600
 22
1.352120
 13
5.692720
 23
0.734800
  0
POLYLINE
  8
0
  6
CONTINUOUS
 66
     1
 40
0.000000
 41
0.000000
  0
VERTEX
  8
0
  6
CONTINUOUS
 10
5.433120
 20
1.385120
  0
VERTEX
  8
0
  6
CONTINUOUS
 10
5.784680
 20
0.768240
  0
VERTEX
  8
0
  6
CONTINUOUS
 10
5.692720
 20
0.734800
  0
VERTEX
  8
0
  6
CONTINUOUS
 10
5.341600
 20
1.352120
  0
VERTEX
  8
0
  6
CONTINUOUS
 10
5.433120
 20
1.385120
  0
SEQEND
  8
0
  0
SOLID
  8
0
 62
    15
 10
5.341600
 20
1.352120
 11
5.692720
 21
0.734800
 12
5.251840
 22
1.339800
 13
5.602960
 23
0.722920
  0
POLYLINE
  8
0
  6
CONTINUOUS
 66
     1
 40
0.000000
 41
0.000000
  0
VERTEX
  8
0
  6
CONTINUOUS
 10
5.341600
 20
1.352120
  0
VERTEX
  8
0
  6
CONTINUOUS
 10
5.692720
 20
0.734800
  0
VERTEX
  8
0
  6
CONTINUOUS
 10
5.602960
 20
0.722920
  0
VERTEX
  8
0
  6
CONTINUOUS
 10
5.251840
 20
1.339800
  0
VERTEX
  8
0
  6
CONTINUOUS
 10
5.341600
 20
1.352120
  0
SEQEND
  8
0
  0
SOLID
  8
0
 62
    15
 10
5.251840
 20
1.339800
 11
5.602960
 21
0.722920
 12
5.166920
 22
1.349480
 13
5.518040
 23
0.732600
  0
POLYLINE
  8
0
  6
CONTINUOUS
 66
     1
 40
0.000000
 41
0.000000
  0
VERTEX
  8
0
  6
CONTINUOUS
 10
5.251840
 20
1.339800
  0
VERTEX
  8
0
  6
CONTINUOUS
 10
5.602960
 20
0.722920
  0
VERTEX
  8
0
  6
CONTINUOUS
 10
5.518040
 20
0.732600
  0
VERTEX
  8
0
  6
CONTINUOUS
 10
5.166920
 20
1.349480
  0
VERTEX
  8
0
  6
CONTINUOUS
 10
5.251840
 20
1.339800
  0
SEQEND
  8
0
  0
SOLID
  8
0
 62
    15
 10
4.914360
 20
1.742400
 11
5.265480
 21
1.125520
 12
4.866400
 22
1.662760
 13
5.217520
 23
1.045880
  0
POLYLINE
  8
0
  6
CONTINUOUS
 66
     1
 40
0.000000
 41
0.000000
  0
VERTEX
  8
0
  6
CONTINUOUS
 10
4.914360
 20
1.742400
  0
VERTEX
  8
0
  6
CONTINUOUS
 10
5.265480
 20
1.125520
  0
VERTEX
  8
0
  6
CONTINUOUS
 10
5.217520
 20
1.045880
  0
VERTEX
  8
0
  6
CONTINUOUS
 10
4.866400
 20
1.662760
  0
VERTEX
  8
0
  6
CONTINUOUS
 10
4.914360
 20
1.742400
  0
SEQEND
  8
0
  0
SOLID
  8
0
 62
    15
 10
5.089920
 20
1.381160
 11
5.441040
 21
0.764280
 12
5.055160
 22
1.405800
 13
5.406280
 23
0.788920
  0
POLYLINE
  8
0
  6
CONTINUOUS
 66
     1
 40
0.000000
 41
0.000000
  0
VERTEX
  8
0
  6
CONTINUOUS
 10
5.089920
 20
1.381160
  0
VERTEX
  8
0
  6
CONTINUOUS
 10
5.441040
 20
0.764280
  0
VERTEX
  8
0
  6
CONTINUOUS
 10
5.406280
 20
0.788920
  0
VERTEX
  8
0
  6
CONTINUOUS
 10
5.055160
 20
1.405800
  0
VERTEX
  8
0
  6
CONTINUOUS
 10
5.089920
 20
1.381160
  0
SEQEND
  8
0
  0
SOLID
  8
0
 62
    15
 10
5.055160
 20
1.405800
 11
5.406280
 21
0.788920
 12
5.023040
 22
1.436160
 13
5.374600
 23
0.818840
  0
POLYLINE
  8
0
  6
CONTINUOUS
 66
     1
 40
0.000000
 41
0.000000
  0
VERTEX
  8
0
  6
CONTINUOUS
 10
5.055160
 20
1.405800
  0
VERTEX
  8
0
  6
CONTINUOUS
 10
5.406280
 20
0.788920
  0
VERTEX
  8
0
  6
CONTINUOUS
 10
5.374600
 20
0.818840
  0
VERTEX
  8
0
  6
CONTINUOUS
 10
5.023040
 20
1.436160
  0
VERTEX
  8
0
  6
CONTINUOUS
 10
5.055160
 20
1.405800
  0
SEQEND
  8
0
  0
SOLID
  8
0
 62
    15
 10
5.023040
 20
1.436160
 11
5.374600
 21
0.818840
 12
4.994880
 22
1.472240
 13
5.346000
 23
0.854920
  0
POLYLINE
  8
0
  6
CONTINUOUS
 66
     1
 40
0.000000
 41
0.000000
  0
VERTEX
  8
0
  6
CONTINUOUS
 10
5.023040
 20
1.436160
  0
VERTEX
  8
0
  6
CONTINUOUS
 10
5.374600
 20
0.818840
  0
VERTEX
  8
0
  6
CONTINUOUS
 10
5.346000
 20
0.854920
  0
VERTEX
  8
0
  6
CONTINUOUS
 10
4.994880
 20
1.472240
  0
VERTEX
  8
0
  6
CONTINUOUS
 10
5.023040
 20
1.436160
  0
SEQEND
  8
0
  0
SOLID
  8
0
 62
    15
 10
4.994880
 20
1.472240
 11
5.346000
 21
0.854920
 12
4.969800
 22
1.514040
 13
5.320920
 23
0.897160
  0
POLYLINE
  8
0
  6
CONTINUOUS
 66
     1
 40
0.000000
 41
0.000000
  0
VERTEX
  8
0
  6
CONTINUOUS
 10
4.994880
 20
1.472240
  0
VERTEX
  8
0
  6
CONTINUOUS
 10
5.346000
 20
0.854920
  0
VERTEX
  8
0
  6
CONTINUOUS
 10
5.320920
 20
0.897160
  0
VERTEX
  8
0
  6
CONTINUOUS
 10
4.969800
 20
1.514040
  0
VERTEX
  8
0
  6
CONTINUOUS
 10
4.994880
 20
1.472240
  0
SEQEND
  8
0
  0
SOLID
  8
0
 62
    15
 10
5.166920
 20
1.349480
 11
5.518040
 21
0.732600
 12
5.089920
 22
1.381160
 13
5.441040
 23
0.764280
  0
POLYLINE
  8
0
  6
CONTINUOUS
 66
     1
 40
0.000000
 41
0.000000
  0
VERTEX
  8
0
  6
CONTINUOUS
 10
5.166920
 20
1.349480
  0
VERTEX
  8
0
  6
CONTINUOUS
 10
5.518040
 20
0.732600
  0
VERTEX
  8
0
  6
CONTINUOUS
 10
5.441040
 20
0.764280
  0
VERTEX
  8
0
  6
CONTINUOUS
 10
5.089920
 20
1.381160
  0
VERTEX
  8
0
  6
CONTINUOUS
 10
5.166920
 20
1.349480
  0
SEQEND
  8
0
  0
SOLID
  8
0
 62
    15
 10
4.866400
 20
1.662760
 11
5.217520
 21
1.045880
 12
4.823280
 22
1.602040
 13
5.174840
 23
0.985160
  0
POLYLINE
  8
0
  6
CONTINUOUS
 66
     1
 40
0.000000
 41
0.000000
  0
VERTEX
  8
0
  6
CONTINUOUS
 10
4.866400
 20
1.662760
  0
VERTEX
  8
0
  6
CONTINUOUS
 10
5.217520
 20
1.045880
  0
VERTEX
  8
0
  6
CONTINUOUS
 10
5.174840
 20
0.985160
  0
VERTEX
  8
0
  6
CONTINUOUS
 10
4.823280
 20
1.602040
  0
VERTEX
  8
0
  6
CONTINUOUS
 10
4.866400
 20
1.662760
  0
SEQEND
  8
0
  0
SOLID
  8
0
 62
    15
 10
4.823280
 20
1.602040
 11
5.174840
 21
0.985160
 12
4.784560
 22
1.558920
 13
5.136120
 23
0.942040
  0
POLYLINE
  8
0
  6
CONTINUOUS
 66
     1
 40
0.000000
 41
0.000000
  0
VERTEX
  8
0
  6
CONTINUOUS
 10
4.823280
 20
1.602040
  0
VERTEX
  8
0
  6
CONTINUOUS
 10
5.174840
 20
0.985160
  0
VERTEX
  8
0
  6
CONTINUOUS
 10
5.136120
 20
0.942040
  0
VERTEX
  8
0
  6
CONTINUOUS
 10
4.784560
 20
1.558920
  0
VERTEX
  8
0
  6
CONTINUOUS
 10
4.823280
 20
1.602040
  0
SEQEND
  8
0
  0
SOLID
  8
0
 62
    15
 10
4.784560
 20
1.558920
 11
5.136120
 21
0.942040
 12
4.749800
 22
1.530760
 13
5.100920
 23
0.913880
  0
POLYLINE
  8
0
  6
CONTINUOUS
 66
     1
 40
0.000000
 41
0.000000
  0
VERTEX
  8
0
  6
CONTINUOUS
 10
4.784560
 20
1.558920
  0
VERTEX
  8
0
  6
CONTINUOUS
 10
5.136120
 20
0.942040
  0
VERTEX
  8
0
  6
CONTINUOUS
 10
5.100920
 20
0.913880
  0
VERTEX
  8
0
  6
CONTINUOUS
 10
4.749800
 20
1.530760
  0
VERTEX
  8
0
  6
CONTINUOUS
 10
4.784560
 20
1.558920
  0
SEQEND
  8
0
  0
SOLID
  8
0
 62
    15
 10
4.749800
 20
1.530760
 11
5.100920
 21
0.913880
 12
4.717680
 22
1.515800
 13
5.068800
 23
0.898480
  0
POLYLINE
  8
0
  6
CONTINUOUS
 66
     1
 40
0.000000
 41
0.000000
  0
VERTEX
  8
0
  6
CONTINUOUS
 10
4.749800
 20
1.530760
  0
VERTEX
  8
0
  6
CONTINUOUS
 10
5.100920
 20
0.913880
  0
VERTEX
  8
0
  6
CONTINUOUS
 10
5.068800
 20
0.898480
  0
VERTEX
  8
0
  6
CONTINUOUS
 10
4.717680
 20
1.515800
  0
VERTEX
  8
0
  6
CONTINUOUS
 10
4.749800
 20
1.530760
  0
SEQEND
  8
0
  0
SOLID
  8
0
 62
    15
 10
4.717680
 20
1.515800
 11
5.068800
 21
0.898480
 12
4.688200
 22
1.510520
 13
5.039320
 23
0.893640
  0
POLYLINE
  8
0
  6
CONTINUOUS
 66
     1
 40
0.000000
 41
0.000000
  0
VERTEX
  8
0
  6
CONTINUOUS
 10
4.717680
 20
1.515800
  0
VERTEX
  8
0
  6
CONTINUOUS
 10
5.068800
 20
0.898480
  0
VERTEX
  8
0
  6
CONTINUOUS
 10
5.039320
 20
0.893640
  0
VERTEX
  8
0
  6
CONTINUOUS
 10
4.688200
 20
1.510520
  0
VERTEX
  8
0
  6
CONTINUOUS
 10
4.717680
 20
1.515800
  0
SEQEND
  8
0
  0
SOLID
  8
0
 62
    15
 10
4.620880
 20
1.606880
 11
4.972000
 21
0.990000
 12
4.591400
 22
1.653520
 13
4.942520
 23
1.036640
  0
POLYLINE
  8
0
  6
CONTINUOUS
 66
     1
 40
0.000000
 41
0.000000
  0
VERTEX
  8
0
  6
CONTINUOUS
 10
4.620880
 20
1.606880
  0
VERTEX
  8
0
  6
CONTINUOUS
 10
4.972000
 20
0.990000
  0
VERTEX
  8
0
  6
CONTINUOUS
 10
4.942520
 20
1.036640
  0
VERTEX
  8
0
  6
CONTINUOUS
 10
4.591400
 20
1.653520
  0
VERTEX
  8
0
  6
CONTINUOUS
 10
4.620880
 20
1.606880
  0
SEQEND
  8
0
  0
SOLID
  8
0
 62
    15
 10
4.591400
 20
1.653520
 11
4.942520
 21
1.036640
 12
4.549160
 22
1.700160
 13
4.900280
 23
1.083280
  0
POLYLINE
  8
0
  6
CONTINUOUS
 66
     1
 40
0.000000
 41
0.000000
  0
VERTEX
  8
0
  6
CONTINUOUS
 10
4.591400
 20
1.653520
  0
VERTEX
  8
0
  6
CONTINUOUS
 10
4.942520
 20
1.036640
  0
VERTEX
  8
0
  6
CONTINUOUS
 10
4.900280
 20
1.083280
  0
VERTEX
  8
0
  6
CONTINUOUS
 10
4.549160
 20
1.700160
  0
VERTEX
  8
0
  6
CONTINUOUS
 10
4.591400
 20
1.653520
  0
SEQEND
  8
0
  0
SOLID
  8
0
 62
    15
 10
4.549160
 20
1.700160
 11
4.900280
 21
1.083280
 12
4.496800
 22
1.743720
 13
4.848360
 23
1.126840
  0
POLYLINE
  8
0
  6
CONTINUOUS
 66
     1
 40
0.000000
 41
0.000000
  0
VERTEX
  8
0
  6
CONTINUOUS
 10
4.549160
 20
1.700160
  0
VERTEX
  8
0
  6
CONTINUOUS
 10
4.900280
 20
1.083280
  0
VERTEX
  8
0
  6
CONTINUOUS
 10
4.848360
 20
1.126840
  0
VERTEX
  8
0
  6
CONTINUOUS
 10
4.496800
 20
1.743720
  0
VERTEX
  8
0
  6
CONTINUOUS
 10
4.549160
 20
1.700160
  0
SEQEND
  8
0
  0
SOLID
  8
0
 62
    15
 10
4.688200
 20
1.510520
 11
5.039320
 21
0.893640
 12
4.634520
 22
1.523280
 13
4.985640
 23
0.906400
  0
POLYLINE
  8
0
  6
CONTINUOUS
 66
     1
 40
0.000000
 41
0.000000
  0
VERTEX
  8
0
  6
CONTINUOUS
 10
4.688200
 20
1.510520
  0
VERTEX
  8
0
  6
CONTINUOUS
 10
5.039320
 20
0.893640
  0
VERTEX
  8
0
  6
CONTINUOUS
 10
4.985640
 20
0.906400
  0
VERTEX
  8
0
  6
CONTINUOUS
 10
4.634520
 20
1.523280
  0
VERTEX
  8
0
  6
CONTINUOUS
 10
4.688200
 20
1.510520
  0
SEQEND
  8
0
  0
SOLID
  8
0
 62
    15
 10
4.496800
 20
1.743720
 11
4.848360
 21
1.126840
 12
4.436960
 22
1.782000
 13
4.788080
 23
1.165120
  0
POLYLINE
  8
0
  6
CONTINUOUS
 66
     1
 40
0.000000
 41
0.000000
  0
VERTEX
  8
0
  6
CONTINUOUS
 10
4.496800
 20
1.743720
  0
VERTEX
  8
0
  6
CONTINUOUS
 10
4.848360
 20
1.126840
  0
VERTEX
  8
0
  6
CONTINUOUS
 10
4.788080
 20
1.165120
  0
VERTEX
  8
0
  6
CONTINUOUS
 10
4.436960
 20
1.782000
  0
VERTEX
  8
0
  6
CONTINUOUS
 10
4.496800
 20
1.743720
  0
SEQEND
  8
0
  0
SOLID
  8
0
 62
    15
 10
5.906560
 20
2.339480
 11
6.257680
 21
1.722600
 12
5.905680
 22
2.247080
 13
6.256800
 23
1.630200
  0
POLYLINE
  8
0
  6
CONTINUOUS
 66
     1
 40
0.000000
 41
0.000000
  0
VERTEX
  8
0
  6
CONTINUOUS
 10
5.906560
 20
2.339480
  0
VERTEX
  8
0
  6
CONTINUOUS
 10
6.257680
 20
1.722600
  0
VERTEX
  8
0
  6
CONTINUOUS
 10
6.256800
 20
1.630200
  0
VERTEX
  8
0
  6
CONTINUOUS
 10
5.905680
 20
2.247080
  0
VERTEX
  8
0
  6
CONTINUOUS
 10
5.906560
 20
2.339480
  0
SEQEND
  8
0
  0
SOLID
  8
0
 62
    15
 10
4.371400
 20
1.812360
 11
4.722520
 21
1.195040
 12
4.302320
 22
1.831280
 13
4.653440
 23
1.214400
  0
POLYLINE
  8
0
  6
CONTINUOUS
 66
     1
 40
0.000000
 41
0.000000
  0
VERTEX
  8
0
  6
CONTINUOUS
 10
4.371400
 20
1.812360
  0
VERTEX
  8
0
  6
CONTINUOUS
 10
4.722520
 20
1.195040
  0
VERTEX
  8
0
  6
CONTINUOUS
 10
4.653440
 20
1.214400
  0
VERTEX
  8
0
  6
CONTINUOUS
 10
4.302320
 20
1.831280
  0
VERTEX
  8
0
  6
CONTINUOUS
 10
4.371400
 20
1.812360
  0
SEQEND
  8
0
  0
SOLID
  8
0
 62
    15
 10
4.302320
 20
1.831280
 11
4.653440
 21
1.214400
 12
4.232360
 22
1.837000
 13
4.583480
 23
1.220120
  0
POLYLINE
  8
0
  6
CONTINUOUS
 66
     1
 40
0.000000
 41
0.000000
  0
VERTEX
  8
0
  6
CONTINUOUS
 10
4.302320
 20
1.831280
  0
VERTEX
  8
0
  6
CONTINUOUS
 10
4.653440
 20
1.214400
  0
VERTEX
  8
0
  6
CONTINUOUS
 10
4.583480
 20
1.220120
  0
VERTEX
  8
0
  6
CONTINUOUS
 10
4.232360
 20
1.837000
  0
VERTEX
  8
0
  6
CONTINUOUS
 10
4.302320
 20
1.831280
  0
SEQEND
  8
0
  0
SOLID
  8
0
 62
    15
 10
4.232360
 20
1.837000
 11
4.583480
 21
1.220120
 12
4.163280
 22
1.826440
 13
4.514400
 23
1.209560
  0
POLYLINE
  8
0
  6
CONTINUOUS
 66
     1
 40
0.000000
 41
0.000000
  0
VERTEX
  8
0
  6
CONTINUOUS
 10
4.232360
 20
1.837000
  0
VERTEX
  8
0
  6
CONTINUOUS
 10
4.583480
 20
1.220120
  0
VERTEX
  8
0
  6
CONTINUOUS
 10
4.514400
 20
1.209560
  0
VERTEX
  8
0
  6
CONTINUOUS
 10
4.163280
 20
1.826440
  0
VERTEX
  8
0
  6
CONTINUOUS
 10
4.232360
 20
1.837000
  0
SEQEND
  8
0
  0
SOLID
  8
0
 62
    15
 10
4.163280
 20
1.826440
 11
4.514400
 21
1.209560
 12
4.097720
 22
1.797400
 13
4.448840
 23
1.180080
  0
POLYLINE
  8
0
  6
CONTINUOUS
 66
     1
 40
0.000000
 41
0.000000
  0
VERTEX
  8
0
  6
CONTINUOUS
 10
4.163280
 20
1.826440
  0
VERTEX
  8
0
  6
CONTINUOUS
 10
4.514400
 20
1.209560
  0
VERTEX
  8
0
  6
CONTINUOUS
 10
4.448840
 20
1.180080
  0
VERTEX
  8
0
  6
CONTINUOUS
 10
4.097720
 20
1.797400
  0
VERTEX
  8
0
  6
CONTINUOUS
 10
4.163280
 20
1.826440
  0
SEQEND
  8
0
  0
SOLID
  8
0
 62
    15
 10
4.097720
 20
1.797400
 11
4.448840
 21
1.180080
 12
4.037880
 22
1.746360
 13
4.389000
 23
1.129480
  0
POLYLINE
  8
0
  6
CONTINUOUS
 66
     1
 40
0.000000
 41
0.000000
  0
VERTEX
  8
0
  6
CONTINUOUS
 10
4.097720
 20
1.797400
  0
VERTEX
  8
0
  6
CONTINUOUS
 10
4.448840
 20
1.180080
  0
VERTEX
  8
0
  6
CONTINUOUS
 10
4.389000
 20
1.129480
  0
VERTEX
  8
0
  6
CONTINUOUS
 10
4.037880
 20
1.746360
  0
VERTEX
  8
0
  6
CONTINUOUS
 10
4.097720
 20
1.797400
  0
SEQEND
  8
0
  0
SOLID
  8
0
 62
    15
 10
4.037880
 20
1.746360
 11
4.389000
 21
1.129480
 12
4.010600
 22
1.712040
 13
4.361720
 23
1.095160
  0
POLYLINE
  8
0
  6
CONTINUOUS
 66
     1
 40
0.000000
 41
0.000000
  0
VERTEX
  8
0
  6
CONTINUOUS
 10
4.037880
 20
1.746360
  0
VERTEX
  8
0
  6
CONTINUOUS
 10
4.389000
 20
1.129480
  0
VERTEX
  8
0
  6
CONTINUOUS
 10
4.361720
 20
1.095160
  0
VERTEX
  8
0
  6
CONTINUOUS
 10
4.010600
 20
1.712040
  0
VERTEX
  8
0
  6
CONTINUOUS
 10
4.037880
 20
1.746360
  0
SEQEND
  8
0
  0
SOLID
  8
0
 62
    15
 10
4.010600
 20
1.712040
 11
4.361720
 21
1.095160
 12
3.985520
 22
1.671560
 13
4.336640
 23
1.054680
  0
POLYLINE
  8
0
  6
CONTINUOUS
 66
     1
 40
0.000000
 41
0.000000
  0
VERTEX
  8
0
  6
CONTINUOUS
 10
4.010600
 20
1.712040
  0
VERTEX
  8
0
  6
CONTINUOUS
 10
4.361720
 20
1.095160
  0
VERTEX
  8
0
  6
CONTINUOUS
 10
4.336640
 20
1.054680
  0
VERTEX
  8
0
  6
CONTINUOUS
 10
3.985520
 20
1.671560
  0
VERTEX
  8
0
  6
CONTINUOUS
 10
4.010600
 20
1.712040
  0
SEQEND
  8
0
  0
SOLID
  8
0
 62
    15
 10
3.985520
 20
1.671560
 11
4.336640
 21
1.054680
 12
3.963080
 22
1.624040
 13
4.314200
 23
1.007160
  0
POLYLINE
  8
0
  6
CONTINUOUS
 66
     1
 40
0.000000
 41
0.000000
  0
VERTEX
  8
0
  6
CONTINUOUS
 10
3.985520
 20
1.671560
  0
VERTEX
  8
0
  6
CONTINUOUS
 10
4.336640
 20
1.054680
  0
VERTEX
  8
0
  6
CONTINUOUS
 10
4.314200
 20
1.007160
  0
VERTEX
  8
0
  6
CONTINUOUS
 10
3.963080
 20
1.624040
  0
VERTEX
  8
0
  6
CONTINUOUS
 10
3.985520
 20
1.671560
  0
SEQEND
  8
0
  0
SOLID
  8
0
 62
    15
 10
3.963080
 20
1.624040
 11
4.314200
 21
1.007160
 12
3.943720
 22
1.569920
 13
4.294840
 23
0.953040
  0
POLYLINE
  8
0
  6
CONTINUOUS
 66
     1
 40
0.000000
 41
0.000000
  0
VERTEX
  8
0
  6
CONTINUOUS
 10
3.963080
 20
1.624040
  0
VERTEX
  8
0
  6
CONTINUOUS
 10
4.314200
 20
1.007160
  0
VERTEX
  8
0
  6
CONTINUOUS
 10
4.294840
 20
0.953040
  0
VERTEX
  8
0
  6
CONTINUOUS
 10
3.943720
 20
1.569920
  0
VERTEX
  8
0
  6
CONTINUOUS
 10
3.963080
 20
1.624040
  0
SEQEND
  8
0
  0
SOLID
  8
0
 62
    15
 10
3.943720
 20
1.569920
 11
4.294840
 21
0.953040
 12
3.927000
 22
1.508320
 13
4.278120
 23
0.891000
  0
POLYLINE
  8
0
  6
CONTINUOUS
 66
     1
 40
0.000000
 41
0.000000
  0
VERTEX
  8
0
  6
CONTINUOUS
 10
3.943720
 20
1.569920
  0
VERTEX
  8
0
  6
CONTINUOUS
 10
4.294840
 20
0.953040
  0
VERTEX
  8
0
  6
CONTINUOUS
 10
4.278120
 20
0.891000
  0
VERTEX
  8
0
  6
CONTINUOUS
 10
3.927000
 20
1.508320
  0
VERTEX
  8
0
  6
CONTINUOUS
 10
3.943720
 20
1.569920
  0
SEQEND
  8
0
  0
SOLID
  8
0
 62
    15
 10
3.927000
 20
1.508320
 11
4.278120
 21
0.891000
 12
3.913800
 22
1.438800
 13
4.264920
 23
0.821920
  0
POLYLINE
  8
0
  6
CONTINUOUS
 66
     1
 40
0.000000
 41
0.000000
  0
VERTEX
  8
0
  6
CONTINUOUS
 10
3.927000
 20
1.508320
  0
VERTEX
  8
0
  6
CONTINUOUS
 10
4.278120
 20
0.891000
  0
VERTEX
  8
0
  6
CONTINUOUS
 10
4.264920
 20
0.821920
  0
VERTEX
  8
0
  6
CONTINUOUS
 10
3.913800
 20
1.438800
  0
VERTEX
  8
0
  6
CONTINUOUS
 10
3.927000
 20
1.508320
  0
SEQEND
  8
0
  0
SOLID
  8
0
 62
    15
 10
3.913800
 20
1.438800
 11
4.264920
 21
0.821920
 12
3.904120
 22
1.361360
 13
4.255240
 23
0.744480
  0
POLYLINE
  8
0
  6
CONTINUOUS
 66
     1
 40
0.000000
 41
0.000000
  0
VERTEX
  8
0
  6
CONTINUOUS
 10
3.913800
 20
1.438800
  0
VERTEX
  8
0
  6
CONTINUOUS
 10
4.264920
 20
0.821920
  0
VERTEX
  8
0
  6
CONTINUOUS
 10
4.255240
 20
0.744480
  0
VERTEX
  8
0
  6
CONTINUOUS
 10
3.904120
 20
1.361360
  0
VERTEX
  8
0
  6
CONTINUOUS
 10
3.913800
 20
1.438800
  0
SEQEND
  8
0
  0
SOLID
  8
0
 62
    15
 10
3.904120
 20
1.361360
 11
4.255240
 21
0.744480
 12
3.898400
 22
1.275560
 13
4.249960
 23
0.658680
  0
POLYLINE
  8
0
  6
CONTINUOUS
 66
     1
 40
0.000000
 41
0.000000
  0
VERTEX
  8
0
  6
CONTINUOUS
 10
3.904120
 20
1.361360
  0
VERTEX
  8
0
  6
CONTINUOUS
 10
4.255240
 20
0.744480
  0
VERTEX
  8
0
  6
CONTINUOUS
 10
4.249960
 20
0.658680
  0
VERTEX
  8
0
  6
CONTINUOUS
 10
3.898400
 20
1.275560
  0
VERTEX
  8
0
  6
CONTINUOUS
 10
3.904120
 20
1.361360
  0
SEQEND
  8
0
  0
SOLID
  8
0
 62
    15
 10
3.898400
 20
1.275560
 11
4.249960
 21
0.658680
 12
3.779600
 22
1.275560
 13
4.130720
 23
0.658680
  0
POLYLINE
  8
0
  6
CONTINUOUS
 66
     1
 40
0.000000
 41
0.000000
  0
VERTEX
  8
0
  6
CONTINUOUS
 10
3.898400
 20
1.275560
  0
VERTEX
  8
0
  6
CONTINUOUS
 10
4.249960
 20
0.658680
  0
VERTEX
  8
0
  6
CONTINUOUS
 10
4.130720
 20
0.658680
  0
VERTEX
  8
0
  6
CONTINUOUS
 10
3.779600
 20
1.275560
  0
VERTEX
  8
0
  6
CONTINUOUS
 10
3.898400
 20
1.275560
  0
SEQEND
  8
0
  0
SOLID
  8
0
 62
    15
 10
3.779600
 20
1.275560
 11
4.130720
 21
0.658680
 12
3.772560
 22
1.213080
 13
4.124120
 23
0.596200
  0
POLYLINE
  8
0
  6
CONTINUOUS
 66
     1
 40
0.000000
 41
0.000000
  0
VERTEX
  8
0
  6
CONTINUOUS
 10
3.779600
 20
1.275560
  0
VERTEX
  8
0
  6
CONTINUOUS
 10
4.130720
 20
0.658680
  0
VERTEX
  8
0
  6
CONTINUOUS
 10
4.124120
 20
0.596200
  0
VERTEX
  8
0
  6
CONTINUOUS
 10
3.772560
 20
1.213080
  0
VERTEX
  8
0
  6
CONTINUOUS
 10
3.779600
 20
1.275560
  0
SEQEND
  8
0
  0
SOLID
  8
0
 62
    15
 10
3.772560
 20
1.213080
 11
4.124120
 21
0.596200
 12
3.754520
 22
1.155440
 13
4.106080
 23
0.538560
  0
POLYLINE
  8
0
  6
CONTINUOUS
 66
     1
 40
0.000000
 41
0.000000
  0
VERTEX
  8
0
  6
CONTINUOUS
 10
3.772560
 20
1.213080
  0
VERTEX
  8
0
  6
CONTINUOUS
 10
4.124120
 20
0.596200
  0
VERTEX
  8
0
  6
CONTINUOUS
 10
4.106080
 20
0.538560
  0
VERTEX
  8
0
  6
CONTINUOUS
 10
3.754520
 20
1.155440
  0
VERTEX
  8
0
  6
CONTINUOUS
 10
3.772560
 20
1.213080
  0
SEQEND
  8
0
  0
SOLID
  8
0
 62
    15
 10
3.754520
 20
1.155440
 11
4.106080
 21
0.538560
 12
3.726800
 22
1.103080
 13
4.078360
 23
0.486200
  0
POLYLINE
  8
0
  6
CONTINUOUS
 66
     1
 40
0.000000
 41
0.000000
  0
VERTEX
  8
0
  6
CONTINUOUS
 10
3.754520
 20
1.155440
  0
VERTEX
  8
0
  6
CONTINUOUS
 10
4.106080
 20
0.538560
  0
VERTEX
  8
0
  6
CONTINUOUS
 10
4.078360
 20
0.486200
  0
VERTEX
  8
0
  6
CONTINUOUS
 10
3.726800
 20
1.103080
  0
VERTEX
  8
0
  6
CONTINUOUS
 10
3.754520
 20
1.155440
  0
SEQEND
  8
0
  0
SOLID
  8
0
 62
    15
 10
3.726800
 20
1.103080
 11
4.078360
 21
0.486200
 12
3.690720
 22
1.056440
 13
4.041840
 23
0.439560
  0
POLYLINE
  8
0
  6
CONTINUOUS
 66
     1
 40
0.000000
 41
0.000000
  0
VERTEX
  8
0
  6
CONTINUOUS
 10
3.726800
 20
1.103080
  0
VERTEX
  8
0
  6
CONTINUOUS
 10
4.078360
 20
0.486200
  0
VERTEX
  8
0
  6
CONTINUOUS
 10
4.041840
 20
0.439560
  0
VERTEX
  8
0
  6
CONTINUOUS
 10
3.690720
 20
1.056440
  0
VERTEX
  8
0
  6
CONTINUOUS
 10
3.726800
 20
1.103080
  0
SEQEND
  8
0
  0
SOLID
  8
0
 62
    15
 10
3.690720
 20
1.056440
 11
4.041840
 21
0.439560
 12
3.647600
 22
1.016400
 13
3.998720
 23
0.399520
  0
POLYLINE
  8
0
  6
CONTINUOUS
 66
     1
 40
0.000000
 41
0.000000
  0
VERTEX
  8
0
  6
CONTINUOUS
 10
3.690720
 20
1.056440
  0
VERTEX
  8
0
  6
CONTINUOUS
 10
4.041840
 20
0.439560
  0
VERTEX
  8
0
  6
CONTINUOUS
 10
3.998720
 20
0.399520
  0
VERTEX
  8
0
  6
CONTINUOUS
 10
3.647600
 20
1.016400
  0
VERTEX
  8
0
  6
CONTINUOUS
 10
3.690720
 20
1.056440
  0
SEQEND
  8
0
  0
SOLID
  8
0
 62
    15
 10
3.647600
 20
1.016400
 11
3.998720
 21
0.399520
 12
3.598760
 22
0.984280
 13
3.949880
 23
0.366960
  0
POLYLINE
  8
0
  6
CONTINUOUS
 66
     1
 40
0.000000
 41
0.000000
  0
VERTEX
  8
0
  6
CONTINUOUS
 10
3.647600
 20
1.016400
  0
VERTEX
  8
0
  6
CONTINUOUS
 10
3.998720
 20
0.399520
  0
VERTEX
  8
0
  6
CONTINUOUS
 10
3.949880
 20
0.366960
  0
VERTEX
  8
0
  6
CONTINUOUS
 10
3.598760
 20
0.984280
  0
VERTEX
  8
0
  6
CONTINUOUS
 10
3.647600
 20
1.016400
  0
SEQEND
  8
0
  0
SOLID
  8
0
 62
    15
 10
3.598760
 20
0.984280
 11
3.949880
 21
0.366960
 12
3.545520
 22
0.959640
 13
3.896640
 23
0.342760
  0
POLYLINE
  8
0
  6
CONTINUOUS
 66
     1
 40
0.000000
 41
0.000000
  0
VERTEX
  8
0
  6
CONTINUOUS
 10
3.598760
 20
0.984280
  0
VERTEX
  8
0
  6
CONTINUOUS
 10
3.949880
 20
0.366960
  0
VERTEX
  8
0
  6
CONTINUOUS
 10
3.896640
 20
0.342760
  0
VERTEX
  8
0
  6
CONTINUOUS
 10
3.545520
 20
0.959640
  0
VERTEX
  8
0
  6
CONTINUOUS
 10
3.598760
 20
0.984280
  0
SEQEND
  8
0
  0
SOLID
  8
0
 62
    15
 10
3.545520
 20
0.959640
 11
3.896640
 21
0.342760
 12
3.489640
 22
0.944240
 13
3.840760
 23
0.327360
  0
POLYLINE
  8
0
  6
CONTINUOUS
 66
     1
 40
0.000000
 41
0.000000
  0
VERTEX
  8
0
  6
CONTINUOUS
 10
3.545520
 20
0.959640
  0
VERTEX
  8
0
  6
CONTINUOUS
 10
3.896640
 20
0.342760
  0
VERTEX
  8
0
  6
CONTINUOUS
 10
3.840760
 20
0.327360
  0
VERTEX
  8
0
  6
CONTINUOUS
 10
3.489640
 20
0.944240
  0
VERTEX
  8
0
  6
CONTINUOUS
 10
3.545520
 20
0.959640
  0
SEQEND
  8
0
  0
SOLID
  8
0
 62
    15
 10
3.489640
 20
0.944240
 11
3.840760
 21
0.327360
 12
3.432440
 22
0.938080
 13
3.783560
 23
0.321200
  0
POLYLINE
  8
0
  6
CONTINUOUS
 66
     1
 40
0.000000
 41
0.000000
  0
VERTEX
  8
0
  6
CONTINUOUS
 10
3.489640
 20
0.944240
  0
VERTEX
  8
0
  6
CONTINUOUS
 10
3.840760
 20
0.327360
  0
VERTEX
  8
0
  6
CONTINUOUS
 10
3.783560
 20
0.321200
  0
VERTEX
  8
0
  6
CONTINUOUS
 10
3.432440
 20
0.938080
  0
VERTEX
  8
0
  6
CONTINUOUS
 10
3.489640
 20
0.944240
  0
SEQEND
  8
0
  0
SOLID
  8
0
 62
    15
 10
3.432440
 20
0.938080
 11
3.783560
 21
0.321200
 12
3.374800
 22
0.942480
 13
3.726360
 23
0.325600
  0
POLYLINE
  8
0
  6
CONTINUOUS
 66
     1
 40
0.000000
 41
0.000000
  0
VERTEX
  8
0
  6
CONTINUOUS
 10
3.432440
 20
0.938080
  0
VERTEX
  8
0
  6
CONTINUOUS
 10
3.783560
 20
0.321200
  0
VERTEX
  8
0
  6
CONTINUOUS
 10
3.726360
 20
0.325600
  0
VERTEX
  8
0
  6
CONTINUOUS
 10
3.374800
 20
0.942480
  0
VERTEX
  8
0
  6
CONTINUOUS
 10
3.432440
 20
0.938080
  0
SEQEND
  8
0
  0
SOLID
  8
0
 62
    15
 10
3.374800
 20
0.942480
 11
3.726360
 21
0.325600
 12
3.318920
 22
0.957440
 13
3.670040
 23
0.340560
  0
POLYLINE
  8
0
  6
CONTINUOUS
 66
     1
 40
0.000000
 41
0.000000
  0
VERTEX
  8
0
  6
CONTINUOUS
 10
3.374800
 20
0.942480
  0
VERTEX
  8
0
  6
CONTINUOUS
 10
3.726360
 20
0.325600
  0
VERTEX
  8
0
  6
CONTINUOUS
 10
3.670040
 20
0.340560
  0
VERTEX
  8
0
  6
CONTINUOUS
 10
3.318920
 20
0.957440
  0
VERTEX
  8
0
  6
CONTINUOUS
 10
3.374800
 20
0.942480
  0
SEQEND
  8
0
  0
SOLID
  8
0
 62
    15
 10
3.318920
 20
0.957440
 11
3.670040
 21
0.340560
 12
3.265680
 22
0.984280
 13
3.616800
 23
0.367400
  0
POLYLINE
  8
0
  6
CONTINUOUS
 66
     1
 40
0.000000
 41
0.000000
  0
VERTEX
  8
0
  6
CONTINUOUS
 10
3.318920
 20
0.957440
  0
VERTEX
  8
0
  6
CONTINUOUS
 10
3.670040
 20
0.340560
  0
VERTEX
  8
0
  6
CONTINUOUS
 10
3.616800
 20
0.367400
  0
VERTEX
  8
0
  6
CONTINUOUS
 10
3.265680
 20
0.984280
  0
VERTEX
  8
0
  6
CONTINUOUS
 10
3.318920
 20
0.957440
  0
SEQEND
  8
0
  0
SOLID
  8
0
 62
    15
 10
3.265680
 20
0.984280
 11
3.616800
 21
0.367400
 12
3.216400
 22
1.023440
 13
3.567960
 23
0.406560
  0
POLYLINE
  8
0
  6
CONTINUOUS
 66
     1
 40
0.000000
 41
0.000000
  0
VERTEX
  8
0
  6
CONTINUOUS
 10
3.265680
 20
0.984280
  0
VERTEX
  8
0
  6
CONTINUOUS
 10
3.616800
 20
0.367400
  0
VERTEX
  8
0
  6
CONTINUOUS
 10
3.567960
 20
0.406560
  0
VERTEX
  8
0
  6
CONTINUOUS
 10
3.216400
 20
1.023440
  0
VERTEX
  8
0
  6
CONTINUOUS
 10
3.265680
 20
0.984280
  0
SEQEND
  8
0
  0
SOLID
  8
0
 62
    15
 10
3.216400
 20
1.023440
 11
3.567960
 21
0.406560
 12
3.173280
 22
1.075800
 13
3.524400
 23
0.458920
  0
POLYLINE
  8
0
  6
CONTINUOUS
 66
     1
 40
0.000000
 41
0.000000
  0
VERTEX
  8
0
  6
CONTINUOUS
 10
3.216400
 20
1.023440
  0
VERTEX
  8
0
  6
CONTINUOUS
 10
3.567960
 20
0.406560
  0
VERTEX
  8
0
  6
CONTINUOUS
 10
3.524400
 20
0.458920
  0
VERTEX
  8
0
  6
CONTINUOUS
 10
3.173280
 20
1.075800
  0
VERTEX
  8
0
  6
CONTINUOUS
 10
3.216400
 20
1.023440
  0
SEQEND
  8
0
  0
POLYLINE
  8
0
  6
CONTINUOUS
 66
     1
 40
0.000000
 41
0.000000
  0
VERTEX
  8
0
  6
CONTINUOUS
 10
3.108160
 20
2.339480
  0
VERTEX
  8
0
  6
CONTINUOUS
 10
5.906560
 20
2.339480
  0
VERTEX
  8
0
  6
CONTINUOUS
 10
5.905680
 20
2.247080
  0
VERTEX
  8
0
  6
CONTINUOUS
 10
5.899080
 20
2.158640
  0
VERTEX
  8
0
  6
CONTINUOUS
 10
5.871360
 20
1.994080
  0
VERTEX
  8
0
  6
CONTINUOUS
 10
5.825600
 20
1.846680
  0
VERTEX
  8
0
  6
CONTINUOUS
 10
5.765320
 20
1.716880
  0
VERTEX
  8
0
  6
CONTINUOUS
 10
5.693160
 20
1.605120
  0
VERTEX
  8
0
  6
CONTINUOUS
 10
5.612200
 20
1.512280
  0
VERTEX
  8
0
  6
CONTINUOUS
 10
5.524640
 20
1.438800
  0
VERTEX
  8
0
  6
CONTINUOUS
 10
5.433120
 20
1.385120
  0
VERTEX
  8
0
  6
CONTINUOUS
 10
5.341600
 20
1.352120
  0
VERTEX
  8
0
  6
CONTINUOUS
 10
5.251840
 20
1.339800
  0
VERTEX
  8
0
  6
CONTINUOUS
 10
5.166920
 20
1.349480
  0
VERTEX
  8
0
  6
CONTINUOUS
 10
5.089920
 20
1.381160
  0
VERTEX
  8
0
  6
CONTINUOUS
 10
5.055160
 20
1.405800
  0
VERTEX
  8
0
  6
CONTINUOUS
 10
5.023040
 20
1.436160
  0
VERTEX
  8
0
  6
CONTINUOUS
 10
4.994880
 20
1.472240
  0
VERTEX
  8
0
  6
CONTINUOUS
 10
4.969800
 20
1.514040
  0
VERTEX
  8
0
  6
CONTINUOUS
 10
4.949120
 20
1.562000
  0
VERTEX
  8
0
  6
CONTINUOUS
 10
4.932840
 20
1.616120
  0
VERTEX
  8
0
  6
CONTINUOUS
 10
4.920960
 20
1.676400
  0
VERTEX
  8
0
  6
CONTINUOUS
 10
4.914360
 20
1.742400
  0
VERTEX
  8
0
  6
CONTINUOUS
 10
4.866400
 20
1.662760
  0
VERTEX
  8
0
  6
CONTINUOUS
 10
4.823280
 20
1.602040
  0
VERTEX
  8
0
  6
CONTINUOUS
 10
4.784560
 20
1.558920
  0
VERTEX
  8
0
  6
CONTINUOUS
 10
4.749800
 20
1.530760
  0
VERTEX
  8
0
  6
CONTINUOUS
 10
4.717680
 20
1.515800
  0
VERTEX
  8
0
  6
CONTINUOUS
 10
4.688200
 20
1.510520
  0
VERTEX
  8
0
  6
CONTINUOUS
 10
4.634520
 20
1.523280
  0
VERTEX
  8
0
  6
CONTINUOUS
 10
4.636280
 20
1.562440
  0
VERTEX
  8
0
  6
CONTINUOUS
 10
4.620880
 20
1.606880
  0
VERTEX
  8
0
  6
CONTINUOUS
 10
4.591400
 20
1.653520
  0
VERTEX
  8
0
  6
CONTINUOUS
 10
4.549160
 20
1.700160
  0
VERTEX
  8
0
  6
CONTINUOUS
 10
4.496800
 20
1.743720
  0
VERTEX
  8
0
  6
CONTINUOUS
 10
4.436960
 20
1.782000
  0
VERTEX
  8
0
  6
CONTINUOUS
 10
4.371400
 20
1.812360
  0
VERTEX
  8
0
  6
CONTINUOUS
 10
4.302320
 20
1.831280
  0
VERTEX
  8
0
  6
CONTINUOUS
 10
4.232360
 20
1.837000
  0
VERTEX
  8
0
  6
CONTINUOUS
 10
4.163280
 20
1.826440
  0
VERTEX
  8
0
  6
CONTINUOUS
 10
4.097720
 20
1.797400
  0
VERTEX
  8
0
  6
CONTINUOUS
 10
4.037880
 20
1.746360
  0
VERTEX
  8
0
  6
CONTINUOUS
 10
4.010600
 20
1.712040
  0
VERTEX
  8
0
  6
CONTINUOUS
 10
3.985520
 20
1.671560
  0
VERTEX
  8
0
  6
CONTINUOUS
 10
3.963080
 20
1.624040
  0
VERTEX
  8
0
  6
CONTINUOUS
 10
3.943720
 20
1.569920
  0
VERTEX
  8
0
  6
CONTINUOUS
 10
3.927000
 20
1.508320
  0
VERTEX
  8
0
  6
CONTINUOUS
 10
3.913800
 20
1.438800
  0
VERTEX
  8
0
  6
CONTINUOUS
 10
3.904120
 20
1.361360
  0
VERTEX
  8
0
  6
CONTINUOUS
 10
3.898400
 20
1.275560
  0
VERTEX
  8
0
  6
CONTINUOUS
 10
3.779600
 20
1.275560
  0
VERTEX
  8
0
  6
CONTINUOUS
 10
3.772560
 20
1.213080
  0
VERTEX
  8
0
  6
CONTINUOUS
 10
3.754520
 20
1.155440
  0
VERTEX
  8
0
  6
CONTINUOUS
 10
3.726800
 20
1.103080
  0
VERTEX
  8
0
  6
CONTINUOUS
 10
3.690720
 20
1.056440
  0
VERTEX
  8
0
  6
CONTINUOUS
 10
3.647600
 20
1.016400
  0
VERTEX
  8
0
  6
CONTINUOUS
 10
3.598760
 20
0.984280
  0
VERTEX
  8
0
  6
CONTINUOUS
 10
3.545520
 20
0.959640
  0
VERTEX
  8
0
  6
CONTINUOUS
 10
3.489640
 20
0.944240
  0
VERTEX
  8
0
  6
CONTINUOUS
 10
3.432440
 20
0.938080
  0
VERTEX
  8
0
  6
CONTINUOUS
 10
3.374800
 20
0.942480
  0
VERTEX
  8
0
  6
CONTINUOUS
 10
3.318920
 20
0.957440
  0
VERTEX
  8
0
  6
CONTINUOUS
 10
3.265680
 20
0.984280
  0
VERTEX
  8
0
  6
CONTINUOUS
 10
3.216400
 20
1.023440
  0
VERTEX
  8
0
  6
CONTINUOUS
 10
3.173280
 20
1.075800
  0
VERTEX
  8
0
  6
CONTINUOUS
 10
3.136320
 20
1.141800
  0
VERTEX
  8
0
  6
CONTINUOUS
 10
3.108160
 20
1.221880
  0
VERTEX
  8
0
  6
CONTINUOUS
 10
3.108160
 20
2.339480
  0
SEQEND
  8
0
  0
TEXT
  8
0
 10
3.175040
 20
7.575480
 40
0.134717
  1
792
 50
269.819476
 41
1.000000
  7
SN0
 71
     0
 72
     5
 11
3.174179
 21
7.305119
  0
TEXT
  8
0
 10
5.635960
 20
7.184320
 40
0.134717
  1
793
 50
269.819476
 41
1.000000
  7
SN0
 71
     0
 72
     5
 11
5.635099
 21
6.913959
  0
TEXT
  8
0
 10
5.099160
 20
5.464360
 40
0.134717
  1
BA  792 1-3/8" x 2-13/16" 
 50
269.819476
 41
1.000000
  7
SN0
 71
     0
 72
     5
 11
5.093192
 21
3.590779
  0
TEXT
  8
0
 10
4.907760
 20
5.464360
 40
0.134717
  1
BA  793 1-13/16" x 5-3/16"
 50
269.819476
 41
1.000000
  7
SN0
 71
     0
 72
     5
 11
4.901649
 21
3.545718
  0
ENDSEC
  0
EOF
