  0
SECTION
  2
HEADER
  9
$ACADVER
  1
AC1006
  9
$EXTMIN
 10
0.526680
 20
0.367840
  9
$EXTMAX
 10
7.300480
 20
10.608840
  9
$LTSCALE
 40
0.044000
  9
$PDMODE
 70
    35
  9
$PDSIZE
 40
0.035200
  0
ENDSEC
  0
SECTION
  2
TABLES
  0
TABLE
  2
LTYPE
 70
     9
  0
LTYPE
  2
CONTINUOUS
 70
    64
  3
Solid line
 72
    65
 73
     0
 40
0.000000
  0
LTYPE
  2
DASHED
 70
    64
  3
__ __ __ __ __ __ __ __ __ __ __ __ __ __ __
 72
    65
 73
     2
 40
0.000330
 49
0.000220
 49
-0.000110
  0
LTYPE
  2
HIDDEN
 70
    64
  3
 _ _ _ _ _ _ _ _ _ _ _ _ _ _ _ _ _ _ _ _ _ _
 72
    65
 73
     2
 40
0.000165
 49
0.000110
 49
-0.000055
  0
LTYPE
  2
CENTER
 70
    64
  3
____ _ ____ _ ____ _ ____ _ ____ _ ____ _ ____
 72
    65
 73
     4
 40
0.000880
 49
0.000550
 49
-0.000110
 49
0.000110
 49
-0.000110
  0
LTYPE
  2
PHANTOM
 70
    64
  3
_____ _ _ _____ _ _ _____ _ _ _____ _ _ ____
 72
    65
 73
     6
 40
0.001100
 49
0.000550
 49
-0.000110
 49
0.000110
 49
-0.000110
 49
0.000110
 49
-0.000110
  0
LTYPE
  2
DOT
 70
    64
  3
...............................................
 72
    65
 73
     2
 40
0.000110
 49
0.000000
 49
-0.000110
  0
LTYPE
  2
DASHDOT
 70
    64
  3
__ . __ . __ . __ . __ . __ . __ . __ . __ . __
 72
    65
 73
     4
 40
0.000440
 49
0.000220
 49
-0.000110
 49
0.000000
 49
-0.000110
  0
LTYPE
  2
BORDER
 70
    64
  3
__ __ . __ __ . __ __ . __ __ . __ __ . __ __
 72
    65
 73
     6
 40
0.000770
 49
0.000220
 49
-0.000110
 49
0.000220
 49
-0.000110
 49
0.000000
 49
-0.000110
  0
LTYPE
  2
DIVIDE
 70
    64
  3
__ . . __ . . __ . . __ . . __ . . __ . . __
 72
    65
 73
     6
 40
0.000550
 49
0.000220
 49
-0.000110
 49
0.000000
 49
-0.000110
 49
0.000000
 49
-0.000110
  0
LTYPE
  2
DOTDOT
 70
    64
  3
 . .  . .  . .  . .  . .  . . 
 72
    65
 73
     5
 40
0.000242
 49
-0.000110
 49
0.000000
 49
-0.000110
 49
0.000000
 49
-0.000110
  0
ENDTAB
  0
TABLE
  2
STYLE
 70
     2
  0
STYLE
 70
     0
  2
SN0
 40
0.000000
 41
0.000440
 50
0.000000
 71
     0
 42
0.000000
  3
ROMAND
  0
STYLE
 70
    68
  2
SV0
 40
0.000000
 41
0.000440
 50
0.000000
 71
     0
 42
0.000000
  3
ROMAND
  0
ENDTAB
  0
TABLE
  2
LAYER
 70
     3
  0
LAYER
  2
FOREGROUND
 70
    64
 62
     7
  6
CONTINUOUS
  0
LAYER
  2
BACKGROUND
 70
    65
 62
    -7
  6
CONTINUOUS
  0
LAYER
  2
0
 70
    64
 62
     7
  6
CONTINUOUS
  0
ENDTAB
  0
ENDSEC
  0
SECTION
  2
ENTITIES
  0
POLYLINE
  8
FOREGROUND
  6
CONTINUOUS
 66
     1
 40
0.000000
 41
0.000000
  0
VERTEX
  8
FOREGROUND
  6
CONTINUOUS
 10
0.000000
 20
10.976680
  0
VERTEX
  8
FOREGROUND
  6
CONTINUOUS
 10
8.499920
 20
10.976680
  0
VERTEX
  8
FOREGROUND
  6
CONTINUOUS
 10
8.499920
 20
-0.023320
  0
VERTEX
  8
FOREGROUND
  6
CONTINUOUS
 10
0.000000
 20
-0.023320
  0
VERTEX
  8
FOREGROUND
  6
CONTINUOUS
 10
0.000000
 20
10.976680
  0
SEQEND
  8
0
  0
POLYLINE
  8
FOREGROUND
  6
CONTINUOUS
 66
     1
 40
0.000000
 41
0.000000
  0
VERTEX
  8
FOREGROUND
  6
CONTINUOUS
 10
0.000000
 20
10.976680
  0
VERTEX
  8
FOREGROUND
  6
CONTINUOUS
 10
8.499920
 20
10.976680
  0
VERTEX
  8
FOREGROUND
  6
CONTINUOUS
 10
8.499920
 20
-0.023320
  0
VERTEX
  8
FOREGROUND
  6
CONTINUOUS
 10
0.000000
 20
-0.023320
  0
VERTEX
  8
FOREGROUND
  6
CONTINUOUS
 10
0.000000
 20
10.976680
  0
SEQEND
  8
0
  0
POLYLINE
  8
0
  6
CONTINUOUS
 66
     1
 40
0.000000
 41
0.000000
  0
VERTEX
  8
0
  6
CONTINUOUS
 10
7.121400
 20
8.783720
  0
VERTEX
  8
0
  6
CONTINUOUS
 10
2.210120
 20
8.790320
  0
VERTEX
  8
0
  6
CONTINUOUS
 10
2.210560
 20
9.214480
  0
VERTEX
  8
0
  6
CONTINUOUS
 10
2.240480
 20
9.220640
  0
VERTEX
  8
0
  6
CONTINUOUS
 10
2.275680
 20
9.233840
  0
VERTEX
  8
0
  6
CONTINUOUS
 10
2.293280
 20
9.244840
  0
VERTEX
  8
0
  6
CONTINUOUS
 10
2.306480
 20
9.257600
  0
VERTEX
  8
0
  6
CONTINUOUS
 10
2.314400
 20
9.271240
  0
VERTEX
  8
0
  6
CONTINUOUS
 10
2.318360
 20
9.285320
  0
VERTEX
  8
0
  6
CONTINUOUS
 10
2.317480
 20
9.299840
  0
VERTEX
  8
0
  6
CONTINUOUS
 10
2.312640
 20
9.314360
  0
VERTEX
  8
0
  6
CONTINUOUS
 10
2.296800
 20
9.335040
  0
VERTEX
  8
0
  6
CONTINUOUS
 10
2.281400
 20
9.347800
  0
VERTEX
  8
0
  6
CONTINUOUS
 10
2.250160
 20
9.363640
  0
VERTEX
  8
0
  6
CONTINUOUS
 10
2.224640
 20
9.372000
  0
VERTEX
  8
0
  6
CONTINUOUS
 10
2.195160
 20
9.377720
  0
VERTEX
  8
0
  6
CONTINUOUS
 10
2.161720
 20
9.380800
  0
VERTEX
  8
0
  6
CONTINUOUS
 10
2.130920
 20
9.382120
  0
VERTEX
  8
0
  6
CONTINUOUS
 10
2.108920
 20
9.386960
  0
VERTEX
  8
0
  6
CONTINUOUS
 10
2.092640
 20
9.395760
  0
VERTEX
  8
0
  6
CONTINUOUS
 10
2.086040
 20
9.401920
  0
VERTEX
  8
0
  6
CONTINUOUS
 10
2.076800
 20
9.417760
  0
VERTEX
  8
0
  6
CONTINUOUS
 10
2.072400
 20
9.438000
  0
VERTEX
  8
0
  6
CONTINUOUS
 10
2.072400
 20
9.463520
  0
VERTEX
  8
0
  6
CONTINUOUS
 10
2.076800
 20
9.494760
  0
VERTEX
  8
0
  6
CONTINUOUS
 10
2.092640
 20
9.556800
  0
VERTEX
  8
0
  6
CONTINUOUS
 10
2.109360
 20
9.606080
  0
VERTEX
  8
0
  6
CONTINUOUS
 10
2.130920
 20
9.654920
  0
VERTEX
  8
0
  6
CONTINUOUS
 10
2.157320
 20
9.704200
  0
VERTEX
  8
0
  6
CONTINUOUS
 10
2.188120
 20
9.753040
  0
VERTEX
  8
0
  6
CONTINUOUS
 10
2.243560
 20
9.825640
  0
VERTEX
  8
0
  6
CONTINUOUS
 10
2.286240
 20
9.873160
  0
VERTEX
  8
0
  6
CONTINUOUS
 10
2.358840
 20
9.943560
  0
VERTEX
  8
0
  6
CONTINUOUS
 10
2.412960
 20
9.989760
  0
VERTEX
  8
0
  6
CONTINUOUS
 10
2.471040
 20
10.035080
  0
VERTEX
  8
0
  6
CONTINUOUS
 10
2.566520
 20
10.101080
  0
VERTEX
  8
0
  6
CONTINUOUS
 10
2.635600
 20
10.143760
  0
VERTEX
  8
0
  6
CONTINUOUS
 10
2.746920
 20
10.205360
  0
VERTEX
  8
0
  6
CONTINUOUS
 10
2.826120
 20
10.244960
  0
VERTEX
  8
0
  6
CONTINUOUS
 10
2.952400
 20
10.301280
  0
VERTEX
  8
0
  6
CONTINUOUS
 10
3.041720
 20
10.336480
  0
VERTEX
  8
0
  6
CONTINUOUS
 10
3.134560
 20
10.370360
  0
VERTEX
  8
0
  6
CONTINUOUS
 10
3.281520
 20
10.417880
  0
VERTEX
  8
0
  6
CONTINUOUS
 10
3.384040
 20
10.446920
  0
VERTEX
  8
0
  6
CONTINUOUS
 10
3.544640
 20
10.486520
  0
VERTEX
  8
0
  6
CONTINUOUS
 10
3.656400
 20
10.510280
  0
VERTEX
  8
0
  6
CONTINUOUS
 10
3.771240
 20
10.531400
  0
VERTEX
  8
0
  6
CONTINUOUS
 10
3.950320
 20
10.559120
  0
VERTEX
  8
0
  6
CONTINUOUS
 10
4.073960
 20
10.574080
  0
VERTEX
  8
0
  6
CONTINUOUS
 10
4.201120
 20
10.586400
  0
VERTEX
  8
0
  6
CONTINUOUS
 10
4.397800
 20
10.599600
  0
VERTEX
  8
0
  6
CONTINUOUS
 10
4.601080
 20
10.606200
  0
VERTEX
  8
0
  6
CONTINUOUS
 10
4.670600
 20
10.606640
  0
VERTEX
  8
0
  6
CONTINUOUS
 10
4.661800
 20
10.608400
  0
VERTEX
  8
0
  6
CONTINUOUS
 10
4.799960
 20
10.606200
  0
VERTEX
  8
0
  6
CONTINUOUS
 10
4.934600
 20
10.601360
  0
VERTEX
  8
0
  6
CONTINUOUS
 10
5.131280
 20
10.588160
  0
VERTEX
  8
0
  6
CONTINUOUS
 10
5.258000
 20
10.575840
  0
VERTEX
  8
0
  6
CONTINUOUS
 10
5.381640
 20
10.560880
  0
VERTEX
  8
0
  6
CONTINUOUS
 10
5.560720
 20
10.533160
  0
VERTEX
  8
0
  6
CONTINUOUS
 10
5.676000
 20
10.512040
  0
VERTEX
  8
0
  6
CONTINUOUS
 10
5.787320
 20
10.488280
  0
VERTEX
  8
0
  6
CONTINUOUS
 10
5.947920
 20
10.448680
  0
VERTEX
  8
0
  6
CONTINUOUS
 10
6.100600
 20
10.404240
  0
VERTEX
  8
0
  6
CONTINUOUS
 10
6.244480
 20
10.355400
  0
VERTEX
  8
0
  6
CONTINUOUS
 10
6.335560
 20
10.321080
  0
VERTEX
  8
0
  6
CONTINUOUS
 10
6.464920
 20
10.265640
  0
VERTEX
  8
0
  6
CONTINUOUS
 10
6.585480
 20
10.207120
  0
VERTEX
  8
0
  6
CONTINUOUS
 10
6.696360
 20
10.145520
  0
VERTEX
  8
0
  6
CONTINUOUS
 10
6.765440
 20
10.102840
  0
VERTEX
  8
0
  6
CONTINUOUS
 10
6.860920
 20
10.036840
  0
VERTEX
  8
0
  6
CONTINUOUS
 10
6.919000
 20
9.991520
  0
VERTEX
  8
0
  6
CONTINUOUS
 10
6.973120
 20
9.945320
  0
VERTEX
  8
0
  6
CONTINUOUS
 10
7.045720
 20
9.874920
  0
VERTEX
  8
0
  6
CONTINUOUS
 10
7.088400
 20
9.827400
  0
VERTEX
  8
0
  6
CONTINUOUS
 10
7.143840
 20
9.754800
  0
VERTEX
  8
0
  6
CONTINUOUS
 10
7.188720
 20
9.681320
  0
VERTEX
  8
0
  6
CONTINUOUS
 10
7.212480
 20
9.632480
  0
VERTEX
  8
0
  6
CONTINUOUS
 10
7.231840
 20
9.583200
  0
VERTEX
  8
0
  6
CONTINUOUS
 10
7.251640
 20
9.513680
  0
VERTEX
  8
0
  6
CONTINUOUS
 10
7.258240
 20
9.479800
  0
VERTEX
  8
0
  6
CONTINUOUS
 10
7.260440
 20
9.451640
  0
VERTEX
  8
0
  6
CONTINUOUS
 10
7.257800
 20
9.428760
  0
VERTEX
  8
0
  6
CONTINUOUS
 10
7.251200
 20
9.411160
  0
VERTEX
  8
0
  6
CONTINUOUS
 10
7.245920
 20
9.403680
  0
VERTEX
  8
0
  6
CONTINUOUS
 10
7.231840
 20
9.392680
  0
VERTEX
  8
0
  6
CONTINUOUS
 10
7.223040
 20
9.388720
  0
VERTEX
  8
0
  6
CONTINUOUS
 10
7.201040
 20
9.383880
  0
VERTEX
  8
0
  6
CONTINUOUS
 10
7.153080
 20
9.381240
  0
VERTEX
  8
0
  6
CONTINUOUS
 10
7.121840
 20
9.376840
  0
VERTEX
  8
0
  6
CONTINUOUS
 10
7.094120
 20
9.369800
  0
VERTEX
  8
0
  6
CONTINUOUS
 10
7.060240
 20
9.355280
  0
VERTEX
  8
0
  6
CONTINUOUS
 10
7.035160
 20
9.336800
  0
VERTEX
  8
0
  6
CONTINUOUS
 10
7.023720
 20
9.323160
  0
VERTEX
  8
0
  6
CONTINUOUS
 10
7.016680
 20
9.309080
  0
VERTEX
  8
0
  6
CONTINUOUS
 10
7.013600
 20
9.294560
  0
VERTEX
  8
0
  6
CONTINUOUS
 10
7.015360
 20
9.280040
  0
VERTEX
  8
0
  6
CONTINUOUS
 10
7.021520
 20
9.265960
  0
VERTEX
  8
0
  6
CONTINUOUS
 10
7.032080
 20
9.252760
  0
VERTEX
  8
0
  6
CONTINUOUS
 10
7.047040
 20
9.240880
  0
VERTEX
  8
0
  6
CONTINUOUS
 10
7.067280
 20
9.230760
  0
VERTEX
  8
0
  6
CONTINUOUS
 10
7.091920
 20
9.222400
  0
VERTEX
  8
0
  6
CONTINUOUS
 10
7.121840
 20
9.216240
  0
VERTEX
  8
0
  6
CONTINUOUS
 10
7.121400
 20
8.783720
  0
SEQEND
  8
0
  0
POLYLINE
  8
0
  6
CONTINUOUS
 66
     1
 40
0.000000
 41
0.000000
  0
VERTEX
  8
0
  6
CONTINUOUS
 10
0.539000
 20
7.329520
  0
VERTEX
  8
0
  6
CONTINUOUS
 10
0.531080
 20
7.329520
  0
VERTEX
  8
0
  6
CONTINUOUS
 10
1.644720
 20
7.329520
  0
VERTEX
  8
0
  6
CONTINUOUS
 10
1.686960
 20
7.342720
  0
VERTEX
  8
0
  6
CONTINUOUS
 10
1.725240
 20
7.357680
  0
VERTEX
  8
0
  6
CONTINUOUS
 10
1.775840
 20
7.384520
  0
VERTEX
  8
0
  6
CONTINUOUS
 10
1.805320
 20
7.404760
  0
VERTEX
  8
0
  6
CONTINUOUS
 10
1.843600
 20
7.437760
  0
VERTEX
  8
0
  6
CONTINUOUS
 10
1.873960
 20
7.474280
  0
VERTEX
  8
0
  6
CONTINUOUS
 10
1.890240
 20
7.499800
  0
VERTEX
  8
0
  6
CONTINUOUS
 10
1.903880
 20
7.526640
  0
VERTEX
  8
0
  6
CONTINUOUS
 10
1.918400
 20
7.568000
  0
VERTEX
  8
0
  6
CONTINUOUS
 10
1.924560
 20
7.596160
  0
VERTEX
  8
0
  6
CONTINUOUS
 10
1.928080
 20
7.624760
  0
VERTEX
  8
0
  6
CONTINUOUS
 10
1.928520
 20
7.653800
  0
VERTEX
  8
0
  6
CONTINUOUS
 10
1.926760
 20
7.682400
  0
VERTEX
  8
0
  6
CONTINUOUS
 10
1.922800
 20
7.711000
  0
VERTEX
  8
0
  6
CONTINUOUS
 10
1.916200
 20
7.739160
  0
VERTEX
  8
0
  6
CONTINUOUS
 10
1.906960
 20
7.766880
  0
VERTEX
  8
0
  6
CONTINUOUS
 10
1.895960
 20
7.793720
  0
VERTEX
  8
0
  6
CONTINUOUS
 10
1.882760
 20
7.820120
  0
VERTEX
  8
0
  6
CONTINUOUS
 10
1.867360
 20
7.845200
  0
VERTEX
  8
0
  6
CONTINUOUS
 10
1.850200
 20
7.868960
  0
VERTEX
  8
0
  6
CONTINUOUS
 10
1.831280
 20
7.891400
  0
VERTEX
  8
0
  6
CONTINUOUS
 10
1.810600
 20
7.912080
  0
VERTEX
  8
0
  6
CONTINUOUS
 10
1.776280
 20
7.939800
  0
VERTEX
  8
0
  6
CONTINUOUS
 10
1.738440
 20
7.963560
  0
VERTEX
  8
0
  6
CONTINUOUS
 10
1.697520
 20
7.981600
  0
VERTEX
  8
0
  6
CONTINUOUS
 10
1.653960
 20
7.994360
  0
VERTEX
  8
0
  6
CONTINUOUS
 10
1.623160
 20
7.999200
  0
VERTEX
  8
0
  6
CONTINUOUS
 10
1.591480
 20
8.000960
  0
VERTEX
  8
0
  6
CONTINUOUS
 10
1.591480
 20
8.119760
  0
VERTEX
  8
0
  6
CONTINUOUS
 10
1.547480
 20
8.121960
  0
VERTEX
  8
0
  6
CONTINUOUS
 10
1.466080
 20
8.129880
  0
VERTEX
  8
0
  6
CONTINUOUS
 10
1.392600
 20
8.141320
  0
VERTEX
  8
0
  6
CONTINUOUS
 10
1.327040
 20
8.155840
  0
VERTEX
  8
0
  6
CONTINUOUS
 10
1.268960
 20
8.174320
  0
VERTEX
  8
0
  6
CONTINUOUS
 10
1.217920
 20
8.195440
  0
VERTEX
  8
0
  6
CONTINUOUS
 10
1.173920
 20
8.219200
  0
VERTEX
  8
0
  6
CONTINUOUS
 10
1.136520
 20
8.245160
  0
VERTEX
  8
0
  6
CONTINUOUS
 10
1.105280
 20
8.273320
  0
VERTEX
  8
0
  6
CONTINUOUS
 10
1.080200
 20
8.303240
  0
VERTEX
  8
0
  6
CONTINUOUS
 10
1.060400
 20
8.334920
  0
VERTEX
  8
0
  6
CONTINUOUS
 10
1.045880
 20
8.367920
  0
VERTEX
  8
0
  6
CONTINUOUS
 10
1.035760
 20
8.401800
  0
VERTEX
  8
0
  6
CONTINUOUS
 10
1.030920
 20
8.436120
  0
VERTEX
  8
0
  6
CONTINUOUS
 10
1.029600
 20
8.470880
  0
VERTEX
  8
0
  6
CONTINUOUS
 10
1.032680
 20
8.506080
  0
VERTEX
  8
0
  6
CONTINUOUS
 10
1.039280
 20
8.540840
  0
VERTEX
  8
0
  6
CONTINUOUS
 10
1.048520
 20
8.575600
  0
VERTEX
  8
0
  6
CONTINUOUS
 10
1.068320
 20
8.625760
  0
VERTEX
  8
0
  6
CONTINUOUS
 10
1.084600
 20
8.658320
  0
VERTEX
  8
0
  6
CONTINUOUS
 10
1.103080
 20
8.689120
  0
VERTEX
  8
0
  6
CONTINUOUS
 10
1.122880
 20
8.718160
  0
VERTEX
  8
0
  6
CONTINUOUS
 10
1.155440
 20
8.758200
  0
VERTEX
  8
0
  6
CONTINUOUS
 10
1.189760
 20
8.792960
  0
VERTEX
  8
0
  6
CONTINUOUS
 10
1.224960
 20
8.821120
  0
VERTEX
  8
0
  6
CONTINUOUS
 10
1.259720
 20
8.842240
  0
VERTEX
  8
0
  6
CONTINUOUS
 10
1.282600
 20
8.851920
  0
VERTEX
  8
0
  6
CONTINUOUS
 10
1.304160
 20
8.857640
  0
VERTEX
  8
0
  6
CONTINUOUS
 10
1.324400
 20
8.858960
  0
VERTEX
  8
0
  6
CONTINUOUS
 10
1.343320
 20
8.855880
  0
VERTEX
  8
0
  6
CONTINUOUS
 10
1.352560
 20
8.882280
  0
VERTEX
  8
0
  6
CONTINUOUS
 10
1.355200
 20
8.895480
  0
VERTEX
  8
0
  6
CONTINUOUS
 10
1.356080
 20
8.909560
  0
VERTEX
  8
0
  6
CONTINUOUS
 10
1.354760
 20
8.924080
  0
VERTEX
  8
0
  6
CONTINUOUS
 10
1.351240
 20
8.939040
  0
VERTEX
  8
0
  6
CONTINUOUS
 10
1.340680
 20
8.962800
  0
VERTEX
  8
0
  6
CONTINUOUS
 10
1.323520
 20
8.988320
  0
VERTEX
  8
0
  6
CONTINUOUS
 10
1.298440
 20
9.015600
  0
VERTEX
  8
0
  6
CONTINUOUS
 10
1.264560
 20
9.044640
  0
VERTEX
  8
0
  6
CONTINUOUS
 10
1.204280
 20
9.087760
  0
VERTEX
  8
0
  6
CONTINUOUS
 10
1.124200
 20
9.135720
  0
VERTEX
  8
0
  6
CONTINUOUS
 10
1.190640
 20
9.142320
  0
VERTEX
  8
0
  6
CONTINUOUS
 10
1.250920
 20
9.153760
  0
VERTEX
  8
0
  6
CONTINUOUS
 10
1.305040
 20
9.170480
  0
VERTEX
  8
0
  6
CONTINUOUS
 10
1.353000
 20
9.191160
  0
VERTEX
  8
0
  6
CONTINUOUS
 10
1.394800
 20
9.215800
  0
VERTEX
  8
0
  6
CONTINUOUS
 10
1.430880
 20
9.244400
  0
VERTEX
  8
0
  6
CONTINUOUS
 10
1.461240
 20
9.276080
  0
VERTEX
  8
0
  6
CONTINUOUS
 10
1.485440
 20
9.310840
  0
VERTEX
  8
0
  6
CONTINUOUS
 10
1.504360
 20
9.348680
  0
VERTEX
  8
0
  6
CONTINUOUS
 10
1.517560
 20
9.388280
  0
VERTEX
  8
0
  6
CONTINUOUS
 10
1.525040
 20
9.429640
  0
VERTEX
  8
0
  6
CONTINUOUS
 10
1.527240
 20
9.473200
  0
VERTEX
  8
0
  6
CONTINUOUS
 10
1.523720
 20
9.517640
  0
VERTEX
  8
0
  6
CONTINUOUS
 10
1.520200
 20
9.540080
  0
VERTEX
  8
0
  6
CONTINUOUS
 10
1.508760
 20
9.585840
  0
VERTEX
  8
0
  6
CONTINUOUS
 10
1.492040
 20
9.631600
  0
VERTEX
  8
0
  6
CONTINUOUS
 10
1.470480
 20
9.677360
  0
VERTEX
  8
0
  6
CONTINUOUS
 10
1.443640
 20
9.723120
  0
VERTEX
  8
0
  6
CONTINUOUS
 10
1.411520
 20
9.768000
  0
VERTEX
  8
0
  6
CONTINUOUS
 10
1.375000
 20
9.812000
  0
VERTEX
  8
0
  6
CONTINUOUS
 10
1.310760
 20
9.874920
  0
VERTEX
  8
0
  6
CONTINUOUS
 10
1.261480
 20
9.914520
  0
VERTEX
  8
0
  6
CONTINUOUS
 10
1.208240
 20
9.951920
  0
VERTEX
  8
0
  6
CONTINUOUS
 10
1.150160
 20
9.986680
  0
VERTEX
  8
0
  6
CONTINUOUS
 10
1.087240
 20
10.018360
  0
VERTEX
  8
0
  6
CONTINUOUS
 10
1.019920
 20
10.046960
  0
VERTEX
  8
0
  6
CONTINUOUS
 10
0.948640
 20
10.071600
  0
VERTEX
  8
0
  6
CONTINUOUS
 10
0.872520
 20
10.092280
  0
VERTEX
  8
0
  6
CONTINUOUS
 10
0.792440
 20
10.108560
  0
VERTEX
  8
0
  6
CONTINUOUS
 10
0.707960
 20
10.120440
  0
VERTEX
  8
0
  6
CONTINUOUS
 10
0.619520
 20
10.127040
  0
VERTEX
  8
0
  6
CONTINUOUS
 10
0.527120
 20
10.127920
  0
VERTEX
  8
0
  6
CONTINUOUS
 10
0.527120
 20
7.329520
  0
VERTEX
  8
0
  6
CONTINUOUS
 10
0.539000
 20
7.329520
  0
SEQEND
  8
0
  0
SOLID
  8
0
 62
    15
 10
3.432000
 20
8.423360
 11
3.743080
 21
7.788000
 12
3.438600
 22
8.360880
 13
3.749680
 23
7.725520
  0
POLYLINE
  8
0
  6
CONTINUOUS
 66
     1
 40
0.000000
 41
0.000000
  0
VERTEX
  8
0
  6
CONTINUOUS
 10
3.432000
 20
8.423360
  0
VERTEX
  8
0
  6
CONTINUOUS
 10
3.743080
 20
7.788000
  0
VERTEX
  8
0
  6
CONTINUOUS
 10
3.749680
 20
7.725520
  0
VERTEX
  8
0
  6
CONTINUOUS
 10
3.438600
 20
8.360880
  0
VERTEX
  8
0
  6
CONTINUOUS
 10
3.432000
 20
8.423360
  0
SEQEND
  8
0
  0
SOLID
  8
0
 62
    15
 10
3.622520
 20
8.012400
 11
3.933160
 21
7.377040
 12
3.644960
 22
7.964880
 13
3.955600
 23
7.329520
  0
POLYLINE
  8
0
  6
CONTINUOUS
 66
     1
 40
0.000000
 41
0.000000
  0
VERTEX
  8
0
  6
CONTINUOUS
 10
3.622520
 20
8.012400
  0
VERTEX
  8
0
  6
CONTINUOUS
 10
3.933160
 20
7.377040
  0
VERTEX
  8
0
  6
CONTINUOUS
 10
3.955600
 20
7.329520
  0
VERTEX
  8
0
  6
CONTINUOUS
 10
3.644960
 20
7.964880
  0
VERTEX
  8
0
  6
CONTINUOUS
 10
3.622520
 20
8.012400
  0
SEQEND
  8
0
  0
SOLID
  8
0
 62
    15
 10
3.557840
 20
8.360880
 11
3.868920
 21
7.725520
 12
3.563560
 22
8.275080
 13
3.874640
 23
7.639720
  0
POLYLINE
  8
0
  6
CONTINUOUS
 66
     1
 40
0.000000
 41
0.000000
  0
VERTEX
  8
0
  6
CONTINUOUS
 10
3.557840
 20
8.360880
  0
VERTEX
  8
0
  6
CONTINUOUS
 10
3.868920
 20
7.725520
  0
VERTEX
  8
0
  6
CONTINUOUS
 10
3.874640
 20
7.639720
  0
VERTEX
  8
0
  6
CONTINUOUS
 10
3.563560
 20
8.275080
  0
VERTEX
  8
0
  6
CONTINUOUS
 10
3.557840
 20
8.360880
  0
SEQEND
  8
0
  0
SOLID
  8
0
 62
    15
 10
3.563560
 20
8.275080
 11
3.874640
 21
7.639720
 12
3.573240
 22
8.197640
 13
3.883880
 23
7.562280
  0
POLYLINE
  8
0
  6
CONTINUOUS
 66
     1
 40
0.000000
 41
0.000000
  0
VERTEX
  8
0
  6
CONTINUOUS
 10
3.563560
 20
8.275080
  0
VERTEX
  8
0
  6
CONTINUOUS
 10
3.874640
 20
7.639720
  0
VERTEX
  8
0
  6
CONTINUOUS
 10
3.883880
 20
7.562280
  0
VERTEX
  8
0
  6
CONTINUOUS
 10
3.573240
 20
8.197640
  0
VERTEX
  8
0
  6
CONTINUOUS
 10
3.563560
 20
8.275080
  0
SEQEND
  8
0
  0
SOLID
  8
0
 62
    15
 10
3.413960
 20
8.481000
 11
3.725040
 21
7.845640
 12
3.432000
 22
8.423360
 13
3.743080
 23
7.788000
  0
POLYLINE
  8
0
  6
CONTINUOUS
 66
     1
 40
0.000000
 41
0.000000
  0
VERTEX
  8
0
  6
CONTINUOUS
 10
3.413960
 20
8.481000
  0
VERTEX
  8
0
  6
CONTINUOUS
 10
3.725040
 20
7.845640
  0
VERTEX
  8
0
  6
CONTINUOUS
 10
3.743080
 20
7.788000
  0
VERTEX
  8
0
  6
CONTINUOUS
 10
3.432000
 20
8.423360
  0
VERTEX
  8
0
  6
CONTINUOUS
 10
3.413960
 20
8.481000
  0
SEQEND
  8
0
  0
SOLID
  8
0
 62
    15
 10
3.586440
 20
8.128560
 11
3.897080
 21
7.492760
 12
3.602720
 22
8.066520
 13
3.913800
 23
7.431160
  0
POLYLINE
  8
0
  6
CONTINUOUS
 66
     1
 40
0.000000
 41
0.000000
  0
VERTEX
  8
0
  6
CONTINUOUS
 10
3.586440
 20
8.128560
  0
VERTEX
  8
0
  6
CONTINUOUS
 10
3.897080
 20
7.492760
  0
VERTEX
  8
0
  6
CONTINUOUS
 10
3.913800
 20
7.431160
  0
VERTEX
  8
0
  6
CONTINUOUS
 10
3.602720
 20
8.066520
  0
VERTEX
  8
0
  6
CONTINUOUS
 10
3.586440
 20
8.128560
  0
SEQEND
  8
0
  0
SOLID
  8
0
 62
    15
 10
3.602720
 20
8.066520
 11
3.913800
 21
7.431160
 12
3.622520
 22
8.012400
 13
3.933160
 23
7.377040
  0
POLYLINE
  8
0
  6
CONTINUOUS
 66
     1
 40
0.000000
 41
0.000000
  0
VERTEX
  8
0
  6
CONTINUOUS
 10
3.602720
 20
8.066520
  0
VERTEX
  8
0
  6
CONTINUOUS
 10
3.913800
 20
7.431160
  0
VERTEX
  8
0
  6
CONTINUOUS
 10
3.933160
 20
7.377040
  0
VERTEX
  8
0
  6
CONTINUOUS
 10
3.622520
 20
8.012400
  0
VERTEX
  8
0
  6
CONTINUOUS
 10
3.602720
 20
8.066520
  0
SEQEND
  8
0
  0
SOLID
  8
0
 62
    15
 10
3.573240
 20
8.197640
 11
3.883880
 21
7.562280
 12
3.586440
 22
8.128560
 13
3.897080
 23
7.492760
  0
POLYLINE
  8
0
  6
CONTINUOUS
 66
     1
 40
0.000000
 41
0.000000
  0
VERTEX
  8
0
  6
CONTINUOUS
 10
3.573240
 20
8.197640
  0
VERTEX
  8
0
  6
CONTINUOUS
 10
3.883880
 20
7.562280
  0
VERTEX
  8
0
  6
CONTINUOUS
 10
3.897080
 20
7.492760
  0
VERTEX
  8
0
  6
CONTINUOUS
 10
3.586440
 20
8.128560
  0
VERTEX
  8
0
  6
CONTINUOUS
 10
3.573240
 20
8.197640
  0
SEQEND
  8
0
  0
SOLID
  8
0
 62
    15
 10
5.424760
 20
7.919560
 11
5.735840
 21
7.284200
 12
5.485040
 22
7.789760
 13
5.796120
 23
7.154400
  0
POLYLINE
  8
0
  6
CONTINUOUS
 66
     1
 40
0.000000
 41
0.000000
  0
VERTEX
  8
0
  6
CONTINUOUS
 10
5.424760
 20
7.919560
  0
VERTEX
  8
0
  6
CONTINUOUS
 10
5.735840
 20
7.284200
  0
VERTEX
  8
0
  6
CONTINUOUS
 10
5.796120
 20
7.154400
  0
VERTEX
  8
0
  6
CONTINUOUS
 10
5.485040
 20
7.789760
  0
VERTEX
  8
0
  6
CONTINUOUS
 10
5.424760
 20
7.919560
  0
SEQEND
  8
0
  0
SOLID
  8
0
 62
    15
 10
5.485040
 20
7.789760
 11
5.796120
 21
7.154400
 12
5.530360
 22
7.642360
 13
5.841440
 23
7.007000
  0
POLYLINE
  8
0
  6
CONTINUOUS
 66
     1
 40
0.000000
 41
0.000000
  0
VERTEX
  8
0
  6
CONTINUOUS
 10
5.485040
 20
7.789760
  0
VERTEX
  8
0
  6
CONTINUOUS
 10
5.796120
 20
7.154400
  0
VERTEX
  8
0
  6
CONTINUOUS
 10
5.841440
 20
7.007000
  0
VERTEX
  8
0
  6
CONTINUOUS
 10
5.530360
 20
7.642360
  0
VERTEX
  8
0
  6
CONTINUOUS
 10
5.485040
 20
7.789760
  0
SEQEND
  8
0
  0
SOLID
  8
0
 62
    15
 10
5.530360
 20
7.642360
 11
5.841440
 21
7.007000
 12
5.558520
 22
7.477800
 13
5.869160
 23
6.842440
  0
POLYLINE
  8
0
  6
CONTINUOUS
 66
     1
 40
0.000000
 41
0.000000
  0
VERTEX
  8
0
  6
CONTINUOUS
 10
5.530360
 20
7.642360
  0
VERTEX
  8
0
  6
CONTINUOUS
 10
5.841440
 20
7.007000
  0
VERTEX
  8
0
  6
CONTINUOUS
 10
5.869160
 20
6.842440
  0
VERTEX
  8
0
  6
CONTINUOUS
 10
5.558520
 20
7.477800
  0
VERTEX
  8
0
  6
CONTINUOUS
 10
5.530360
 20
7.642360
  0
SEQEND
  8
0
  0
SOLID
  8
0
 62
    15
 10
5.558520
 20
7.477800
 11
5.869160
 21
6.842440
 12
5.565120
 22
7.389360
 13
5.875760
 23
6.754000
  0
POLYLINE
  8
0
  6
CONTINUOUS
 66
     1
 40
0.000000
 41
0.000000
  0
VERTEX
  8
0
  6
CONTINUOUS
 10
5.558520
 20
7.477800
  0
VERTEX
  8
0
  6
CONTINUOUS
 10
5.869160
 20
6.842440
  0
VERTEX
  8
0
  6
CONTINUOUS
 10
5.875760
 20
6.754000
  0
VERTEX
  8
0
  6
CONTINUOUS
 10
5.565120
 20
7.389360
  0
VERTEX
  8
0
  6
CONTINUOUS
 10
5.558520
 20
7.477800
  0
SEQEND
  8
0
  0
SOLID
  8
0
 62
    15
 10
5.565120
 20
7.389360
 11
5.875760
 21
6.754000
 12
5.566000
 22
7.296960
 13
5.876640
 23
6.661600
  0
POLYLINE
  8
0
  6
CONTINUOUS
 66
     1
 40
0.000000
 41
0.000000
  0
VERTEX
  8
0
  6
CONTINUOUS
 10
5.565120
 20
7.389360
  0
VERTEX
  8
0
  6
CONTINUOUS
 10
5.875760
 20
6.754000
  0
VERTEX
  8
0
  6
CONTINUOUS
 10
5.876640
 20
6.661600
  0
VERTEX
  8
0
  6
CONTINUOUS
 10
5.566000
 20
7.296960
  0
VERTEX
  8
0
  6
CONTINUOUS
 10
5.565120
 20
7.389360
  0
SEQEND
  8
0
  0
SOLID
  8
0
 62
    15
 10
5.566000
 20
7.296960
 11
5.876640
 21
6.661600
 12
2.767600
 22
7.296960
 13
3.078680
 23
6.661600
  0
POLYLINE
  8
0
  6
CONTINUOUS
 66
     1
 40
0.000000
 41
0.000000
  0
VERTEX
  8
0
  6
CONTINUOUS
 10
5.566000
 20
7.296960
  0
VERTEX
  8
0
  6
CONTINUOUS
 10
5.876640
 20
6.661600
  0
VERTEX
  8
0
  6
CONTINUOUS
 10
3.078680
 20
6.661600
  0
VERTEX
  8
0
  6
CONTINUOUS
 10
2.767600
 20
7.296960
  0
VERTEX
  8
0
  6
CONTINUOUS
 10
5.566000
 20
7.296960
  0
SEQEND
  8
0
  0
POLYLINE
  8
0
  6
CONTINUOUS
 66
     1
 40
0.000000
 41
0.000000
  0
VERTEX
  8
0
  6
CONTINUOUS
 10
2.767600
 20
7.308400
  0
VERTEX
  8
0
  6
CONTINUOUS
 10
2.767600
 20
8.414560
  0
VERTEX
  8
0
  6
CONTINUOUS
 10
2.795760
 20
8.495080
  0
VERTEX
  8
0
  6
CONTINUOUS
 10
2.832280
 20
8.561080
  0
VERTEX
  8
0
  6
CONTINUOUS
 10
2.875840
 20
8.613000
  0
VERTEX
  8
0
  6
CONTINUOUS
 10
2.925120
 20
8.652160
  0
VERTEX
  8
0
  6
CONTINUOUS
 10
2.978360
 20
8.679000
  0
VERTEX
  8
0
  6
CONTINUOUS
 10
3.034240
 20
8.694400
  0
VERTEX
  8
0
  6
CONTINUOUS
 10
3.091440
 20
8.698360
  0
VERTEX
  8
0
  6
CONTINUOUS
 10
3.149080
 20
8.692200
  0
VERTEX
  8
0
  6
CONTINUOUS
 10
3.204960
 20
8.676800
  0
VERTEX
  8
0
  6
CONTINUOUS
 10
3.257760
 20
8.652600
  0
VERTEX
  8
0
  6
CONTINUOUS
 10
3.307040
 20
8.620040
  0
VERTEX
  8
0
  6
CONTINUOUS
 10
3.350160
 20
8.580000
  0
VERTEX
  8
0
  6
CONTINUOUS
 10
3.386240
 20
8.533800
  0
VERTEX
  8
0
  6
CONTINUOUS
 10
3.413960
 20
8.481000
  0
VERTEX
  8
0
  6
CONTINUOUS
 10
3.432000
 20
8.423360
  0
VERTEX
  8
0
  6
CONTINUOUS
 10
3.438600
 20
8.360880
  0
VERTEX
  8
0
  6
CONTINUOUS
 10
3.557840
 20
8.360880
  0
VERTEX
  8
0
  6
CONTINUOUS
 10
3.563560
 20
8.275080
  0
VERTEX
  8
0
  6
CONTINUOUS
 10
3.573240
 20
8.197640
  0
VERTEX
  8
0
  6
CONTINUOUS
 10
3.586440
 20
8.128560
  0
VERTEX
  8
0
  6
CONTINUOUS
 10
3.602720
 20
8.066520
  0
VERTEX
  8
0
  6
CONTINUOUS
 10
3.622520
 20
8.012400
  0
VERTEX
  8
0
  6
CONTINUOUS
 10
3.644960
 20
7.964880
  0
VERTEX
  8
0
  6
CONTINUOUS
 10
3.670040
 20
7.924400
  0
VERTEX
  8
0
  6
CONTINUOUS
 10
3.696880
 20
7.890080
  0
VERTEX
  8
0
  6
CONTINUOUS
 10
3.757160
 20
7.839480
  0
VERTEX
  8
0
  6
CONTINUOUS
 10
3.822720
 20
7.810000
  0
VERTEX
  8
0
  6
CONTINUOUS
 10
3.891360
 20
7.799440
  0
VERTEX
  8
0
  6
CONTINUOUS
 10
3.961760
 20
7.805160
  0
VERTEX
  8
0
  6
CONTINUOUS
 10
4.030840
 20
7.824520
  0
VERTEX
  8
0
  6
CONTINUOUS
 10
4.096400
 20
7.854440
  0
VERTEX
  8
0
  6
CONTINUOUS
 10
4.156240
 20
7.892720
  0
VERTEX
  8
0
  6
CONTINUOUS
 10
4.208600
 20
7.936280
  0
VERTEX
  8
0
  6
CONTINUOUS
 10
4.250400
 20
7.982920
  0
VERTEX
  8
0
  6
CONTINUOUS
 10
4.280320
 20
8.029560
  0
VERTEX
  8
0
  6
CONTINUOUS
 10
4.295720
 20
8.074000
  0
VERTEX
  8
0
  6
CONTINUOUS
 10
4.293960
 20
8.113160
  0
VERTEX
  8
0
  6
CONTINUOUS
 10
4.347640
 20
8.125920
  0
VERTEX
  8
0
  6
CONTINUOUS
 10
4.377120
 20
8.121080
  0
VERTEX
  8
0
  6
CONTINUOUS
 10
4.408800
 20
8.105680
  0
VERTEX
  8
0
  6
CONTINUOUS
 10
4.444000
 20
8.077520
  0
VERTEX
  8
0
  6
CONTINUOUS
 10
4.482720
 20
8.034400
  0
VERTEX
  8
0
  6
CONTINUOUS
 10
4.525840
 20
7.973680
  0
VERTEX
  8
0
  6
CONTINUOUS
 10
4.573800
 20
7.894040
  0
VERTEX
  8
0
  6
CONTINUOUS
 10
4.580400
 20
7.960480
  0
VERTEX
  8
0
  6
CONTINUOUS
 10
4.591840
 20
8.020320
  0
VERTEX
  8
0
  6
CONTINUOUS
 10
4.608560
 20
8.074440
  0
VERTEX
  8
0
  6
CONTINUOUS
 10
4.629240
 20
8.122400
  0
VERTEX
  8
0
  6
CONTINUOUS
 10
4.653880
 20
8.164640
  0
VERTEX
  8
0
  6
CONTINUOUS
 10
4.682480
 20
8.200720
  0
VERTEX
  8
0
  6
CONTINUOUS
 10
4.714160
 20
8.231080
  0
VERTEX
  8
0
  6
CONTINUOUS
 10
4.748920
 20
8.255280
  0
VERTEX
  8
0
  6
CONTINUOUS
 10
4.826360
 20
8.287400
  0
VERTEX
  8
0
  6
CONTINUOUS
 10
4.911280
 20
8.296640
  0
VERTEX
  8
0
  6
CONTINUOUS
 10
5.001040
 20
8.284760
  0
VERTEX
  8
0
  6
CONTINUOUS
 10
5.092560
 20
8.251320
  0
VERTEX
  8
0
  6
CONTINUOUS
 10
5.183640
 20
8.198080
  0
VERTEX
  8
0
  6
CONTINUOUS
 10
5.271200
 20
8.124160
  0
VERTEX
  8
0
  6
CONTINUOUS
 10
5.352600
 20
8.031320
  0
VERTEX
  8
0
  6
CONTINUOUS
 10
5.424760
 20
7.919560
  0
VERTEX
  8
0
  6
CONTINUOUS
 10
5.485040
 20
7.789760
  0
VERTEX
  8
0
  6
CONTINUOUS
 10
5.530360
 20
7.642360
  0
VERTEX
  8
0
  6
CONTINUOUS
 10
5.558520
 20
7.477800
  0
VERTEX
  8
0
  6
CONTINUOUS
 10
5.565120
 20
7.389360
  0
VERTEX
  8
0
  6
CONTINUOUS
 10
5.566000
 20
7.296960
  0
VERTEX
  8
0
  6
CONTINUOUS
 10
2.767600
 20
7.296960
  0
VERTEX
  8
0
  6
CONTINUOUS
 10
2.767600
 20
7.308400
  0
SEQEND
  8
0
  0
SOLID
  8
0
 62
    15
 10
6.617160
 20
2.884200
 11
6.878960
 21
2.414280
 12
6.533120
 22
2.742080
 13
6.794920
 23
2.272160
  0
POLYLINE
  8
0
  6
CONTINUOUS
 66
     1
 40
0.000000
 41
0.000000
  0
VERTEX
  8
0
  6
CONTINUOUS
 10
6.617160
 20
2.884200
  0
VERTEX
  8
0
  6
CONTINUOUS
 10
6.878960
 20
2.414280
  0
VERTEX
  8
0
  6
CONTINUOUS
 10
6.794920
 20
2.272160
  0
VERTEX
  8
0
  6
CONTINUOUS
 10
6.533120
 20
2.742080
  0
VERTEX
  8
0
  6
CONTINUOUS
 10
6.617160
 20
2.884200
  0
SEQEND
  8
0
  0
SOLID
  8
0
 62
    15
 10
6.615840
 20
6.798880
 11
6.877200
 21
6.329400
 12
6.694600
 22
6.640480
 13
6.955960
 23
6.170560
  0
POLYLINE
  8
0
  6
CONTINUOUS
 66
     1
 40
0.000000
 41
0.000000
  0
VERTEX
  8
0
  6
CONTINUOUS
 10
6.615840
 20
6.798880
  0
VERTEX
  8
0
  6
CONTINUOUS
 10
6.877200
 20
6.329400
  0
VERTEX
  8
0
  6
CONTINUOUS
 10
6.955960
 20
6.170560
  0
VERTEX
  8
0
  6
CONTINUOUS
 10
6.694600
 20
6.640480
  0
VERTEX
  8
0
  6
CONTINUOUS
 10
6.615840
 20
6.798880
  0
SEQEND
  8
0
  0
SOLID
  8
0
 62
    15
 10
6.694600
 20
6.640480
 11
6.955960
 21
6.170560
 12
6.767200
 22
6.465800
 13
7.028560
 23
5.996320
  0
POLYLINE
  8
0
  6
CONTINUOUS
 66
     1
 40
0.000000
 41
0.000000
  0
VERTEX
  8
0
  6
CONTINUOUS
 10
6.694600
 20
6.640480
  0
VERTEX
  8
0
  6
CONTINUOUS
 10
6.955960
 20
6.170560
  0
VERTEX
  8
0
  6
CONTINUOUS
 10
7.028560
 20
5.996320
  0
VERTEX
  8
0
  6
CONTINUOUS
 10
6.767200
 20
6.465800
  0
VERTEX
  8
0
  6
CONTINUOUS
 10
6.694600
 20
6.640480
  0
SEQEND
  8
0
  0
SOLID
  8
0
 62
    15
 10
6.767200
 20
6.465800
 11
7.028560
 21
5.996320
 12
6.833200
 22
6.275720
 13
7.094560
 23
5.806240
  0
POLYLINE
  8
0
  6
CONTINUOUS
 66
     1
 40
0.000000
 41
0.000000
  0
VERTEX
  8
0
  6
CONTINUOUS
 10
6.767200
 20
6.465800
  0
VERTEX
  8
0
  6
CONTINUOUS
 10
7.028560
 20
5.996320
  0
VERTEX
  8
0
  6
CONTINUOUS
 10
7.094560
 20
5.806240
  0
VERTEX
  8
0
  6
CONTINUOUS
 10
6.833200
 20
6.275720
  0
VERTEX
  8
0
  6
CONTINUOUS
 10
6.767200
 20
6.465800
  0
SEQEND
  8
0
  0
SOLID
  8
0
 62
    15
 10
6.833200
 20
6.275720
 11
7.094560
 21
5.806240
 12
6.891280
 22
6.070680
 13
7.152640
 23
5.601200
  0
POLYLINE
  8
0
  6
CONTINUOUS
 66
     1
 40
0.000000
 41
0.000000
  0
VERTEX
  8
0
  6
CONTINUOUS
 10
6.833200
 20
6.275720
  0
VERTEX
  8
0
  6
CONTINUOUS
 10
7.094560
 20
5.806240
  0
VERTEX
  8
0
  6
CONTINUOUS
 10
7.152640
 20
5.601200
  0
VERTEX
  8
0
  6
CONTINUOUS
 10
6.891280
 20
6.070680
  0
VERTEX
  8
0
  6
CONTINUOUS
 10
6.833200
 20
6.275720
  0
SEQEND
  8
0
  0
SOLID
  8
0
 62
    15
 10
6.891280
 20
6.070680
 11
7.152640
 21
5.601200
 12
6.940560
 22
5.851120
 13
7.202360
 23
5.381640
  0
POLYLINE
  8
0
  6
CONTINUOUS
 66
     1
 40
0.000000
 41
0.000000
  0
VERTEX
  8
0
  6
CONTINUOUS
 10
6.891280
 20
6.070680
  0
VERTEX
  8
0
  6
CONTINUOUS
 10
7.152640
 20
5.601200
  0
VERTEX
  8
0
  6
CONTINUOUS
 10
7.202360
 20
5.381640
  0
VERTEX
  8
0
  6
CONTINUOUS
 10
6.940560
 20
5.851120
  0
VERTEX
  8
0
  6
CONTINUOUS
 10
6.891280
 20
6.070680
  0
SEQEND
  8
0
  0
SOLID
  8
0
 62
    15
 10
6.940560
 20
5.851120
 11
7.202360
 21
5.381640
 12
6.981040
 22
5.617920
 13
7.242400
 23
5.148000
  0
POLYLINE
  8
0
  6
CONTINUOUS
 66
     1
 40
0.000000
 41
0.000000
  0
VERTEX
  8
0
  6
CONTINUOUS
 10
6.940560
 20
5.851120
  0
VERTEX
  8
0
  6
CONTINUOUS
 10
7.202360
 20
5.381640
  0
VERTEX
  8
0
  6
CONTINUOUS
 10
7.242400
 20
5.148000
  0
VERTEX
  8
0
  6
CONTINUOUS
 10
6.981040
 20
5.617920
  0
VERTEX
  8
0
  6
CONTINUOUS
 10
6.940560
 20
5.851120
  0
SEQEND
  8
0
  0
SOLID
  8
0
 62
    15
 10
6.981040
 20
5.617920
 11
7.242400
 21
5.148000
 12
7.010960
 22
5.370640
 13
7.272320
 23
4.900720
  0
POLYLINE
  8
0
  6
CONTINUOUS
 66
     1
 40
0.000000
 41
0.000000
  0
VERTEX
  8
0
  6
CONTINUOUS
 10
6.981040
 20
5.617920
  0
VERTEX
  8
0
  6
CONTINUOUS
 10
7.242400
 20
5.148000
  0
VERTEX
  8
0
  6
CONTINUOUS
 10
7.272320
 20
4.900720
  0
VERTEX
  8
0
  6
CONTINUOUS
 10
7.010960
 20
5.370640
  0
VERTEX
  8
0
  6
CONTINUOUS
 10
6.981040
 20
5.617920
  0
SEQEND
  8
0
  0
SOLID
  8
0
 62
    15
 10
7.010960
 20
5.370640
 11
7.272320
 21
4.900720
 12
7.029880
 22
5.110160
 13
7.291240
 23
4.640240
  0
POLYLINE
  8
0
  6
CONTINUOUS
 66
     1
 40
0.000000
 41
0.000000
  0
VERTEX
  8
0
  6
CONTINUOUS
 10
7.010960
 20
5.370640
  0
VERTEX
  8
0
  6
CONTINUOUS
 10
7.272320
 20
4.900720
  0
VERTEX
  8
0
  6
CONTINUOUS
 10
7.291240
 20
4.640240
  0
VERTEX
  8
0
  6
CONTINUOUS
 10
7.029880
 20
5.110160
  0
VERTEX
  8
0
  6
CONTINUOUS
 10
7.010960
 20
5.370640
  0
SEQEND
  8
0
  0
SOLID
  8
0
 62
    15
 10
7.029880
 20
5.110160
 11
7.291240
 21
4.640240
 12
7.036920
 22
4.836920
 13
7.298720
 23
4.367440
  0
POLYLINE
  8
0
  6
CONTINUOUS
 66
     1
 40
0.000000
 41
0.000000
  0
VERTEX
  8
0
  6
CONTINUOUS
 10
7.029880
 20
5.110160
  0
VERTEX
  8
0
  6
CONTINUOUS
 10
7.291240
 20
4.640240
  0
VERTEX
  8
0
  6
CONTINUOUS
 10
7.298720
 20
4.367440
  0
VERTEX
  8
0
  6
CONTINUOUS
 10
7.036920
 20
4.836920
  0
VERTEX
  8
0
  6
CONTINUOUS
 10
7.029880
 20
5.110160
  0
SEQEND
  8
0
  0
SOLID
  8
0
 62
    15
 10
7.038680
 20
4.845720
 11
7.300040
 21
4.376240
 12
7.031640
 22
4.572920
 13
7.293000
 23
4.103000
  0
POLYLINE
  8
0
  6
CONTINUOUS
 66
     1
 40
0.000000
 41
0.000000
  0
VERTEX
  8
0
  6
CONTINUOUS
 10
7.038680
 20
4.845720
  0
VERTEX
  8
0
  6
CONTINUOUS
 10
7.300040
 20
4.376240
  0
VERTEX
  8
0
  6
CONTINUOUS
 10
7.293000
 20
4.103000
  0
VERTEX
  8
0
  6
CONTINUOUS
 10
7.031640
 20
4.572920
  0
VERTEX
  8
0
  6
CONTINUOUS
 10
7.038680
 20
4.845720
  0
SEQEND
  8
0
  0
SOLID
  8
0
 62
    15
 10
7.031640
 20
4.572920
 11
7.293000
 21
4.103000
 12
7.012720
 22
4.312440
 13
7.274080
 23
3.842960
  0
POLYLINE
  8
0
  6
CONTINUOUS
 66
     1
 40
0.000000
 41
0.000000
  0
VERTEX
  8
0
  6
CONTINUOUS
 10
7.031640
 20
4.572920
  0
VERTEX
  8
0
  6
CONTINUOUS
 10
7.293000
 20
4.103000
  0
VERTEX
  8
0
  6
CONTINUOUS
 10
7.274080
 20
3.842960
  0
VERTEX
  8
0
  6
CONTINUOUS
 10
7.012720
 20
4.312440
  0
VERTEX
  8
0
  6
CONTINUOUS
 10
7.031640
 20
4.572920
  0
SEQEND
  8
0
  0
SOLID
  8
0
 62
    15
 10
7.012720
 20
4.312440
 11
7.274080
 21
3.842960
 12
6.982800
 22
4.065600
 13
7.244160
 23
3.595680
  0
POLYLINE
  8
0
  6
CONTINUOUS
 66
     1
 40
0.000000
 41
0.000000
  0
VERTEX
  8
0
  6
CONTINUOUS
 10
7.012720
 20
4.312440
  0
VERTEX
  8
0
  6
CONTINUOUS
 10
7.274080
 20
3.842960
  0
VERTEX
  8
0
  6
CONTINUOUS
 10
7.244160
 20
3.595680
  0
VERTEX
  8
0
  6
CONTINUOUS
 10
6.982800
 20
4.065600
  0
VERTEX
  8
0
  6
CONTINUOUS
 10
7.012720
 20
4.312440
  0
SEQEND
  8
0
  0
SOLID
  8
0
 62
    15
 10
6.982800
 20
4.065600
 11
7.244160
 21
3.595680
 12
6.942320
 22
3.831520
 13
7.203680
 23
3.362040
  0
POLYLINE
  8
0
  6
CONTINUOUS
 66
     1
 40
0.000000
 41
0.000000
  0
VERTEX
  8
0
  6
CONTINUOUS
 10
6.982800
 20
4.065600
  0
VERTEX
  8
0
  6
CONTINUOUS
 10
7.244160
 20
3.595680
  0
VERTEX
  8
0
  6
CONTINUOUS
 10
7.203680
 20
3.362040
  0
VERTEX
  8
0
  6
CONTINUOUS
 10
6.942320
 20
3.831520
  0
VERTEX
  8
0
  6
CONTINUOUS
 10
6.982800
 20
4.065600
  0
SEQEND
  8
0
  0
SOLID
  8
0
 62
    15
 10
6.942320
 20
3.831520
 11
7.203680
 21
3.362040
 12
6.893040
 22
3.612400
 13
7.154400
 23
3.142480
  0
POLYLINE
  8
0
  6
CONTINUOUS
 66
     1
 40
0.000000
 41
0.000000
  0
VERTEX
  8
0
  6
CONTINUOUS
 10
6.942320
 20
3.831520
  0
VERTEX
  8
0
  6
CONTINUOUS
 10
7.203680
 20
3.362040
  0
VERTEX
  8
0
  6
CONTINUOUS
 10
7.154400
 20
3.142480
  0
VERTEX
  8
0
  6
CONTINUOUS
 10
6.893040
 20
3.612400
  0
VERTEX
  8
0
  6
CONTINUOUS
 10
6.942320
 20
3.831520
  0
SEQEND
  8
0
  0
SOLID
  8
0
 62
    15
 10
6.893040
 20
3.612400
 11
7.154400
 21
3.142480
 12
6.834520
 22
3.407360
 13
7.096320
 23
2.937440
  0
POLYLINE
  8
0
  6
CONTINUOUS
 66
     1
 40
0.000000
 41
0.000000
  0
VERTEX
  8
0
  6
CONTINUOUS
 10
6.893040
 20
3.612400
  0
VERTEX
  8
0
  6
CONTINUOUS
 10
7.154400
 20
3.142480
  0
VERTEX
  8
0
  6
CONTINUOUS
 10
7.096320
 20
2.937440
  0
VERTEX
  8
0
  6
CONTINUOUS
 10
6.834520
 20
3.407360
  0
VERTEX
  8
0
  6
CONTINUOUS
 10
6.893040
 20
3.612400
  0
SEQEND
  8
0
  0
SOLID
  8
0
 62
    15
 10
6.834520
 20
3.407360
 11
7.096320
 21
2.937440
 12
6.768960
 22
3.217280
 13
7.030320
 23
2.747360
  0
POLYLINE
  8
0
  6
CONTINUOUS
 66
     1
 40
0.000000
 41
0.000000
  0
VERTEX
  8
0
  6
CONTINUOUS
 10
6.834520
 20
3.407360
  0
VERTEX
  8
0
  6
CONTINUOUS
 10
7.096320
 20
2.937440
  0
VERTEX
  8
0
  6
CONTINUOUS
 10
7.030320
 20
2.747360
  0
VERTEX
  8
0
  6
CONTINUOUS
 10
6.768960
 20
3.217280
  0
VERTEX
  8
0
  6
CONTINUOUS
 10
6.834520
 20
3.407360
  0
SEQEND
  8
0
  0
SOLID
  8
0
 62
    15
 10
6.768960
 20
3.217280
 11
7.030320
 21
2.747360
 12
6.695920
 22
3.042600
 13
6.957720
 23
2.573120
  0
POLYLINE
  8
0
  6
CONTINUOUS
 66
     1
 40
0.000000
 41
0.000000
  0
VERTEX
  8
0
  6
CONTINUOUS
 10
6.768960
 20
3.217280
  0
VERTEX
  8
0
  6
CONTINUOUS
 10
7.030320
 20
2.747360
  0
VERTEX
  8
0
  6
CONTINUOUS
 10
6.957720
 20
2.573120
  0
VERTEX
  8
0
  6
CONTINUOUS
 10
6.695920
 20
3.042600
  0
VERTEX
  8
0
  6
CONTINUOUS
 10
6.768960
 20
3.217280
  0
SEQEND
  8
0
  0
SOLID
  8
0
 62
    15
 10
6.695920
 20
3.042600
 11
6.957720
 21
2.573120
 12
6.617160
 22
2.884200
 13
6.878960
 23
2.414280
  0
POLYLINE
  8
0
  6
CONTINUOUS
 66
     1
 40
0.000000
 41
0.000000
  0
VERTEX
  8
0
  6
CONTINUOUS
 10
6.695920
 20
3.042600
  0
VERTEX
  8
0
  6
CONTINUOUS
 10
6.957720
 20
2.573120
  0
VERTEX
  8
0
  6
CONTINUOUS
 10
6.878960
 20
2.414280
  0
VERTEX
  8
0
  6
CONTINUOUS
 10
6.617160
 20
2.884200
  0
VERTEX
  8
0
  6
CONTINUOUS
 10
6.695920
 20
3.042600
  0
SEQEND
  8
0
  0
SOLID
  8
0
 62
    15
 10
5.644760
 20
7.296960
 11
5.906560
 21
6.827480
 12
5.659280
 22
7.242400
 13
5.920640
 23
6.772920
  0
POLYLINE
  8
0
  6
CONTINUOUS
 66
     1
 40
0.000000
 41
0.000000
  0
VERTEX
  8
0
  6
CONTINUOUS
 10
5.644760
 20
7.296960
  0
VERTEX
  8
0
  6
CONTINUOUS
 10
5.906560
 20
6.827480
  0
VERTEX
  8
0
  6
CONTINUOUS
 10
5.920640
 20
6.772920
  0
VERTEX
  8
0
  6
CONTINUOUS
 10
5.659280
 20
7.242400
  0
VERTEX
  8
0
  6
CONTINUOUS
 10
5.644760
 20
7.296960
  0
SEQEND
  8
0
  0
SOLID
  8
0
 62
    15
 10
6.533120
 20
2.742080
 11
6.794920
 21
2.272160
 12
6.444680
 22
2.617120
 13
6.706040
 23
2.147200
  0
POLYLINE
  8
0
  6
CONTINUOUS
 66
     1
 40
0.000000
 41
0.000000
  0
VERTEX
  8
0
  6
CONTINUOUS
 10
6.533120
 20
2.742080
  0
VERTEX
  8
0
  6
CONTINUOUS
 10
6.794920
 20
2.272160
  0
VERTEX
  8
0
  6
CONTINUOUS
 10
6.706040
 20
2.147200
  0
VERTEX
  8
0
  6
CONTINUOUS
 10
6.444680
 20
2.617120
  0
VERTEX
  8
0
  6
CONTINUOUS
 10
6.533120
 20
2.742080
  0
SEQEND
  8
0
  0
SOLID
  8
0
 62
    15
 10
6.444680
 20
2.617120
 11
6.706040
 21
2.147200
 12
6.352720
 22
2.509320
 13
6.614080
 23
2.039400
  0
POLYLINE
  8
0
  6
CONTINUOUS
 66
     1
 40
0.000000
 41
0.000000
  0
VERTEX
  8
0
  6
CONTINUOUS
 10
6.444680
 20
2.617120
  0
VERTEX
  8
0
  6
CONTINUOUS
 10
6.706040
 20
2.147200
  0
VERTEX
  8
0
  6
CONTINUOUS
 10
6.614080
 20
2.039400
  0
VERTEX
  8
0
  6
CONTINUOUS
 10
6.352720
 20
2.509320
  0
VERTEX
  8
0
  6
CONTINUOUS
 10
6.444680
 20
2.617120
  0
SEQEND
  8
0
  0
SOLID
  8
0
 62
    15
 10
6.352720
 20
2.509320
 11
6.614080
 21
2.039400
 12
6.257680
 22
2.419120
 13
6.519040
 23
1.949640
  0
POLYLINE
  8
0
  6
CONTINUOUS
 66
     1
 40
0.000000
 41
0.000000
  0
VERTEX
  8
0
  6
CONTINUOUS
 10
6.352720
 20
2.509320
  0
VERTEX
  8
0
  6
CONTINUOUS
 10
6.614080
 20
2.039400
  0
VERTEX
  8
0
  6
CONTINUOUS
 10
6.519040
 20
1.949640
  0
VERTEX
  8
0
  6
CONTINUOUS
 10
6.257680
 20
2.419120
  0
VERTEX
  8
0
  6
CONTINUOUS
 10
6.352720
 20
2.509320
  0
SEQEND
  8
0
  0
SOLID
  8
0
 62
    15
 10
6.257680
 20
2.419120
 11
6.519040
 21
1.949640
 12
6.160880
 22
2.347840
 13
6.422240
 23
1.877920
  0
POLYLINE
  8
0
  6
CONTINUOUS
 66
     1
 40
0.000000
 41
0.000000
  0
VERTEX
  8
0
  6
CONTINUOUS
 10
6.257680
 20
2.419120
  0
VERTEX
  8
0
  6
CONTINUOUS
 10
6.519040
 20
1.949640
  0
VERTEX
  8
0
  6
CONTINUOUS
 10
6.422240
 20
1.877920
  0
VERTEX
  8
0
  6
CONTINUOUS
 10
6.160880
 20
2.347840
  0
VERTEX
  8
0
  6
CONTINUOUS
 10
6.257680
 20
2.419120
  0
SEQEND
  8
0
  0
SOLID
  8
0
 62
    15
 10
6.160880
 20
2.347840
 11
6.422240
 21
1.877920
 12
6.062760
 22
2.295040
 13
6.324120
 23
1.825120
  0
POLYLINE
  8
0
  6
CONTINUOUS
 66
     1
 40
0.000000
 41
0.000000
  0
VERTEX
  8
0
  6
CONTINUOUS
 10
6.160880
 20
2.347840
  0
VERTEX
  8
0
  6
CONTINUOUS
 10
6.422240
 20
1.877920
  0
VERTEX
  8
0
  6
CONTINUOUS
 10
6.324120
 20
1.825120
  0
VERTEX
  8
0
  6
CONTINUOUS
 10
6.062760
 20
2.295040
  0
VERTEX
  8
0
  6
CONTINUOUS
 10
6.160880
 20
2.347840
  0
SEQEND
  8
0
  0
SOLID
  8
0
 62
    15
 10
6.062760
 20
2.295040
 11
6.324120
 21
1.825120
 12
5.964200
 22
2.261600
 13
6.225560
 23
1.791680
  0
POLYLINE
  8
0
  6
CONTINUOUS
 66
     1
 40
0.000000
 41
0.000000
  0
VERTEX
  8
0
  6
CONTINUOUS
 10
6.062760
 20
2.295040
  0
VERTEX
  8
0
  6
CONTINUOUS
 10
6.324120
 20
1.825120
  0
VERTEX
  8
0
  6
CONTINUOUS
 10
6.225560
 20
1.791680
  0
VERTEX
  8
0
  6
CONTINUOUS
 10
5.964200
 20
2.261600
  0
VERTEX
  8
0
  6
CONTINUOUS
 10
6.062760
 20
2.295040
  0
SEQEND
  8
0
  0
SOLID
  8
0
 62
    15
 10
5.964200
 20
2.261600
 11
6.225560
 21
1.791680
 12
5.963320
 22
2.260720
 13
6.224680
 23
1.791240
  0
POLYLINE
  8
0
  6
CONTINUOUS
 66
     1
 40
0.000000
 41
0.000000
  0
VERTEX
  8
0
  6
CONTINUOUS
 10
5.964200
 20
2.261600
  0
VERTEX
  8
0
  6
CONTINUOUS
 10
6.225560
 20
1.791680
  0
VERTEX
  8
0
  6
CONTINUOUS
 10
6.224680
 20
1.791240
  0
VERTEX
  8
0
  6
CONTINUOUS
 10
5.963320
 20
2.260720
  0
VERTEX
  8
0
  6
CONTINUOUS
 10
5.964200
 20
2.261600
  0
SEQEND
  8
0
  0
SOLID
  8
0
 62
    15
 10
5.790840
 20
2.437160
 11
6.052200
 21
1.967240
 12
5.767080
 22
2.472360
 13
6.028440
 23
2.002440
  0
POLYLINE
  8
0
  6
CONTINUOUS
 66
     1
 40
0.000000
 41
0.000000
  0
VERTEX
  8
0
  6
CONTINUOUS
 10
5.790840
 20
2.437160
  0
VERTEX
  8
0
  6
CONTINUOUS
 10
6.052200
 20
1.967240
  0
VERTEX
  8
0
  6
CONTINUOUS
 10
6.028440
 20
2.002440
  0
VERTEX
  8
0
  6
CONTINUOUS
 10
5.767080
 20
2.472360
  0
VERTEX
  8
0
  6
CONTINUOUS
 10
5.790840
 20
2.437160
  0
SEQEND
  8
0
  0
SOLID
  8
0
 62
    15
 10
5.849800
 20
2.252360
 11
6.111160
 21
1.782440
 12
5.822960
 22
2.275680
 13
6.084320
 23
1.805760
  0
POLYLINE
  8
0
  6
CONTINUOUS
 66
     1
 40
0.000000
 41
0.000000
  0
VERTEX
  8
0
  6
CONTINUOUS
 10
5.849800
 20
2.252360
  0
VERTEX
  8
0
  6
CONTINUOUS
 10
6.111160
 20
1.782440
  0
VERTEX
  8
0
  6
CONTINUOUS
 10
6.084320
 20
1.805760
  0
VERTEX
  8
0
  6
CONTINUOUS
 10
5.822960
 20
2.275680
  0
VERTEX
  8
0
  6
CONTINUOUS
 10
5.849800
 20
2.252360
  0
SEQEND
  8
0
  0
SOLID
  8
0
 62
    15
 10
5.739360
 20
2.490840
 11
6.000720
 21
2.021360
 12
5.710320
 22
2.492600
 13
5.971680
 23
2.022680
  0
POLYLINE
  8
0
  6
CONTINUOUS
 66
     1
 40
0.000000
 41
0.000000
  0
VERTEX
  8
0
  6
CONTINUOUS
 10
5.739360
 20
2.490840
  0
VERTEX
  8
0
  6
CONTINUOUS
 10
6.000720
 20
2.021360
  0
VERTEX
  8
0
  6
CONTINUOUS
 10
5.971680
 20
2.022680
  0
VERTEX
  8
0
  6
CONTINUOUS
 10
5.710320
 20
2.492600
  0
VERTEX
  8
0
  6
CONTINUOUS
 10
5.739360
 20
2.490840
  0
SEQEND
  8
0
  0
SOLID
  8
0
 62
    15
 10
5.963320
 20
2.260720
 11
6.224680
 21
1.791240
 12
5.895560
 22
2.247960
 13
6.156920
 23
1.778040
  0
POLYLINE
  8
0
  6
CONTINUOUS
 66
     1
 40
0.000000
 41
0.000000
  0
VERTEX
  8
0
  6
CONTINUOUS
 10
5.963320
 20
2.260720
  0
VERTEX
  8
0
  6
CONTINUOUS
 10
6.224680
 20
1.791240
  0
VERTEX
  8
0
  6
CONTINUOUS
 10
6.156920
 20
1.778040
  0
VERTEX
  8
0
  6
CONTINUOUS
 10
5.895560
 20
2.247960
  0
VERTEX
  8
0
  6
CONTINUOUS
 10
5.963320
 20
2.260720
  0
SEQEND
  8
0
  0
SOLID
  8
0
 62
    15
 10
5.767080
 20
2.472360
 11
6.028440
 21
2.002440
 12
5.739360
 22
2.490840
 13
6.000720
 23
2.021360
  0
POLYLINE
  8
0
  6
CONTINUOUS
 66
     1
 40
0.000000
 41
0.000000
  0
VERTEX
  8
0
  6
CONTINUOUS
 10
5.767080
 20
2.472360
  0
VERTEX
  8
0
  6
CONTINUOUS
 10
6.028440
 20
2.002440
  0
VERTEX
  8
0
  6
CONTINUOUS
 10
6.000720
 20
2.021360
  0
VERTEX
  8
0
  6
CONTINUOUS
 10
5.739360
 20
2.490840
  0
VERTEX
  8
0
  6
CONTINUOUS
 10
5.767080
 20
2.472360
  0
SEQEND
  8
0
  0
SOLID
  8
0
 62
    15
 10
5.895560
 20
2.247960
 11
6.156920
 21
1.778040
 12
5.849800
 22
2.252360
 13
6.111160
 23
1.782440
  0
POLYLINE
  8
0
  6
CONTINUOUS
 66
     1
 40
0.000000
 41
0.000000
  0
VERTEX
  8
0
  6
CONTINUOUS
 10
5.895560
 20
2.247960
  0
VERTEX
  8
0
  6
CONTINUOUS
 10
6.156920
 20
1.778040
  0
VERTEX
  8
0
  6
CONTINUOUS
 10
6.111160
 20
1.782440
  0
VERTEX
  8
0
  6
CONTINUOUS
 10
5.849800
 20
2.252360
  0
VERTEX
  8
0
  6
CONTINUOUS
 10
5.895560
 20
2.247960
  0
SEQEND
  8
0
  0
SOLID
  8
0
 62
    15
 10
5.710320
 20
2.492600
 11
5.971680
 21
2.022680
 12
5.683040
 22
2.475880
 13
5.944840
 23
2.005960
  0
POLYLINE
  8
0
  6
CONTINUOUS
 66
     1
 40
0.000000
 41
0.000000
  0
VERTEX
  8
0
  6
CONTINUOUS
 10
5.710320
 20
2.492600
  0
VERTEX
  8
0
  6
CONTINUOUS
 10
5.971680
 20
2.022680
  0
VERTEX
  8
0
  6
CONTINUOUS
 10
5.944840
 20
2.005960
  0
VERTEX
  8
0
  6
CONTINUOUS
 10
5.683040
 20
2.475880
  0
VERTEX
  8
0
  6
CONTINUOUS
 10
5.710320
 20
2.492600
  0
SEQEND
  8
0
  0
SOLID
  8
0
 62
    15
 10
5.683040
 20
2.475880
 11
5.944840
 21
2.005960
 12
5.661040
 22
2.440680
 13
5.922400
 23
1.970760
  0
POLYLINE
  8
0
  6
CONTINUOUS
 66
     1
 40
0.000000
 41
0.000000
  0
VERTEX
  8
0
  6
CONTINUOUS
 10
5.683040
 20
2.475880
  0
VERTEX
  8
0
  6
CONTINUOUS
 10
5.944840
 20
2.005960
  0
VERTEX
  8
0
  6
CONTINUOUS
 10
5.922400
 20
1.970760
  0
VERTEX
  8
0
  6
CONTINUOUS
 10
5.661040
 20
2.440680
  0
VERTEX
  8
0
  6
CONTINUOUS
 10
5.683040
 20
2.475880
  0
SEQEND
  8
0
  0
SOLID
  8
0
 62
    15
 10
5.661040
 20
2.440680
 11
5.922400
 21
1.970760
 12
5.646520
 22
2.385680
 13
5.908320
 23
1.916200
  0
POLYLINE
  8
0
  6
CONTINUOUS
 66
     1
 40
0.000000
 41
0.000000
  0
VERTEX
  8
0
  6
CONTINUOUS
 10
5.661040
 20
2.440680
  0
VERTEX
  8
0
  6
CONTINUOUS
 10
5.922400
 20
1.970760
  0
VERTEX
  8
0
  6
CONTINUOUS
 10
5.908320
 20
1.916200
  0
VERTEX
  8
0
  6
CONTINUOUS
 10
5.646520
 20
2.385680
  0
VERTEX
  8
0
  6
CONTINUOUS
 10
5.661040
 20
2.440680
  0
SEQEND
  8
0
  0
SOLID
  8
0
 62
    15
 10
5.646520
 20
2.385680
 11
5.908320
 21
1.916200
 12
5.247000
 22
2.385680
 13
5.508360
 23
1.916200
  0
POLYLINE
  8
0
  6
CONTINUOUS
 66
     1
 40
0.000000
 41
0.000000
  0
VERTEX
  8
0
  6
CONTINUOUS
 10
5.646520
 20
2.385680
  0
VERTEX
  8
0
  6
CONTINUOUS
 10
5.908320
 20
1.916200
  0
VERTEX
  8
0
  6
CONTINUOUS
 10
5.508360
 20
1.916200
  0
VERTEX
  8
0
  6
CONTINUOUS
 10
5.247000
 20
2.385680
  0
VERTEX
  8
0
  6
CONTINUOUS
 10
5.646520
 20
2.385680
  0
SEQEND
  8
0
  0
SOLID
  8
0
 62
    15
 10
5.247000
 20
2.385680
 11
5.508360
 21
1.916200
 12
5.214440
 22
2.386560
 13
5.475800
 23
1.916640
  0
POLYLINE
  8
0
  6
CONTINUOUS
 66
     1
 40
0.000000
 41
0.000000
  0
VERTEX
  8
0
  6
CONTINUOUS
 10
5.247000
 20
2.385680
  0
VERTEX
  8
0
  6
CONTINUOUS
 10
5.508360
 20
1.916200
  0
VERTEX
  8
0
  6
CONTINUOUS
 10
5.475800
 20
1.916640
  0
VERTEX
  8
0
  6
CONTINUOUS
 10
5.214440
 20
2.386560
  0
VERTEX
  8
0
  6
CONTINUOUS
 10
5.247000
 20
2.385680
  0
SEQEND
  8
0
  0
POLYLINE
  8
0
  6
CONTINUOUS
 66
     1
 40
0.000000
 41
0.000000
  0
VERTEX
  8
0
  6
CONTINUOUS
 10
5.214440
 20
2.386560
  0
VERTEX
  8
0
  6
CONTINUOUS
 10
5.221040
 20
7.297400
  0
VERTEX
  8
0
  6
CONTINUOUS
 10
5.644760
 20
7.296960
  0
VERTEX
  8
0
  6
CONTINUOUS
 10
5.659280
 20
7.242400
  0
VERTEX
  8
0
  6
CONTINUOUS
 10
5.681720
 20
7.207200
  0
VERTEX
  8
0
  6
CONTINUOUS
 10
5.708560
 20
7.190480
  0
VERTEX
  8
0
  6
CONTINUOUS
 10
5.737600
 20
7.191800
  0
VERTEX
  8
0
  6
CONTINUOUS
 10
5.765320
 20
7.210720
  0
VERTEX
  8
0
  6
CONTINUOUS
 10
5.789080
 20
7.245920
  0
VERTEX
  8
0
  6
CONTINUOUS
 10
5.805360
 20
7.297400
  0
VERTEX
  8
0
  6
CONTINUOUS
 10
5.811520
 20
7.363840
  0
VERTEX
  8
0
  6
CONTINUOUS
 10
5.821200
 20
7.407400
  0
VERTEX
  8
0
  6
CONTINUOUS
 10
5.848040
 20
7.430720
  0
VERTEX
  8
0
  6
CONTINUOUS
 10
5.893800
 20
7.435120
  0
VERTEX
  8
0
  6
CONTINUOUS
 10
5.962440
 20
7.421480
  0
VERTEX
  8
0
  6
CONTINUOUS
 10
6.061000
 20
7.388040
  0
VERTEX
  8
0
  6
CONTINUOUS
 10
6.159120
 20
7.335240
  0
VERTEX
  8
0
  6
CONTINUOUS
 10
6.255920
 20
7.263960
  0
VERTEX
  8
0
  6
CONTINUOUS
 10
6.350960
 20
7.173760
  0
VERTEX
  8
0
  6
CONTINUOUS
 10
6.442920
 20
7.066400
  0
VERTEX
  8
0
  6
CONTINUOUS
 10
6.531360
 20
6.941000
  0
VERTEX
  8
0
  6
CONTINUOUS
 10
6.615840
 20
6.798880
  0
VERTEX
  8
0
  6
CONTINUOUS
 10
6.694600
 20
6.640480
  0
VERTEX
  8
0
  6
CONTINUOUS
 10
6.767200
 20
6.465800
  0
VERTEX
  8
0
  6
CONTINUOUS
 10
6.833200
 20
6.275720
  0
VERTEX
  8
0
  6
CONTINUOUS
 10
6.891280
 20
6.070680
  0
VERTEX
  8
0
  6
CONTINUOUS
 10
6.940560
 20
5.851120
  0
VERTEX
  8
0
  6
CONTINUOUS
 10
6.981040
 20
5.617920
  0
VERTEX
  8
0
  6
CONTINUOUS
 10
7.010960
 20
5.370640
  0
VERTEX
  8
0
  6
CONTINUOUS
 10
7.029880
 20
5.110160
  0
VERTEX
  8
0
  6
CONTINUOUS
 10
7.036920
 20
4.836920
  0
VERTEX
  8
0
  6
CONTINUOUS
 10
7.038680
 20
4.845720
  0
VERTEX
  8
0
  6
CONTINUOUS
 10
7.031640
 20
4.572920
  0
VERTEX
  8
0
  6
CONTINUOUS
 10
7.012720
 20
4.312440
  0
VERTEX
  8
0
  6
CONTINUOUS
 10
6.982800
 20
4.065600
  0
VERTEX
  8
0
  6
CONTINUOUS
 10
6.942320
 20
3.831520
  0
VERTEX
  8
0
  6
CONTINUOUS
 10
6.893040
 20
3.612400
  0
VERTEX
  8
0
  6
CONTINUOUS
 10
6.834520
 20
3.407360
  0
VERTEX
  8
0
  6
CONTINUOUS
 10
6.768960
 20
3.217280
  0
VERTEX
  8
0
  6
CONTINUOUS
 10
6.695920
 20
3.042600
  0
VERTEX
  8
0
  6
CONTINUOUS
 10
6.617160
 20
2.884200
  0
VERTEX
  8
0
  6
CONTINUOUS
 10
6.533120
 20
2.742080
  0
VERTEX
  8
0
  6
CONTINUOUS
 10
6.444680
 20
2.617120
  0
VERTEX
  8
0
  6
CONTINUOUS
 10
6.352720
 20
2.509320
  0
VERTEX
  8
0
  6
CONTINUOUS
 10
6.257680
 20
2.419120
  0
VERTEX
  8
0
  6
CONTINUOUS
 10
6.160880
 20
2.347840
  0
VERTEX
  8
0
  6
CONTINUOUS
 10
6.062760
 20
2.295040
  0
VERTEX
  8
0
  6
CONTINUOUS
 10
5.963320
 20
2.260720
  0
VERTEX
  8
0
  6
CONTINUOUS
 10
5.895560
 20
2.247960
  0
VERTEX
  8
0
  6
CONTINUOUS
 10
5.849800
 20
2.252360
  0
VERTEX
  8
0
  6
CONTINUOUS
 10
5.822960
 20
2.275680
  0
VERTEX
  8
0
  6
CONTINUOUS
 10
5.813280
 20
2.319240
  0
VERTEX
  8
0
  6
CONTINUOUS
 10
5.807120
 20
2.385680
  0
VERTEX
  8
0
  6
CONTINUOUS
 10
5.790840
 20
2.437160
  0
VERTEX
  8
0
  6
CONTINUOUS
 10
5.767080
 20
2.472360
  0
VERTEX
  8
0
  6
CONTINUOUS
 10
5.739360
 20
2.490840
  0
VERTEX
  8
0
  6
CONTINUOUS
 10
5.710320
 20
2.492600
  0
VERTEX
  8
0
  6
CONTINUOUS
 10
5.683040
 20
2.475880
  0
VERTEX
  8
0
  6
CONTINUOUS
 10
5.661040
 20
2.440680
  0
VERTEX
  8
0
  6
CONTINUOUS
 10
5.646520
 20
2.385680
  0
VERTEX
  8
0
  6
CONTINUOUS
 10
5.247000
 20
2.385680
  0
VERTEX
  8
0
  6
CONTINUOUS
 10
5.214440
 20
2.386560
  0
SEQEND
  8
0
  0
SOLID
  8
0
 62
    15
 10
4.100360
 20
1.828640
 11
4.451920
 21
1.211760
 12
4.034800
 22
1.859000
 13
4.386360
 23
1.242120
  0
POLYLINE
  8
0
  6
CONTINUOUS
 66
     1
 40
0.000000
 41
0.000000
  0
VERTEX
  8
0
  6
CONTINUOUS
 10
4.100360
 20
1.828640
  0
VERTEX
  8
0
  6
CONTINUOUS
 10
4.451920
 20
1.211760
  0
VERTEX
  8
0
  6
CONTINUOUS
 10
4.386360
 20
1.242120
  0
VERTEX
  8
0
  6
CONTINUOUS
 10
4.034800
 20
1.859000
  0
VERTEX
  8
0
  6
CONTINUOUS
 10
4.100360
 20
1.828640
  0
SEQEND
  8
0
  0
SOLID
  8
0
 62
    15
 10
5.569080
 20
2.293720
 11
5.920640
 21
1.676840
 12
5.562480
 22
2.205280
 13
5.914040
 23
1.588400
  0
POLYLINE
  8
0
  6
CONTINUOUS
 66
     1
 40
0.000000
 41
0.000000
  0
VERTEX
  8
0
  6
CONTINUOUS
 10
5.569080
 20
2.293720
  0
VERTEX
  8
0
  6
CONTINUOUS
 10
5.920640
 20
1.676840
  0
VERTEX
  8
0
  6
CONTINUOUS
 10
5.914040
 20
1.588400
  0
VERTEX
  8
0
  6
CONTINUOUS
 10
5.562480
 20
2.205280
  0
VERTEX
  8
0
  6
CONTINUOUS
 10
5.569080
 20
2.293720
  0
SEQEND
  8
0
  0
SOLID
  8
0
 62
    15
 10
5.562480
 20
2.205280
 11
5.914040
 21
1.588400
 12
5.534760
 22
2.040720
 13
5.885880
 23
1.423840
  0
POLYLINE
  8
0
  6
CONTINUOUS
 66
     1
 40
0.000000
 41
0.000000
  0
VERTEX
  8
0
  6
CONTINUOUS
 10
5.562480
 20
2.205280
  0
VERTEX
  8
0
  6
CONTINUOUS
 10
5.914040
 20
1.588400
  0
VERTEX
  8
0
  6
CONTINUOUS
 10
5.885880
 20
1.423840
  0
VERTEX
  8
0
  6
CONTINUOUS
 10
5.534760
 20
2.040720
  0
VERTEX
  8
0
  6
CONTINUOUS
 10
5.562480
 20
2.205280
  0
SEQEND
  8
0
  0
SOLID
  8
0
 62
    15
 10
5.534760
 20
2.040720
 11
5.885880
 21
1.423840
 12
5.489440
 22
1.893320
 13
5.840560
 23
1.276440
  0
POLYLINE
  8
0
  6
CONTINUOUS
 66
     1
 40
0.000000
 41
0.000000
  0
VERTEX
  8
0
  6
CONTINUOUS
 10
5.534760
 20
2.040720
  0
VERTEX
  8
0
  6
CONTINUOUS
 10
5.885880
 20
1.423840
  0
VERTEX
  8
0
  6
CONTINUOUS
 10
5.840560
 20
1.276440
  0
VERTEX
  8
0
  6
CONTINUOUS
 10
5.489440
 20
1.893320
  0
VERTEX
  8
0
  6
CONTINUOUS
 10
5.534760
 20
2.040720
  0
SEQEND
  8
0
  0
SOLID
  8
0
 62
    15
 10
5.489440
 20
1.893320
 11
5.840560
 21
1.276440
 12
5.429160
 22
1.763520
 13
5.780280
 23
1.146640
  0
POLYLINE
  8
0
  6
CONTINUOUS
 66
     1
 40
0.000000
 41
0.000000
  0
VERTEX
  8
0
  6
CONTINUOUS
 10
5.489440
 20
1.893320
  0
VERTEX
  8
0
  6
CONTINUOUS
 10
5.840560
 20
1.276440
  0
VERTEX
  8
0
  6
CONTINUOUS
 10
5.780280
 20
1.146640
  0
VERTEX
  8
0
  6
CONTINUOUS
 10
5.429160
 20
1.763520
  0
VERTEX
  8
0
  6
CONTINUOUS
 10
5.489440
 20
1.893320
  0
SEQEND
  8
0
  0
SOLID
  8
0
 62
    15
 10
5.429160
 20
1.763520
 11
5.780280
 21
1.146640
 12
5.357000
 22
1.652200
 13
5.708120
 23
1.034880
  0
POLYLINE
  8
0
  6
CONTINUOUS
 66
     1
 40
0.000000
 41
0.000000
  0
VERTEX
  8
0
  6
CONTINUOUS
 10
5.429160
 20
1.763520
  0
VERTEX
  8
0
  6
CONTINUOUS
 10
5.780280
 20
1.146640
  0
VERTEX
  8
0
  6
CONTINUOUS
 10
5.708120
 20
1.034880
  0
VERTEX
  8
0
  6
CONTINUOUS
 10
5.357000
 20
1.652200
  0
VERTEX
  8
0
  6
CONTINUOUS
 10
5.429160
 20
1.763520
  0
SEQEND
  8
0
  0
SOLID
  8
0
 62
    15
 10
5.357000
 20
1.652200
 11
5.708120
 21
1.034880
 12
5.275600
 22
1.558920
 13
5.626720
 23
0.942040
  0
POLYLINE
  8
0
  6
CONTINUOUS
 66
     1
 40
0.000000
 41
0.000000
  0
VERTEX
  8
0
  6
CONTINUOUS
 10
5.357000
 20
1.652200
  0
VERTEX
  8
0
  6
CONTINUOUS
 10
5.708120
 20
1.034880
  0
VERTEX
  8
0
  6
CONTINUOUS
 10
5.626720
 20
0.942040
  0
VERTEX
  8
0
  6
CONTINUOUS
 10
5.275600
 20
1.558920
  0
VERTEX
  8
0
  6
CONTINUOUS
 10
5.357000
 20
1.652200
  0
SEQEND
  8
0
  0
SOLID
  8
0
 62
    15
 10
5.275600
 20
1.558920
 11
5.626720
 21
0.942040
 12
5.188040
 22
1.485440
 13
5.539160
 23
0.868560
  0
POLYLINE
  8
0
  6
CONTINUOUS
 66
     1
 40
0.000000
 41
0.000000
  0
VERTEX
  8
0
  6
CONTINUOUS
 10
5.275600
 20
1.558920
  0
VERTEX
  8
0
  6
CONTINUOUS
 10
5.626720
 20
0.942040
  0
VERTEX
  8
0
  6
CONTINUOUS
 10
5.539160
 20
0.868560
  0
VERTEX
  8
0
  6
CONTINUOUS
 10
5.188040
 20
1.485440
  0
VERTEX
  8
0
  6
CONTINUOUS
 10
5.275600
 20
1.558920
  0
SEQEND
  8
0
  0
SOLID
  8
0
 62
    15
 10
5.188040
 20
1.485440
 11
5.539160
 21
0.868560
 12
5.096960
 22
1.431760
 13
5.448080
 23
0.814880
  0
POLYLINE
  8
0
  6
CONTINUOUS
 66
     1
 40
0.000000
 41
0.000000
  0
VERTEX
  8
0
  6
CONTINUOUS
 10
5.188040
 20
1.485440
  0
VERTEX
  8
0
  6
CONTINUOUS
 10
5.539160
 20
0.868560
  0
VERTEX
  8
0
  6
CONTINUOUS
 10
5.448080
 20
0.814880
  0
VERTEX
  8
0
  6
CONTINUOUS
 10
5.096960
 20
1.431760
  0
VERTEX
  8
0
  6
CONTINUOUS
 10
5.188040
 20
1.485440
  0
SEQEND
  8
0
  0
SOLID
  8
0
 62
    15
 10
5.096960
 20
1.431760
 11
5.448080
 21
0.814880
 12
5.005000
 22
1.398760
 13
5.356120
 23
0.781880
  0
POLYLINE
  8
0
  6
CONTINUOUS
 66
     1
 40
0.000000
 41
0.000000
  0
VERTEX
  8
0
  6
CONTINUOUS
 10
5.096960
 20
1.431760
  0
VERTEX
  8
0
  6
CONTINUOUS
 10
5.448080
 20
0.814880
  0
VERTEX
  8
0
  6
CONTINUOUS
 10
5.356120
 20
0.781880
  0
VERTEX
  8
0
  6
CONTINUOUS
 10
5.005000
 20
1.398760
  0
VERTEX
  8
0
  6
CONTINUOUS
 10
5.096960
 20
1.431760
  0
SEQEND
  8
0
  0
SOLID
  8
0
 62
    15
 10
5.005000
 20
1.398760
 11
5.356120
 21
0.781880
 12
4.915240
 22
1.386440
 13
5.266360
 23
0.769560
  0
POLYLINE
  8
0
  6
CONTINUOUS
 66
     1
 40
0.000000
 41
0.000000
  0
VERTEX
  8
0
  6
CONTINUOUS
 10
5.005000
 20
1.398760
  0
VERTEX
  8
0
  6
CONTINUOUS
 10
5.356120
 20
0.781880
  0
VERTEX
  8
0
  6
CONTINUOUS
 10
5.266360
 20
0.769560
  0
VERTEX
  8
0
  6
CONTINUOUS
 10
4.915240
 20
1.386440
  0
VERTEX
  8
0
  6
CONTINUOUS
 10
5.005000
 20
1.398760
  0
SEQEND
  8
0
  0
SOLID
  8
0
 62
    15
 10
4.915240
 20
1.386440
 11
5.266360
 21
0.769560
 12
4.830760
 22
1.396120
 13
5.181880
 23
0.779240
  0
POLYLINE
  8
0
  6
CONTINUOUS
 66
     1
 40
0.000000
 41
0.000000
  0
VERTEX
  8
0
  6
CONTINUOUS
 10
4.915240
 20
1.386440
  0
VERTEX
  8
0
  6
CONTINUOUS
 10
5.266360
 20
0.769560
  0
VERTEX
  8
0
  6
CONTINUOUS
 10
5.181880
 20
0.779240
  0
VERTEX
  8
0
  6
CONTINUOUS
 10
4.830760
 20
1.396120
  0
VERTEX
  8
0
  6
CONTINUOUS
 10
4.915240
 20
1.386440
  0
SEQEND
  8
0
  0
SOLID
  8
0
 62
    15
 10
4.577760
 20
1.789480
 11
4.929320
 21
1.172600
 12
4.530240
 22
1.709400
 13
4.881360
 23
1.092520
  0
POLYLINE
  8
0
  6
CONTINUOUS
 66
     1
 40
0.000000
 41
0.000000
  0
VERTEX
  8
0
  6
CONTINUOUS
 10
4.577760
 20
1.789480
  0
VERTEX
  8
0
  6
CONTINUOUS
 10
4.929320
 20
1.172600
  0
VERTEX
  8
0
  6
CONTINUOUS
 10
4.881360
 20
1.092520
  0
VERTEX
  8
0
  6
CONTINUOUS
 10
4.530240
 20
1.709400
  0
VERTEX
  8
0
  6
CONTINUOUS
 10
4.577760
 20
1.789480
  0
SEQEND
  8
0
  0
SOLID
  8
0
 62
    15
 10
4.753320
 20
1.427800
 11
5.104440
 21
0.810920
 12
4.718560
 22
1.452440
 13
5.069680
 23
0.835560
  0
POLYLINE
  8
0
  6
CONTINUOUS
 66
     1
 40
0.000000
 41
0.000000
  0
VERTEX
  8
0
  6
CONTINUOUS
 10
4.753320
 20
1.427800
  0
VERTEX
  8
0
  6
CONTINUOUS
 10
5.104440
 20
0.810920
  0
VERTEX
  8
0
  6
CONTINUOUS
 10
5.069680
 20
0.835560
  0
VERTEX
  8
0
  6
CONTINUOUS
 10
4.718560
 20
1.452440
  0
VERTEX
  8
0
  6
CONTINUOUS
 10
4.753320
 20
1.427800
  0
SEQEND
  8
0
  0
SOLID
  8
0
 62
    15
 10
4.718560
 20
1.452440
 11
5.069680
 21
0.835560
 12
4.686880
 22
1.482800
 13
5.038000
 23
0.865920
  0
POLYLINE
  8
0
  6
CONTINUOUS
 66
     1
 40
0.000000
 41
0.000000
  0
VERTEX
  8
0
  6
CONTINUOUS
 10
4.718560
 20
1.452440
  0
VERTEX
  8
0
  6
CONTINUOUS
 10
5.069680
 20
0.835560
  0
VERTEX
  8
0
  6
CONTINUOUS
 10
5.038000
 20
0.865920
  0
VERTEX
  8
0
  6
CONTINUOUS
 10
4.686880
 20
1.482800
  0
VERTEX
  8
0
  6
CONTINUOUS
 10
4.718560
 20
1.452440
  0
SEQEND
  8
0
  0
SOLID
  8
0
 62
    15
 10
4.686880
 20
1.482800
 11
5.038000
 21
0.865920
 12
4.658280
 22
1.518880
 13
5.009400
 23
0.902000
  0
POLYLINE
  8
0
  6
CONTINUOUS
 66
     1
 40
0.000000
 41
0.000000
  0
VERTEX
  8
0
  6
CONTINUOUS
 10
4.686880
 20
1.482800
  0
VERTEX
  8
0
  6
CONTINUOUS
 10
5.038000
 20
0.865920
  0
VERTEX
  8
0
  6
CONTINUOUS
 10
5.009400
 20
0.902000
  0
VERTEX
  8
0
  6
CONTINUOUS
 10
4.658280
 20
1.518880
  0
VERTEX
  8
0
  6
CONTINUOUS
 10
4.686880
 20
1.482800
  0
SEQEND
  8
0
  0
SOLID
  8
0
 62
    15
 10
4.658280
 20
1.518880
 11
5.009400
 21
0.902000
 12
4.633640
 22
1.560680
 13
4.984760
 23
0.943800
  0
POLYLINE
  8
0
  6
CONTINUOUS
 66
     1
 40
0.000000
 41
0.000000
  0
VERTEX
  8
0
  6
CONTINUOUS
 10
4.658280
 20
1.518880
  0
VERTEX
  8
0
  6
CONTINUOUS
 10
5.009400
 20
0.902000
  0
VERTEX
  8
0
  6
CONTINUOUS
 10
4.984760
 20
0.943800
  0
VERTEX
  8
0
  6
CONTINUOUS
 10
4.633640
 20
1.560680
  0
VERTEX
  8
0
  6
CONTINUOUS
 10
4.658280
 20
1.518880
  0
SEQEND
  8
0
  0
SOLID
  8
0
 62
    15
 10
4.830760
 20
1.396120
 11
5.181880
 21
0.779240
 12
4.753320
 22
1.427800
 13
5.104440
 23
0.810920
  0
POLYLINE
  8
0
  6
CONTINUOUS
 66
     1
 40
0.000000
 41
0.000000
  0
VERTEX
  8
0
  6
CONTINUOUS
 10
4.830760
 20
1.396120
  0
VERTEX
  8
0
  6
CONTINUOUS
 10
5.181880
 20
0.779240
  0
VERTEX
  8
0
  6
CONTINUOUS
 10
5.104440
 20
0.810920
  0
VERTEX
  8
0
  6
CONTINUOUS
 10
4.753320
 20
1.427800
  0
VERTEX
  8
0
  6
CONTINUOUS
 10
4.830760
 20
1.396120
  0
SEQEND
  8
0
  0
SOLID
  8
0
 62
    15
 10
4.530240
 20
1.709400
 11
4.881360
 21
1.092520
 12
4.487120
 22
1.649120
 13
4.838240
 23
1.032240
  0
POLYLINE
  8
0
  6
CONTINUOUS
 66
     1
 40
0.000000
 41
0.000000
  0
VERTEX
  8
0
  6
CONTINUOUS
 10
4.530240
 20
1.709400
  0
VERTEX
  8
0
  6
CONTINUOUS
 10
4.881360
 20
1.092520
  0
VERTEX
  8
0
  6
CONTINUOUS
 10
4.838240
 20
1.032240
  0
VERTEX
  8
0
  6
CONTINUOUS
 10
4.487120
 20
1.649120
  0
VERTEX
  8
0
  6
CONTINUOUS
 10
4.530240
 20
1.709400
  0
SEQEND
  8
0
  0
SOLID
  8
0
 62
    15
 10
4.487120
 20
1.649120
 11
4.838240
 21
1.032240
 12
4.448400
 22
1.606000
 13
4.799520
 23
0.989120
  0
POLYLINE
  8
0
  6
CONTINUOUS
 66
     1
 40
0.000000
 41
0.000000
  0
VERTEX
  8
0
  6
CONTINUOUS
 10
4.487120
 20
1.649120
  0
VERTEX
  8
0
  6
CONTINUOUS
 10
4.838240
 20
1.032240
  0
VERTEX
  8
0
  6
CONTINUOUS
 10
4.799520
 20
0.989120
  0
VERTEX
  8
0
  6
CONTINUOUS
 10
4.448400
 20
1.606000
  0
VERTEX
  8
0
  6
CONTINUOUS
 10
4.487120
 20
1.649120
  0
SEQEND
  8
0
  0
SOLID
  8
0
 62
    15
 10
4.448400
 20
1.606000
 11
4.799520
 21
0.989120
 12
4.413200
 22
1.577840
 13
4.764320
 23
0.960960
  0
POLYLINE
  8
0
  6
CONTINUOUS
 66
     1
 40
0.000000
 41
0.000000
  0
VERTEX
  8
0
  6
CONTINUOUS
 10
4.448400
 20
1.606000
  0
VERTEX
  8
0
  6
CONTINUOUS
 10
4.799520
 20
0.989120
  0
VERTEX
  8
0
  6
CONTINUOUS
 10
4.764320
 20
0.960960
  0
VERTEX
  8
0
  6
CONTINUOUS
 10
4.413200
 20
1.577840
  0
VERTEX
  8
0
  6
CONTINUOUS
 10
4.448400
 20
1.606000
  0
SEQEND
  8
0
  0
SOLID
  8
0
 62
    15
 10
4.413200
 20
1.577840
 11
4.764320
 21
0.960960
 12
4.381520
 22
1.562440
 13
4.732640
 23
0.945560
  0
POLYLINE
  8
0
  6
CONTINUOUS
 66
     1
 40
0.000000
 41
0.000000
  0
VERTEX
  8
0
  6
CONTINUOUS
 10
4.413200
 20
1.577840
  0
VERTEX
  8
0
  6
CONTINUOUS
 10
4.764320
 20
0.960960
  0
VERTEX
  8
0
  6
CONTINUOUS
 10
4.732640
 20
0.945560
  0
VERTEX
  8
0
  6
CONTINUOUS
 10
4.381520
 20
1.562440
  0
VERTEX
  8
0
  6
CONTINUOUS
 10
4.413200
 20
1.577840
  0
SEQEND
  8
0
  0
SOLID
  8
0
 62
    15
 10
4.381520
 20
1.562440
 11
4.732640
 21
0.945560
 12
4.352040
 22
1.557600
 13
4.703160
 23
0.940720
  0
POLYLINE
  8
0
  6
CONTINUOUS
 66
     1
 40
0.000000
 41
0.000000
  0
VERTEX
  8
0
  6
CONTINUOUS
 10
4.381520
 20
1.562440
  0
VERTEX
  8
0
  6
CONTINUOUS
 10
4.732640
 20
0.945560
  0
VERTEX
  8
0
  6
CONTINUOUS
 10
4.703160
 20
0.940720
  0
VERTEX
  8
0
  6
CONTINUOUS
 10
4.352040
 20
1.557600
  0
VERTEX
  8
0
  6
CONTINUOUS
 10
4.381520
 20
1.562440
  0
SEQEND
  8
0
  0
SOLID
  8
0
 62
    15
 10
4.284720
 20
1.653520
 11
4.635840
 21
1.036640
 12
4.254800
 22
1.700600
 13
4.605920
 23
1.083280
  0
POLYLINE
  8
0
  6
CONTINUOUS
 66
     1
 40
0.000000
 41
0.000000
  0
VERTEX
  8
0
  6
CONTINUOUS
 10
4.284720
 20
1.653520
  0
VERTEX
  8
0
  6
CONTINUOUS
 10
4.635840
 20
1.036640
  0
VERTEX
  8
0
  6
CONTINUOUS
 10
4.605920
 20
1.083280
  0
VERTEX
  8
0
  6
CONTINUOUS
 10
4.254800
 20
1.700600
  0
VERTEX
  8
0
  6
CONTINUOUS
 10
4.284720
 20
1.653520
  0
SEQEND
  8
0
  0
SOLID
  8
0
 62
    15
 10
4.254800
 20
1.700600
 11
4.605920
 21
1.083280
 12
4.212560
 22
1.746800
 13
4.564120
 23
1.129920
  0
POLYLINE
  8
0
  6
CONTINUOUS
 66
     1
 40
0.000000
 41
0.000000
  0
VERTEX
  8
0
  6
CONTINUOUS
 10
4.254800
 20
1.700600
  0
VERTEX
  8
0
  6
CONTINUOUS
 10
4.605920
 20
1.083280
  0
VERTEX
  8
0
  6
CONTINUOUS
 10
4.564120
 20
1.129920
  0
VERTEX
  8
0
  6
CONTINUOUS
 10
4.212560
 20
1.746800
  0
VERTEX
  8
0
  6
CONTINUOUS
 10
4.254800
 20
1.700600
  0
SEQEND
  8
0
  0
SOLID
  8
0
 62
    15
 10
4.212560
 20
1.746800
 11
4.564120
 21
1.129920
 12
4.160640
 22
1.790800
 13
4.511760
 23
1.173920
  0
POLYLINE
  8
0
  6
CONTINUOUS
 66
     1
 40
0.000000
 41
0.000000
  0
VERTEX
  8
0
  6
CONTINUOUS
 10
4.212560
 20
1.746800
  0
VERTEX
  8
0
  6
CONTINUOUS
 10
4.564120
 20
1.129920
  0
VERTEX
  8
0
  6
CONTINUOUS
 10
4.511760
 20
1.173920
  0
VERTEX
  8
0
  6
CONTINUOUS
 10
4.160640
 20
1.790800
  0
VERTEX
  8
0
  6
CONTINUOUS
 10
4.212560
 20
1.746800
  0
SEQEND
  8
0
  0
SOLID
  8
0
 62
    15
 10
4.352040
 20
1.557600
 11
4.703160
 21
0.940720
 12
4.298360
 22
1.569920
 13
4.649480
 23
0.953040
  0
POLYLINE
  8
0
  6
CONTINUOUS
 66
     1
 40
0.000000
 41
0.000000
  0
VERTEX
  8
0
  6
CONTINUOUS
 10
4.352040
 20
1.557600
  0
VERTEX
  8
0
  6
CONTINUOUS
 10
4.703160
 20
0.940720
  0
VERTEX
  8
0
  6
CONTINUOUS
 10
4.649480
 20
0.953040
  0
VERTEX
  8
0
  6
CONTINUOUS
 10
4.298360
 20
1.569920
  0
VERTEX
  8
0
  6
CONTINUOUS
 10
4.352040
 20
1.557600
  0
SEQEND
  8
0
  0
SOLID
  8
0
 62
    15
 10
4.160640
 20
1.790800
 11
4.511760
 21
1.173920
 12
4.100360
 22
1.828640
 13
4.451920
 23
1.211760
  0
POLYLINE
  8
0
  6
CONTINUOUS
 66
     1
 40
0.000000
 41
0.000000
  0
VERTEX
  8
0
  6
CONTINUOUS
 10
4.160640
 20
1.790800
  0
VERTEX
  8
0
  6
CONTINUOUS
 10
4.511760
 20
1.173920
  0
VERTEX
  8
0
  6
CONTINUOUS
 10
4.451920
 20
1.211760
  0
VERTEX
  8
0
  6
CONTINUOUS
 10
4.100360
 20
1.828640
  0
VERTEX
  8
0
  6
CONTINUOUS
 10
4.160640
 20
1.790800
  0
SEQEND
  8
0
  0
SOLID
  8
0
 62
    15
 10
5.570400
 20
2.386120
 11
5.921520
 21
1.769240
 12
5.569080
 22
2.293720
 13
5.920640
 23
1.676840
  0
POLYLINE
  8
0
  6
CONTINUOUS
 66
     1
 40
0.000000
 41
0.000000
  0
VERTEX
  8
0
  6
CONTINUOUS
 10
5.570400
 20
2.386120
  0
VERTEX
  8
0
  6
CONTINUOUS
 10
5.921520
 20
1.769240
  0
VERTEX
  8
0
  6
CONTINUOUS
 10
5.920640
 20
1.676840
  0
VERTEX
  8
0
  6
CONTINUOUS
 10
5.569080
 20
2.293720
  0
VERTEX
  8
0
  6
CONTINUOUS
 10
5.570400
 20
2.386120
  0
SEQEND
  8
0
  0
SOLID
  8
0
 62
    15
 10
4.034800
 20
1.859000
 11
4.386360
 21
1.242120
 12
3.966160
 22
1.877920
 13
4.317280
 23
1.261040
  0
POLYLINE
  8
0
  6
CONTINUOUS
 66
     1
 40
0.000000
 41
0.000000
  0
VERTEX
  8
0
  6
CONTINUOUS
 10
4.034800
 20
1.859000
  0
VERTEX
  8
0
  6
CONTINUOUS
 10
4.386360
 20
1.242120
  0
VERTEX
  8
0
  6
CONTINUOUS
 10
4.317280
 20
1.261040
  0
VERTEX
  8
0
  6
CONTINUOUS
 10
3.966160
 20
1.877920
  0
VERTEX
  8
0
  6
CONTINUOUS
 10
4.034800
 20
1.859000
  0
SEQEND
  8
0
  0
SOLID
  8
0
 62
    15
 10
3.966160
 20
1.877920
 11
4.317280
 21
1.261040
 12
3.895760
 22
1.883640
 13
4.246880
 23
1.266760
  0
POLYLINE
  8
0
  6
CONTINUOUS
 66
     1
 40
0.000000
 41
0.000000
  0
VERTEX
  8
0
  6
CONTINUOUS
 10
3.966160
 20
1.877920
  0
VERTEX
  8
0
  6
CONTINUOUS
 10
4.317280
 20
1.261040
  0
VERTEX
  8
0
  6
CONTINUOUS
 10
4.246880
 20
1.266760
  0
VERTEX
  8
0
  6
CONTINUOUS
 10
3.895760
 20
1.883640
  0
VERTEX
  8
0
  6
CONTINUOUS
 10
3.966160
 20
1.877920
  0
SEQEND
  8
0
  0
SOLID
  8
0
 62
    15
 10
3.895760
 20
1.883640
 11
4.246880
 21
1.266760
 12
3.827120
 22
1.873080
 13
4.178240
 23
1.256200
  0
POLYLINE
  8
0
  6
CONTINUOUS
 66
     1
 40
0.000000
 41
0.000000
  0
VERTEX
  8
0
  6
CONTINUOUS
 10
3.895760
 20
1.883640
  0
VERTEX
  8
0
  6
CONTINUOUS
 10
4.246880
 20
1.266760
  0
VERTEX
  8
0
  6
CONTINUOUS
 10
4.178240
 20
1.256200
  0
VERTEX
  8
0
  6
CONTINUOUS
 10
3.827120
 20
1.873080
  0
VERTEX
  8
0
  6
CONTINUOUS
 10
3.895760
 20
1.883640
  0
SEQEND
  8
0
  0
SOLID
  8
0
 62
    15
 10
3.827120
 20
1.873080
 11
4.178240
 21
1.256200
 12
3.761120
 22
1.844040
 13
4.112680
 23
1.227160
  0
POLYLINE
  8
0
  6
CONTINUOUS
 66
     1
 40
0.000000
 41
0.000000
  0
VERTEX
  8
0
  6
CONTINUOUS
 10
3.827120
 20
1.873080
  0
VERTEX
  8
0
  6
CONTINUOUS
 10
4.178240
 20
1.256200
  0
VERTEX
  8
0
  6
CONTINUOUS
 10
4.112680
 20
1.227160
  0
VERTEX
  8
0
  6
CONTINUOUS
 10
3.761120
 20
1.844040
  0
VERTEX
  8
0
  6
CONTINUOUS
 10
3.827120
 20
1.873080
  0
SEQEND
  8
0
  0
SOLID
  8
0
 62
    15
 10
3.761120
 20
1.844040
 11
4.112680
 21
1.227160
 12
3.701280
 22
1.793000
 13
4.052400
 23
1.176120
  0
POLYLINE
  8
0
  6
CONTINUOUS
 66
     1
 40
0.000000
 41
0.000000
  0
VERTEX
  8
0
  6
CONTINUOUS
 10
3.761120
 20
1.844040
  0
VERTEX
  8
0
  6
CONTINUOUS
 10
4.112680
 20
1.227160
  0
VERTEX
  8
0
  6
CONTINUOUS
 10
4.052400
 20
1.176120
  0
VERTEX
  8
0
  6
CONTINUOUS
 10
3.701280
 20
1.793000
  0
VERTEX
  8
0
  6
CONTINUOUS
 10
3.761120
 20
1.844040
  0
SEQEND
  8
0
  0
SOLID
  8
0
 62
    15
 10
3.701280
 20
1.793000
 11
4.052400
 21
1.176120
 12
3.674000
 22
1.759120
 13
4.025560
 23
1.141800
  0
POLYLINE
  8
0
  6
CONTINUOUS
 66
     1
 40
0.000000
 41
0.000000
  0
VERTEX
  8
0
  6
CONTINUOUS
 10
3.701280
 20
1.793000
  0
VERTEX
  8
0
  6
CONTINUOUS
 10
4.052400
 20
1.176120
  0
VERTEX
  8
0
  6
CONTINUOUS
 10
4.025560
 20
1.141800
  0
VERTEX
  8
0
  6
CONTINUOUS
 10
3.674000
 20
1.759120
  0
VERTEX
  8
0
  6
CONTINUOUS
 10
3.701280
 20
1.793000
  0
SEQEND
  8
0
  0
SOLID
  8
0
 62
    15
 10
3.674000
 20
1.759120
 11
4.025560
 21
1.141800
 12
3.649360
 22
1.718200
 13
4.000480
 23
1.101320
  0
POLYLINE
  8
0
  6
CONTINUOUS
 66
     1
 40
0.000000
 41
0.000000
  0
VERTEX
  8
0
  6
CONTINUOUS
 10
3.674000
 20
1.759120
  0
VERTEX
  8
0
  6
CONTINUOUS
 10
4.025560
 20
1.141800
  0
VERTEX
  8
0
  6
CONTINUOUS
 10
4.000480
 20
1.101320
  0
VERTEX
  8
0
  6
CONTINUOUS
 10
3.649360
 20
1.718200
  0
VERTEX
  8
0
  6
CONTINUOUS
 10
3.674000
 20
1.759120
  0
SEQEND
  8
0
  0
SOLID
  8
0
 62
    15
 10
3.649360
 20
1.718200
 11
4.000480
 21
1.101320
 12
3.626920
 22
1.671120
 13
3.978040
 23
1.054240
  0
POLYLINE
  8
0
  6
CONTINUOUS
 66
     1
 40
0.000000
 41
0.000000
  0
VERTEX
  8
0
  6
CONTINUOUS
 10
3.649360
 20
1.718200
  0
VERTEX
  8
0
  6
CONTINUOUS
 10
4.000480
 20
1.101320
  0
VERTEX
  8
0
  6
CONTINUOUS
 10
3.978040
 20
1.054240
  0
VERTEX
  8
0
  6
CONTINUOUS
 10
3.626920
 20
1.671120
  0
VERTEX
  8
0
  6
CONTINUOUS
 10
3.649360
 20
1.718200
  0
SEQEND
  8
0
  0
SOLID
  8
0
 62
    15
 10
3.626920
 20
1.671120
 11
3.978040
 21
1.054240
 12
3.607120
 22
1.616560
 13
3.958240
 23
0.999680
  0
POLYLINE
  8
0
  6
CONTINUOUS
 66
     1
 40
0.000000
 41
0.000000
  0
VERTEX
  8
0
  6
CONTINUOUS
 10
3.626920
 20
1.671120
  0
VERTEX
  8
0
  6
CONTINUOUS
 10
3.978040
 20
1.054240
  0
VERTEX
  8
0
  6
CONTINUOUS
 10
3.958240
 20
0.999680
  0
VERTEX
  8
0
  6
CONTINUOUS
 10
3.607120
 20
1.616560
  0
VERTEX
  8
0
  6
CONTINUOUS
 10
3.626920
 20
1.671120
  0
SEQEND
  8
0
  0
SOLID
  8
0
 62
    15
 10
3.607120
 20
1.616560
 11
3.958240
 21
0.999680
 12
3.590400
 22
1.554960
 13
3.941960
 23
0.938080
  0
POLYLINE
  8
0
  6
CONTINUOUS
 66
     1
 40
0.000000
 41
0.000000
  0
VERTEX
  8
0
  6
CONTINUOUS
 10
3.607120
 20
1.616560
  0
VERTEX
  8
0
  6
CONTINUOUS
 10
3.958240
 20
0.999680
  0
VERTEX
  8
0
  6
CONTINUOUS
 10
3.941960
 20
0.938080
  0
VERTEX
  8
0
  6
CONTINUOUS
 10
3.590400
 20
1.554960
  0
VERTEX
  8
0
  6
CONTINUOUS
 10
3.607120
 20
1.616560
  0
SEQEND
  8
0
  0
SOLID
  8
0
 62
    15
 10
3.590400
 20
1.554960
 11
3.941960
 21
0.938080
 12
3.577200
 22
1.485440
 13
3.928760
 23
0.868560
  0
POLYLINE
  8
0
  6
CONTINUOUS
 66
     1
 40
0.000000
 41
0.000000
  0
VERTEX
  8
0
  6
CONTINUOUS
 10
3.590400
 20
1.554960
  0
VERTEX
  8
0
  6
CONTINUOUS
 10
3.941960
 20
0.938080
  0
VERTEX
  8
0
  6
CONTINUOUS
 10
3.928760
 20
0.868560
  0
VERTEX
  8
0
  6
CONTINUOUS
 10
3.577200
 20
1.485440
  0
VERTEX
  8
0
  6
CONTINUOUS
 10
3.590400
 20
1.554960
  0
SEQEND
  8
0
  0
SOLID
  8
0
 62
    15
 10
3.577200
 20
1.485440
 11
3.928760
 21
0.868560
 12
3.567960
 22
1.408000
 13
3.919080
 23
0.791120
  0
POLYLINE
  8
0
  6
CONTINUOUS
 66
     1
 40
0.000000
 41
0.000000
  0
VERTEX
  8
0
  6
CONTINUOUS
 10
3.577200
 20
1.485440
  0
VERTEX
  8
0
  6
CONTINUOUS
 10
3.928760
 20
0.868560
  0
VERTEX
  8
0
  6
CONTINUOUS
 10
3.919080
 20
0.791120
  0
VERTEX
  8
0
  6
CONTINUOUS
 10
3.567960
 20
1.408000
  0
VERTEX
  8
0
  6
CONTINUOUS
 10
3.577200
 20
1.485440
  0
SEQEND
  8
0
  0
SOLID
  8
0
 62
    15
 10
3.567960
 20
1.408000
 11
3.919080
 21
0.791120
 12
3.562240
 22
1.322200
 13
3.913360
 23
0.705320
  0
POLYLINE
  8
0
  6
CONTINUOUS
 66
     1
 40
0.000000
 41
0.000000
  0
VERTEX
  8
0
  6
CONTINUOUS
 10
3.567960
 20
1.408000
  0
VERTEX
  8
0
  6
CONTINUOUS
 10
3.919080
 20
0.791120
  0
VERTEX
  8
0
  6
CONTINUOUS
 10
3.913360
 20
0.705320
  0
VERTEX
  8
0
  6
CONTINUOUS
 10
3.562240
 20
1.322200
  0
VERTEX
  8
0
  6
CONTINUOUS
 10
3.567960
 20
1.408000
  0
SEQEND
  8
0
  0
SOLID
  8
0
 62
    15
 10
3.562240
 20
1.322200
 11
3.913360
 21
0.705320
 12
3.443000
 22
1.322200
 13
3.794120
 23
0.705320
  0
POLYLINE
  8
0
  6
CONTINUOUS
 66
     1
 40
0.000000
 41
0.000000
  0
VERTEX
  8
0
  6
CONTINUOUS
 10
3.562240
 20
1.322200
  0
VERTEX
  8
0
  6
CONTINUOUS
 10
3.913360
 20
0.705320
  0
VERTEX
  8
0
  6
CONTINUOUS
 10
3.794120
 20
0.705320
  0
VERTEX
  8
0
  6
CONTINUOUS
 10
3.443000
 20
1.322200
  0
VERTEX
  8
0
  6
CONTINUOUS
 10
3.562240
 20
1.322200
  0
SEQEND
  8
0
  0
SOLID
  8
0
 62
    15
 10
3.443000
 20
1.322200
 11
3.794120
 21
0.705320
 12
3.436400
 22
1.260160
 13
3.787520
 23
0.642840
  0
POLYLINE
  8
0
  6
CONTINUOUS
 66
     1
 40
0.000000
 41
0.000000
  0
VERTEX
  8
0
  6
CONTINUOUS
 10
3.443000
 20
1.322200
  0
VERTEX
  8
0
  6
CONTINUOUS
 10
3.794120
 20
0.705320
  0
VERTEX
  8
0
  6
CONTINUOUS
 10
3.787520
 20
0.642840
  0
VERTEX
  8
0
  6
CONTINUOUS
 10
3.436400
 20
1.260160
  0
VERTEX
  8
0
  6
CONTINUOUS
 10
3.443000
 20
1.322200
  0
SEQEND
  8
0
  0
SOLID
  8
0
 62
    15
 10
3.436400
 20
1.260160
 11
3.787520
 21
0.642840
 12
3.418360
 22
1.202080
 13
3.769480
 23
0.585200
  0
POLYLINE
  8
0
  6
CONTINUOUS
 66
     1
 40
0.000000
 41
0.000000
  0
VERTEX
  8
0
  6
CONTINUOUS
 10
3.436400
 20
1.260160
  0
VERTEX
  8
0
  6
CONTINUOUS
 10
3.787520
 20
0.642840
  0
VERTEX
  8
0
  6
CONTINUOUS
 10
3.769480
 20
0.585200
  0
VERTEX
  8
0
  6
CONTINUOUS
 10
3.418360
 20
1.202080
  0
VERTEX
  8
0
  6
CONTINUOUS
 10
3.436400
 20
1.260160
  0
SEQEND
  8
0
  0
SOLID
  8
0
 62
    15
 10
3.418360
 20
1.202080
 11
3.769480
 21
0.585200
 12
3.390640
 22
1.149720
 13
3.741760
 23
0.532840
  0
POLYLINE
  8
0
  6
CONTINUOUS
 66
     1
 40
0.000000
 41
0.000000
  0
VERTEX
  8
0
  6
CONTINUOUS
 10
3.418360
 20
1.202080
  0
VERTEX
  8
0
  6
CONTINUOUS
 10
3.769480
 20
0.585200
  0
VERTEX
  8
0
  6
CONTINUOUS
 10
3.741760
 20
0.532840
  0
VERTEX
  8
0
  6
CONTINUOUS
 10
3.390640
 20
1.149720
  0
VERTEX
  8
0
  6
CONTINUOUS
 10
3.418360
 20
1.202080
  0
SEQEND
  8
0
  0
SOLID
  8
0
 62
    15
 10
3.390640
 20
1.149720
 11
3.741760
 21
0.532840
 12
3.354120
 22
1.103080
 13
3.705680
 23
0.486200
  0
POLYLINE
  8
0
  6
CONTINUOUS
 66
     1
 40
0.000000
 41
0.000000
  0
VERTEX
  8
0
  6
CONTINUOUS
 10
3.390640
 20
1.149720
  0
VERTEX
  8
0
  6
CONTINUOUS
 10
3.741760
 20
0.532840
  0
VERTEX
  8
0
  6
CONTINUOUS
 10
3.705680
 20
0.486200
  0
VERTEX
  8
0
  6
CONTINUOUS
 10
3.354120
 20
1.103080
  0
VERTEX
  8
0
  6
CONTINUOUS
 10
3.390640
 20
1.149720
  0
SEQEND
  8
0
  0
SOLID
  8
0
 62
    15
 10
3.354120
 20
1.103080
 11
3.705680
 21
0.486200
 12
3.311000
 22
1.063480
 13
3.662560
 23
0.446600
  0
POLYLINE
  8
0
  6
CONTINUOUS
 66
     1
 40
0.000000
 41
0.000000
  0
VERTEX
  8
0
  6
CONTINUOUS
 10
3.354120
 20
1.103080
  0
VERTEX
  8
0
  6
CONTINUOUS
 10
3.705680
 20
0.486200
  0
VERTEX
  8
0
  6
CONTINUOUS
 10
3.662560
 20
0.446600
  0
VERTEX
  8
0
  6
CONTINUOUS
 10
3.311000
 20
1.063480
  0
VERTEX
  8
0
  6
CONTINUOUS
 10
3.354120
 20
1.103080
  0
SEQEND
  8
0
  0
SOLID
  8
0
 62
    15
 10
3.311000
 20
1.063480
 11
3.662560
 21
0.446600
 12
3.262160
 22
1.030920
 13
3.613280
 23
0.414040
  0
POLYLINE
  8
0
  6
CONTINUOUS
 66
     1
 40
0.000000
 41
0.000000
  0
VERTEX
  8
0
  6
CONTINUOUS
 10
3.311000
 20
1.063480
  0
VERTEX
  8
0
  6
CONTINUOUS
 10
3.662560
 20
0.446600
  0
VERTEX
  8
0
  6
CONTINUOUS
 10
3.613280
 20
0.414040
  0
VERTEX
  8
0
  6
CONTINUOUS
 10
3.262160
 20
1.030920
  0
VERTEX
  8
0
  6
CONTINUOUS
 10
3.311000
 20
1.063480
  0
SEQEND
  8
0
  0
SOLID
  8
0
 62
    15
 10
3.262160
 20
1.030920
 11
3.613280
 21
0.414040
 12
3.209360
 22
1.006720
 13
3.560480
 23
0.389400
  0
POLYLINE
  8
0
  6
CONTINUOUS
 66
     1
 40
0.000000
 41
0.000000
  0
VERTEX
  8
0
  6
CONTINUOUS
 10
3.262160
 20
1.030920
  0
VERTEX
  8
0
  6
CONTINUOUS
 10
3.613280
 20
0.414040
  0
VERTEX
  8
0
  6
CONTINUOUS
 10
3.560480
 20
0.389400
  0
VERTEX
  8
0
  6
CONTINUOUS
 10
3.209360
 20
1.006720
  0
VERTEX
  8
0
  6
CONTINUOUS
 10
3.262160
 20
1.030920
  0
SEQEND
  8
0
  0
SOLID
  8
0
 62
    15
 10
3.209360
 20
1.006720
 11
3.560480
 21
0.389400
 12
3.153040
 22
0.990880
 13
3.504600
 23
0.374000
  0
POLYLINE
  8
0
  6
CONTINUOUS
 66
     1
 40
0.000000
 41
0.000000
  0
VERTEX
  8
0
  6
CONTINUOUS
 10
3.209360
 20
1.006720
  0
VERTEX
  8
0
  6
CONTINUOUS
 10
3.560480
 20
0.389400
  0
VERTEX
  8
0
  6
CONTINUOUS
 10
3.504600
 20
0.374000
  0
VERTEX
  8
0
  6
CONTINUOUS
 10
3.153040
 20
0.990880
  0
VERTEX
  8
0
  6
CONTINUOUS
 10
3.209360
 20
1.006720
  0
SEQEND
  8
0
  0
SOLID
  8
0
 62
    15
 10
3.153040
 20
0.990880
 11
3.504600
 21
0.374000
 12
3.095840
 22
0.985160
 13
3.446960
 23
0.367840
  0
POLYLINE
  8
0
  6
CONTINUOUS
 66
     1
 40
0.000000
 41
0.000000
  0
VERTEX
  8
0
  6
CONTINUOUS
 10
3.153040
 20
0.990880
  0
VERTEX
  8
0
  6
CONTINUOUS
 10
3.504600
 20
0.374000
  0
VERTEX
  8
0
  6
CONTINUOUS
 10
3.446960
 20
0.367840
  0
VERTEX
  8
0
  6
CONTINUOUS
 10
3.095840
 20
0.985160
  0
VERTEX
  8
0
  6
CONTINUOUS
 10
3.153040
 20
0.990880
  0
SEQEND
  8
0
  0
SOLID
  8
0
 62
    15
 10
3.095840
 20
0.985160
 11
3.446960
 21
0.367840
 12
3.038640
 22
0.989120
 13
3.389760
 23
0.372240
  0
POLYLINE
  8
0
  6
CONTINUOUS
 66
     1
 40
0.000000
 41
0.000000
  0
VERTEX
  8
0
  6
CONTINUOUS
 10
3.095840
 20
0.985160
  0
VERTEX
  8
0
  6
CONTINUOUS
 10
3.446960
 20
0.367840
  0
VERTEX
  8
0
  6
CONTINUOUS
 10
3.389760
 20
0.372240
  0
VERTEX
  8
0
  6
CONTINUOUS
 10
3.038640
 20
0.989120
  0
VERTEX
  8
0
  6
CONTINUOUS
 10
3.095840
 20
0.985160
  0
SEQEND
  8
0
  0
SOLID
  8
0
 62
    15
 10
3.038640
 20
0.989120
 11
3.389760
 21
0.372240
 12
2.982760
 22
1.004520
 13
3.333880
 23
0.387200
  0
POLYLINE
  8
0
  6
CONTINUOUS
 66
     1
 40
0.000000
 41
0.000000
  0
VERTEX
  8
0
  6
CONTINUOUS
 10
3.038640
 20
0.989120
  0
VERTEX
  8
0
  6
CONTINUOUS
 10
3.389760
 20
0.372240
  0
VERTEX
  8
0
  6
CONTINUOUS
 10
3.333880
 20
0.387200
  0
VERTEX
  8
0
  6
CONTINUOUS
 10
2.982760
 20
1.004520
  0
VERTEX
  8
0
  6
CONTINUOUS
 10
3.038640
 20
0.989120
  0
SEQEND
  8
0
  0
SOLID
  8
0
 62
    15
 10
2.982760
 20
1.004520
 11
3.333880
 21
0.387200
 12
2.929080
 22
1.030920
 13
3.280640
 23
0.414040
  0
POLYLINE
  8
0
  6
CONTINUOUS
 66
     1
 40
0.000000
 41
0.000000
  0
VERTEX
  8
0
  6
CONTINUOUS
 10
2.982760
 20
1.004520
  0
VERTEX
  8
0
  6
CONTINUOUS
 10
3.333880
 20
0.387200
  0
VERTEX
  8
0
  6
CONTINUOUS
 10
3.280640
 20
0.414040
  0
VERTEX
  8
0
  6
CONTINUOUS
 10
2.929080
 20
1.030920
  0
VERTEX
  8
0
  6
CONTINUOUS
 10
2.982760
 20
1.004520
  0
SEQEND
  8
0
  0
SOLID
  8
0
 62
    15
 10
2.929080
 20
1.030920
 11
3.280640
 21
0.414040
 12
2.880240
 22
1.070080
 13
3.231360
 23
0.453200
  0
POLYLINE
  8
0
  6
CONTINUOUS
 66
     1
 40
0.000000
 41
0.000000
  0
VERTEX
  8
0
  6
CONTINUOUS
 10
2.929080
 20
1.030920
  0
VERTEX
  8
0
  6
CONTINUOUS
 10
3.280640
 20
0.414040
  0
VERTEX
  8
0
  6
CONTINUOUS
 10
3.231360
 20
0.453200
  0
VERTEX
  8
0
  6
CONTINUOUS
 10
2.880240
 20
1.070080
  0
VERTEX
  8
0
  6
CONTINUOUS
 10
2.929080
 20
1.030920
  0
SEQEND
  8
0
  0
SOLID
  8
0
 62
    15
 10
2.880240
 20
1.070080
 11
3.231360
 21
0.453200
 12
2.836680
 22
1.122440
 13
3.187800
 23
0.505560
  0
POLYLINE
  8
0
  6
CONTINUOUS
 66
     1
 40
0.000000
 41
0.000000
  0
VERTEX
  8
0
  6
CONTINUOUS
 10
2.880240
 20
1.070080
  0
VERTEX
  8
0
  6
CONTINUOUS
 10
3.231360
 20
0.453200
  0
VERTEX
  8
0
  6
CONTINUOUS
 10
3.187800
 20
0.505560
  0
VERTEX
  8
0
  6
CONTINUOUS
 10
2.836680
 20
1.122440
  0
VERTEX
  8
0
  6
CONTINUOUS
 10
2.880240
 20
1.070080
  0
SEQEND
  8
0
  0
POLYLINE
  8
0
  6
CONTINUOUS
 66
     1
 40
0.000000
 41
0.000000
  0
VERTEX
  8
0
  6
CONTINUOUS
 10
2.772000
 20
2.386120
  0
VERTEX
  8
0
  6
CONTINUOUS
 10
5.570400
 20
2.386120
  0
VERTEX
  8
0
  6
CONTINUOUS
 10
5.569080
 20
2.293720
  0
VERTEX
  8
0
  6
CONTINUOUS
 10
5.562480
 20
2.205280
  0
VERTEX
  8
0
  6
CONTINUOUS
 10
5.534760
 20
2.040720
  0
VERTEX
  8
0
  6
CONTINUOUS
 10
5.489440
 20
1.893320
  0
VERTEX
  8
0
  6
CONTINUOUS
 10
5.429160
 20
1.763520
  0
VERTEX
  8
0
  6
CONTINUOUS
 10
5.357000
 20
1.652200
  0
VERTEX
  8
0
  6
CONTINUOUS
 10
5.275600
 20
1.558920
  0
VERTEX
  8
0
  6
CONTINUOUS
 10
5.188040
 20
1.485440
  0
VERTEX
  8
0
  6
CONTINUOUS
 10
5.096960
 20
1.431760
  0
VERTEX
  8
0
  6
CONTINUOUS
 10
5.005000
 20
1.398760
  0
VERTEX
  8
0
  6
CONTINUOUS
 10
4.915240
 20
1.386440
  0
VERTEX
  8
0
  6
CONTINUOUS
 10
4.830760
 20
1.396120
  0
VERTEX
  8
0
  6
CONTINUOUS
 10
4.753320
 20
1.427800
  0
VERTEX
  8
0
  6
CONTINUOUS
 10
4.718560
 20
1.452440
  0
VERTEX
  8
0
  6
CONTINUOUS
 10
4.686880
 20
1.482800
  0
VERTEX
  8
0
  6
CONTINUOUS
 10
4.658280
 20
1.518880
  0
VERTEX
  8
0
  6
CONTINUOUS
 10
4.633640
 20
1.560680
  0
VERTEX
  8
0
  6
CONTINUOUS
 10
4.612520
 20
1.608640
  0
VERTEX
  8
0
  6
CONTINUOUS
 10
4.596240
 20
1.662760
  0
VERTEX
  8
0
  6
CONTINUOUS
 10
4.584800
 20
1.723040
  0
VERTEX
  8
0
  6
CONTINUOUS
 10
4.577760
 20
1.789480
  0
VERTEX
  8
0
  6
CONTINUOUS
 10
4.530240
 20
1.709400
  0
VERTEX
  8
0
  6
CONTINUOUS
 10
4.487120
 20
1.649120
  0
VERTEX
  8
0
  6
CONTINUOUS
 10
4.448400
 20
1.606000
  0
VERTEX
  8
0
  6
CONTINUOUS
 10
4.413200
 20
1.577840
  0
VERTEX
  8
0
  6
CONTINUOUS
 10
4.381520
 20
1.562440
  0
VERTEX
  8
0
  6
CONTINUOUS
 10
4.352040
 20
1.557600
  0
VERTEX
  8
0
  6
CONTINUOUS
 10
4.298360
 20
1.569920
  0
VERTEX
  8
0
  6
CONTINUOUS
 10
4.299680
 20
1.609520
  0
VERTEX
  8
0
  6
CONTINUOUS
 10
4.284720
 20
1.653520
  0
VERTEX
  8
0
  6
CONTINUOUS
 10
4.254800
 20
1.700600
  0
VERTEX
  8
0
  6
CONTINUOUS
 10
4.212560
 20
1.746800
  0
VERTEX
  8
0
  6
CONTINUOUS
 10
4.160640
 20
1.790800
  0
VERTEX
  8
0
  6
CONTINUOUS
 10
4.100360
 20
1.828640
  0
VERTEX
  8
0
  6
CONTINUOUS
 10
4.034800
 20
1.859000
  0
VERTEX
  8
0
  6
CONTINUOUS
 10
3.966160
 20
1.877920
  0
VERTEX
  8
0
  6
CONTINUOUS
 10
3.895760
 20
1.883640
  0
VERTEX
  8
0
  6
CONTINUOUS
 10
3.827120
 20
1.873080
  0
VERTEX
  8
0
  6
CONTINUOUS
 10
3.761120
 20
1.844040
  0
VERTEX
  8
0
  6
CONTINUOUS
 10
3.701280
 20
1.793000
  0
VERTEX
  8
0
  6
CONTINUOUS
 10
3.674000
 20
1.759120
  0
VERTEX
  8
0
  6
CONTINUOUS
 10
3.649360
 20
1.718200
  0
VERTEX
  8
0
  6
CONTINUOUS
 10
3.626920
 20
1.671120
  0
VERTEX
  8
0
  6
CONTINUOUS
 10
3.607120
 20
1.616560
  0
VERTEX
  8
0
  6
CONTINUOUS
 10
3.590400
 20
1.554960
  0
VERTEX
  8
0
  6
CONTINUOUS
 10
3.577200
 20
1.485440
  0
VERTEX
  8
0
  6
CONTINUOUS
 10
3.567960
 20
1.408000
  0
VERTEX
  8
0
  6
CONTINUOUS
 10
3.562240
 20
1.322200
  0
VERTEX
  8
0
  6
CONTINUOUS
 10
3.443000
 20
1.322200
  0
VERTEX
  8
0
  6
CONTINUOUS
 10
3.436400
 20
1.260160
  0
VERTEX
  8
0
  6
CONTINUOUS
 10
3.418360
 20
1.202080
  0
VERTEX
  8
0
  6
CONTINUOUS
 10
3.390640
 20
1.149720
  0
VERTEX
  8
0
  6
CONTINUOUS
 10
3.354120
 20
1.103080
  0
VERTEX
  8
0
  6
CONTINUOUS
 10
3.311000
 20
1.063480
  0
VERTEX
  8
0
  6
CONTINUOUS
 10
3.262160
 20
1.030920
  0
VERTEX
  8
0
  6
CONTINUOUS
 10
3.209360
 20
1.006720
  0
VERTEX
  8
0
  6
CONTINUOUS
 10
3.153040
 20
0.990880
  0
VERTEX
  8
0
  6
CONTINUOUS
 10
3.095840
 20
0.985160
  0
VERTEX
  8
0
  6
CONTINUOUS
 10
3.038640
 20
0.989120
  0
VERTEX
  8
0
  6
CONTINUOUS
 10
2.982760
 20
1.004520
  0
VERTEX
  8
0
  6
CONTINUOUS
 10
2.929080
 20
1.030920
  0
VERTEX
  8
0
  6
CONTINUOUS
 10
2.880240
 20
1.070080
  0
VERTEX
  8
0
  6
CONTINUOUS
 10
2.836680
 20
1.122440
  0
VERTEX
  8
0
  6
CONTINUOUS
 10
2.800160
 20
1.188440
  0
VERTEX
  8
0
  6
CONTINUOUS
 10
2.772000
 20
1.268960
  0
VERTEX
  8
0
  6
CONTINUOUS
 10
2.772000
 20
2.386120
  0
SEQEND
  8
0
  0
TEXT
  8
0
 10
2.838440
 20
7.622120
 40
0.134717
  1
792
 50
269.819476
 41
1.000000
  7
SN0
 71
     0
 72
     5
 11
2.837579
 21
7.351759
  0
TEXT
  8
0
 10
5.299360
 20
7.230960
 40
0.134717
  1
793
 50
269.819476
 41
1.000000
  7
SN0
 71
     0
 72
     5
 11
5.298499
 21
6.960599
  0
TEXT
  8
0
 10
4.763000
 20
5.511000
 40
0.134717
  1
BA  792 1-3/8" x 2-13/16" 
 50
269.819476
 41
1.000000
  7
SN0
 71
     0
 72
     5
 11
4.757032
 21
3.637419
  0
TEXT
  8
0
 10
4.571160
 20
5.511000
 40
0.134717
  1
BA  793 1-13/16" x 5-3/16"
 50
269.819476
 41
1.000000
  7
SN0
 71
     0
 72
     5
 11
4.565049
 21
3.592358
  0
ENDSEC
  0
EOF
