  0
SECTION
  2
HEADER
  9
$ACADVER
  1
AC1006
  9
$EXTMIN
 10
0.803000
 20
0.682440
  9
$EXTMAX
 10
7.329960
 20
4.347640
  9
$LTSCALE
 40
0.044000
  9
$PDMODE
 70
    35
  9
$PDSIZE
 40
0.035200
  0
ENDSEC
  0
SECTION
  2
TABLES
  0
TABLE
  2
LTYPE
 70
     9
  0
LTYPE
  2
CONTINUOUS
 70
    64
  3
Solid line
 72
    65
 73
     0
 40
0.000000
  0
LTYPE
  2
DASHED
 70
    64
  3
__ __ __ __ __ __ __ __ __ __ __ __ __ __ __
 72
    65
 73
     2
 40
0.000330
 49
0.000220
 49
-0.000110
  0
LTYPE
  2
HIDDEN
 70
    64
  3
 _ _ _ _ _ _ _ _ _ _ _ _ _ _ _ _ _ _ _ _ _ _
 72
    65
 73
     2
 40
0.000165
 49
0.000110
 49
-0.000055
  0
LTYPE
  2
CENTER
 70
    64
  3
____ _ ____ _ ____ _ ____ _ ____ _ ____ _ ____
 72
    65
 73
     4
 40
0.000880
 49
0.000550
 49
-0.000110
 49
0.000110
 49
-0.000110
  0
LTYPE
  2
PHANTOM
 70
    64
  3
_____ _ _ _____ _ _ _____ _ _ _____ _ _ ____
 72
    65
 73
     6
 40
0.001100
 49
0.000550
 49
-0.000110
 49
0.000110
 49
-0.000110
 49
0.000110
 49
-0.000110
  0
LTYPE
  2
DOT
 70
    64
  3
...............................................
 72
    65
 73
     2
 40
0.000110
 49
0.000000
 49
-0.000110
  0
LTYPE
  2
DASHDOT
 70
    64
  3
__ . __ . __ . __ . __ . __ . __ . __ . __ . __
 72
    65
 73
     4
 40
0.000440
 49
0.000220
 49
-0.000110
 49
0.000000
 49
-0.000110
  0
LTYPE
  2
BORDER
 70
    64
  3
__ __ . __ __ . __ __ . __ __ . __ __ . __ __
 72
    65
 73
     6
 40
0.000770
 49
0.000220
 49
-0.000110
 49
0.000220
 49
-0.000110
 49
0.000000
 49
-0.000110
  0
LTYPE
  2
DIVIDE
 70
    64
  3
__ . . __ . . __ . . __ . . __ . . __ . . __
 72
    65
 73
     6
 40
0.000550
 49
0.000220
 49
-0.000110
 49
0.000000
 49
-0.000110
 49
0.000000
 49
-0.000110
  0
LTYPE
  2
DOTDOT
 70
    64
  3
 . .  . .  . .  . .  . .  . . 
 72
    65
 73
     5
 40
0.000242
 49
-0.000110
 49
0.000000
 49
-0.000110
 49
0.000000
 49
-0.000110
  0
ENDTAB
  0
TABLE
  2
STYLE
 70
     2
  0
STYLE
 70
     0
  2
SN0
 40
0.000000
 41
0.000440
 50
0.000000
 71
     0
 42
0.000000
  3
ROMAND
  0
STYLE
 70
    68
  2
SV0
 40
0.000000
 41
0.000440
 50
0.000000
 71
     0
 42
0.000000
  3
ROMAND
  0
ENDTAB
  0
TABLE
  2
LAYER
 70
     3
  0
LAYER
  2
FOREGROUND
 70
    64
 62
     7
  6
CONTINUOUS
  0
LAYER
  2
BACKGROUND
 70
    65
 62
    -7
  6
CONTINUOUS
  0
LAYER
  2
0
 70
    64
 62
     7
  6
CONTINUOUS
  0
ENDTAB
  0
ENDSEC
  0
SECTION
  2
ENTITIES
  0
POLYLINE
  8
FOREGROUND
  6
CONTINUOUS
 66
     1
 40
0.000000
 41
0.000000
  0
VERTEX
  8
FOREGROUND
  6
CONTINUOUS
 10
0.000000
 20
5.030080
  0
VERTEX
  8
FOREGROUND
  6
CONTINUOUS
 10
8.499920
 20
5.030080
  0
VERTEX
  8
FOREGROUND
  6
CONTINUOUS
 10
8.499920
 20
-5.969920
  0
VERTEX
  8
FOREGROUND
  6
CONTINUOUS
 10
0.000000
 20
-5.969920
  0
VERTEX
  8
FOREGROUND
  6
CONTINUOUS
 10
0.000000
 20
5.030080
  0
SEQEND
  8
0
  0
POLYLINE
  8
FOREGROUND
  6
CONTINUOUS
 66
     1
 40
0.000000
 41
0.000000
  0
VERTEX
  8
FOREGROUND
  6
CONTINUOUS
 10
0.000000
 20
5.030080
  0
VERTEX
  8
FOREGROUND
  6
CONTINUOUS
 10
8.499920
 20
5.030080
  0
VERTEX
  8
FOREGROUND
  6
CONTINUOUS
 10
8.499920
 20
-5.969920
  0
VERTEX
  8
FOREGROUND
  6
CONTINUOUS
 10
0.000000
 20
-5.969920
  0
VERTEX
  8
FOREGROUND
  6
CONTINUOUS
 10
0.000000
 20
5.030080
  0
SEQEND
  8
0
  0
SOLID
  8
0
 62
    15
 10
2.124320
 20
2.443320
 11
2.759680
 21
2.824800
 12
2.218040
 22
2.412520
 13
2.853400
 23
2.794000
  0
POLYLINE
  8
0
  6
CONTINUOUS
 66
     1
 40
0.000000
 41
0.000000
  0
VERTEX
  8
0
  6
CONTINUOUS
 10
2.124320
 20
2.443320
  0
VERTEX
  8
0
  6
CONTINUOUS
 10
2.759680
 20
2.824800
  0
VERTEX
  8
0
  6
CONTINUOUS
 10
2.853400
 20
2.794000
  0
VERTEX
  8
0
  6
CONTINUOUS
 10
2.218040
 20
2.412520
  0
VERTEX
  8
0
  6
CONTINUOUS
 10
2.124320
 20
2.443320
  0
SEQEND
  8
0
  0
SOLID
  8
0
 62
    15
 10
1.203400
 20
3.770800
 11
1.838760
 21
4.152280
 12
1.226720
 22
3.672240
 13
1.862080
 23
4.054160
  0
POLYLINE
  8
0
  6
CONTINUOUS
 66
     1
 40
0.000000
 41
0.000000
  0
VERTEX
  8
0
  6
CONTINUOUS
 10
1.203400
 20
3.770800
  0
VERTEX
  8
0
  6
CONTINUOUS
 10
1.838760
 20
4.152280
  0
VERTEX
  8
0
  6
CONTINUOUS
 10
1.862080
 20
4.054160
  0
VERTEX
  8
0
  6
CONTINUOUS
 10
1.226720
 20
3.672240
  0
VERTEX
  8
0
  6
CONTINUOUS
 10
1.203400
 20
3.770800
  0
SEQEND
  8
0
  0
SOLID
  8
0
 62
    15
 10
1.226720
 20
3.672240
 11
1.862080
 21
4.054160
 12
1.267200
 22
3.578960
 13
1.902560
 23
3.960440
  0
POLYLINE
  8
0
  6
CONTINUOUS
 66
     1
 40
0.000000
 41
0.000000
  0
VERTEX
  8
0
  6
CONTINUOUS
 10
1.226720
 20
3.672240
  0
VERTEX
  8
0
  6
CONTINUOUS
 10
1.862080
 20
4.054160
  0
VERTEX
  8
0
  6
CONTINUOUS
 10
1.902560
 20
3.960440
  0
VERTEX
  8
0
  6
CONTINUOUS
 10
1.267200
 20
3.578960
  0
VERTEX
  8
0
  6
CONTINUOUS
 10
1.226720
 20
3.672240
  0
SEQEND
  8
0
  0
SOLID
  8
0
 62
    15
 10
1.267200
 20
3.578960
 11
1.902560
 21
3.960440
 12
1.329240
 22
3.495360
 13
1.964600
 23
3.876840
  0
POLYLINE
  8
0
  6
CONTINUOUS
 66
     1
 40
0.000000
 41
0.000000
  0
VERTEX
  8
0
  6
CONTINUOUS
 10
1.267200
 20
3.578960
  0
VERTEX
  8
0
  6
CONTINUOUS
 10
1.902560
 20
3.960440
  0
VERTEX
  8
0
  6
CONTINUOUS
 10
1.964600
 20
3.876840
  0
VERTEX
  8
0
  6
CONTINUOUS
 10
1.329240
 20
3.495360
  0
VERTEX
  8
0
  6
CONTINUOUS
 10
1.267200
 20
3.578960
  0
SEQEND
  8
0
  0
SOLID
  8
0
 62
    15
 10
1.329240
 20
3.495360
 11
1.964600
 21
3.876840
 12
1.417240
 22
3.426280
 13
2.053040
 23
3.808200
  0
POLYLINE
  8
0
  6
CONTINUOUS
 66
     1
 40
0.000000
 41
0.000000
  0
VERTEX
  8
0
  6
CONTINUOUS
 10
1.329240
 20
3.495360
  0
VERTEX
  8
0
  6
CONTINUOUS
 10
1.964600
 20
3.876840
  0
VERTEX
  8
0
  6
CONTINUOUS
 10
2.053040
 20
3.808200
  0
VERTEX
  8
0
  6
CONTINUOUS
 10
1.417240
 20
3.426280
  0
VERTEX
  8
0
  6
CONTINUOUS
 10
1.329240
 20
3.495360
  0
SEQEND
  8
0
  0
SOLID
  8
0
 62
    15
 10
1.417240
 20
3.426280
 11
2.053040
 21
3.808200
 12
1.536040
 22
3.377440
 13
2.171840
 23
3.758920
  0
POLYLINE
  8
0
  6
CONTINUOUS
 66
     1
 40
0.000000
 41
0.000000
  0
VERTEX
  8
0
  6
CONTINUOUS
 10
1.417240
 20
3.426280
  0
VERTEX
  8
0
  6
CONTINUOUS
 10
2.053040
 20
3.808200
  0
VERTEX
  8
0
  6
CONTINUOUS
 10
2.171840
 20
3.758920
  0
VERTEX
  8
0
  6
CONTINUOUS
 10
1.536040
 20
3.377440
  0
VERTEX
  8
0
  6
CONTINUOUS
 10
1.417240
 20
3.426280
  0
SEQEND
  8
0
  0
SOLID
  8
0
 62
    15
 10
1.536040
 20
3.377440
 11
2.171840
 21
3.758920
 12
1.690040
 22
3.353240
 13
2.325840
 23
3.734720
  0
POLYLINE
  8
0
  6
CONTINUOUS
 66
     1
 40
0.000000
 41
0.000000
  0
VERTEX
  8
0
  6
CONTINUOUS
 10
1.536040
 20
3.377440
  0
VERTEX
  8
0
  6
CONTINUOUS
 10
2.171840
 20
3.758920
  0
VERTEX
  8
0
  6
CONTINUOUS
 10
2.325840
 20
3.734720
  0
VERTEX
  8
0
  6
CONTINUOUS
 10
1.690040
 20
3.353240
  0
VERTEX
  8
0
  6
CONTINUOUS
 10
1.536040
 20
3.377440
  0
SEQEND
  8
0
  0
SOLID
  8
0
 62
    15
 10
1.690040
 20
3.353240
 11
2.325840
 21
3.734720
 12
1.666720
 22
3.185160
 13
2.302080
 23
3.566640
  0
POLYLINE
  8
0
  6
CONTINUOUS
 66
     1
 40
0.000000
 41
0.000000
  0
VERTEX
  8
0
  6
CONTINUOUS
 10
1.690040
 20
3.353240
  0
VERTEX
  8
0
  6
CONTINUOUS
 10
2.325840
 20
3.734720
  0
VERTEX
  8
0
  6
CONTINUOUS
 10
2.302080
 20
3.566640
  0
VERTEX
  8
0
  6
CONTINUOUS
 10
1.666720
 20
3.185160
  0
VERTEX
  8
0
  6
CONTINUOUS
 10
1.690040
 20
3.353240
  0
SEQEND
  8
0
  0
SOLID
  8
0
 62
    15
 10
1.666720
 20
3.185160
 11
2.302080
 21
3.566640
 12
1.748120
 22
3.198800
 13
2.383920
 23
3.580280
  0
POLYLINE
  8
0
  6
CONTINUOUS
 66
     1
 40
0.000000
 41
0.000000
  0
VERTEX
  8
0
  6
CONTINUOUS
 10
1.666720
 20
3.185160
  0
VERTEX
  8
0
  6
CONTINUOUS
 10
2.302080
 20
3.566640
  0
VERTEX
  8
0
  6
CONTINUOUS
 10
2.383920
 20
3.580280
  0
VERTEX
  8
0
  6
CONTINUOUS
 10
1.748120
 20
3.198800
  0
VERTEX
  8
0
  6
CONTINUOUS
 10
1.666720
 20
3.185160
  0
SEQEND
  8
0
  0
SOLID
  8
0
 62
    15
 10
1.748120
 20
3.198800
 11
2.383920
 21
3.580280
 12
1.824680
 22
3.192640
 13
2.460040
 23
3.574120
  0
POLYLINE
  8
0
  6
CONTINUOUS
 66
     1
 40
0.000000
 41
0.000000
  0
VERTEX
  8
0
  6
CONTINUOUS
 10
1.748120
 20
3.198800
  0
VERTEX
  8
0
  6
CONTINUOUS
 10
2.383920
 20
3.580280
  0
VERTEX
  8
0
  6
CONTINUOUS
 10
2.460040
 20
3.574120
  0
VERTEX
  8
0
  6
CONTINUOUS
 10
1.824680
 20
3.192640
  0
VERTEX
  8
0
  6
CONTINUOUS
 10
1.748120
 20
3.198800
  0
SEQEND
  8
0
  0
SOLID
  8
0
 62
    15
 10
1.824680
 20
3.192640
 11
2.460040
 21
3.574120
 12
1.890240
 22
3.168000
 13
2.525600
 23
3.549480
  0
POLYLINE
  8
0
  6
CONTINUOUS
 66
     1
 40
0.000000
 41
0.000000
  0
VERTEX
  8
0
  6
CONTINUOUS
 10
1.824680
 20
3.192640
  0
VERTEX
  8
0
  6
CONTINUOUS
 10
2.460040
 20
3.574120
  0
VERTEX
  8
0
  6
CONTINUOUS
 10
2.525600
 20
3.549480
  0
VERTEX
  8
0
  6
CONTINUOUS
 10
1.890240
 20
3.168000
  0
VERTEX
  8
0
  6
CONTINUOUS
 10
1.824680
 20
3.192640
  0
SEQEND
  8
0
  0
SOLID
  8
0
 62
    15
 10
1.890240
 20
3.168000
 11
2.525600
 21
3.549480
 12
1.939080
 22
3.126200
 13
2.574440
 23
3.507680
  0
POLYLINE
  8
0
  6
CONTINUOUS
 66
     1
 40
0.000000
 41
0.000000
  0
VERTEX
  8
0
  6
CONTINUOUS
 10
1.890240
 20
3.168000
  0
VERTEX
  8
0
  6
CONTINUOUS
 10
2.525600
 20
3.549480
  0
VERTEX
  8
0
  6
CONTINUOUS
 10
2.574440
 20
3.507680
  0
VERTEX
  8
0
  6
CONTINUOUS
 10
1.939080
 20
3.126200
  0
VERTEX
  8
0
  6
CONTINUOUS
 10
1.890240
 20
3.168000
  0
SEQEND
  8
0
  0
SOLID
  8
0
 62
    15
 10
1.939080
 20
3.126200
 11
2.574440
 21
3.507680
 12
1.965040
 22
3.069000
 13
2.600840
 23
3.450480
  0
POLYLINE
  8
0
  6
CONTINUOUS
 66
     1
 40
0.000000
 41
0.000000
  0
VERTEX
  8
0
  6
CONTINUOUS
 10
1.939080
 20
3.126200
  0
VERTEX
  8
0
  6
CONTINUOUS
 10
2.574440
 20
3.507680
  0
VERTEX
  8
0
  6
CONTINUOUS
 10
2.600840
 20
3.450480
  0
VERTEX
  8
0
  6
CONTINUOUS
 10
1.965040
 20
3.069000
  0
VERTEX
  8
0
  6
CONTINUOUS
 10
1.939080
 20
3.126200
  0
SEQEND
  8
0
  0
SOLID
  8
0
 62
    15
 10
1.965040
 20
3.069000
 11
2.600840
 21
3.450480
 12
1.963280
 22
2.997720
 13
2.598640
 23
3.379200
  0
POLYLINE
  8
0
  6
CONTINUOUS
 66
     1
 40
0.000000
 41
0.000000
  0
VERTEX
  8
0
  6
CONTINUOUS
 10
1.965040
 20
3.069000
  0
VERTEX
  8
0
  6
CONTINUOUS
 10
2.600840
 20
3.450480
  0
VERTEX
  8
0
  6
CONTINUOUS
 10
2.598640
 20
3.379200
  0
VERTEX
  8
0
  6
CONTINUOUS
 10
1.963280
 20
2.997720
  0
VERTEX
  8
0
  6
CONTINUOUS
 10
1.965040
 20
3.069000
  0
SEQEND
  8
0
  0
SOLID
  8
0
 62
    15
 10
1.963280
 20
2.997720
 11
2.598640
 21
3.379200
 12
1.926760
 22
2.914120
 13
2.562120
 23
3.295600
  0
POLYLINE
  8
0
  6
CONTINUOUS
 66
     1
 40
0.000000
 41
0.000000
  0
VERTEX
  8
0
  6
CONTINUOUS
 10
1.963280
 20
2.997720
  0
VERTEX
  8
0
  6
CONTINUOUS
 10
2.598640
 20
3.379200
  0
VERTEX
  8
0
  6
CONTINUOUS
 10
2.562120
 20
3.295600
  0
VERTEX
  8
0
  6
CONTINUOUS
 10
1.926760
 20
2.914120
  0
VERTEX
  8
0
  6
CONTINUOUS
 10
1.963280
 20
2.997720
  0
SEQEND
  8
0
  0
SOLID
  8
0
 62
    15
 10
1.926760
 20
2.914120
 11
2.562120
 21
3.295600
 12
1.850640
 22
2.819520
 13
2.486000
 23
3.201000
  0
POLYLINE
  8
0
  6
CONTINUOUS
 66
     1
 40
0.000000
 41
0.000000
  0
VERTEX
  8
0
  6
CONTINUOUS
 10
1.926760
 20
2.914120
  0
VERTEX
  8
0
  6
CONTINUOUS
 10
2.562120
 20
3.295600
  0
VERTEX
  8
0
  6
CONTINUOUS
 10
2.486000
 20
3.201000
  0
VERTEX
  8
0
  6
CONTINUOUS
 10
1.850640
 20
2.819520
  0
VERTEX
  8
0
  6
CONTINUOUS
 10
1.926760
 20
2.914120
  0
SEQEND
  8
0
  0
SOLID
  8
0
 62
    15
 10
1.850640
 20
2.819520
 11
2.486000
 21
3.201000
 12
1.857680
 22
2.757040
 13
2.493040
 23
3.138520
  0
POLYLINE
  8
0
  6
CONTINUOUS
 66
     1
 40
0.000000
 41
0.000000
  0
VERTEX
  8
0
  6
CONTINUOUS
 10
1.850640
 20
2.819520
  0
VERTEX
  8
0
  6
CONTINUOUS
 10
2.486000
 20
3.201000
  0
VERTEX
  8
0
  6
CONTINUOUS
 10
2.493040
 20
3.138520
  0
VERTEX
  8
0
  6
CONTINUOUS
 10
1.857680
 20
2.757040
  0
VERTEX
  8
0
  6
CONTINUOUS
 10
1.850640
 20
2.819520
  0
SEQEND
  8
0
  0
SOLID
  8
0
 62
    15
 10
1.857680
 20
2.757040
 11
2.493040
 21
3.138520
 12
1.881440
 22
2.688400
 13
2.516800
 23
3.069880
  0
POLYLINE
  8
0
  6
CONTINUOUS
 66
     1
 40
0.000000
 41
0.000000
  0
VERTEX
  8
0
  6
CONTINUOUS
 10
1.857680
 20
2.757040
  0
VERTEX
  8
0
  6
CONTINUOUS
 10
2.493040
 20
3.138520
  0
VERTEX
  8
0
  6
CONTINUOUS
 10
2.516800
 20
3.069880
  0
VERTEX
  8
0
  6
CONTINUOUS
 10
1.881440
 20
2.688400
  0
VERTEX
  8
0
  6
CONTINUOUS
 10
1.857680
 20
2.757040
  0
SEQEND
  8
0
  0
SOLID
  8
0
 62
    15
 10
1.881440
 20
2.688400
 11
2.516800
 21
3.069880
 12
1.920600
 22
2.618000
 13
2.555960
 23
2.999480
  0
POLYLINE
  8
0
  6
CONTINUOUS
 66
     1
 40
0.000000
 41
0.000000
  0
VERTEX
  8
0
  6
CONTINUOUS
 10
1.881440
 20
2.688400
  0
VERTEX
  8
0
  6
CONTINUOUS
 10
2.516800
 20
3.069880
  0
VERTEX
  8
0
  6
CONTINUOUS
 10
2.555960
 20
2.999480
  0
VERTEX
  8
0
  6
CONTINUOUS
 10
1.920600
 20
2.618000
  0
VERTEX
  8
0
  6
CONTINUOUS
 10
1.881440
 20
2.688400
  0
SEQEND
  8
0
  0
SOLID
  8
0
 62
    15
 10
1.920600
 20
2.618000
 11
2.555960
 21
2.999480
 12
1.974720
 22
2.550680
 13
2.610080
 23
2.932160
  0
POLYLINE
  8
0
  6
CONTINUOUS
 66
     1
 40
0.000000
 41
0.000000
  0
VERTEX
  8
0
  6
CONTINUOUS
 10
1.920600
 20
2.618000
  0
VERTEX
  8
0
  6
CONTINUOUS
 10
2.555960
 20
2.999480
  0
VERTEX
  8
0
  6
CONTINUOUS
 10
2.610080
 20
2.932160
  0
VERTEX
  8
0
  6
CONTINUOUS
 10
1.974720
 20
2.550680
  0
VERTEX
  8
0
  6
CONTINUOUS
 10
1.920600
 20
2.618000
  0
SEQEND
  8
0
  0
SOLID
  8
0
 62
    15
 10
1.974720
 20
2.550680
 11
2.610080
 21
2.932160
 12
2.042480
 22
2.490840
 13
2.678280
 23
2.872320
  0
POLYLINE
  8
0
  6
CONTINUOUS
 66
     1
 40
0.000000
 41
0.000000
  0
VERTEX
  8
0
  6
CONTINUOUS
 10
1.974720
 20
2.550680
  0
VERTEX
  8
0
  6
CONTINUOUS
 10
2.610080
 20
2.932160
  0
VERTEX
  8
0
  6
CONTINUOUS
 10
2.678280
 20
2.872320
  0
VERTEX
  8
0
  6
CONTINUOUS
 10
2.042480
 20
2.490840
  0
VERTEX
  8
0
  6
CONTINUOUS
 10
1.974720
 20
2.550680
  0
SEQEND
  8
0
  0
SOLID
  8
0
 62
    15
 10
2.042480
 20
2.490840
 11
2.678280
 21
2.872320
 12
2.124320
 22
2.443320
 13
2.759680
 23
2.824800
  0
POLYLINE
  8
0
  6
CONTINUOUS
 66
     1
 40
0.000000
 41
0.000000
  0
VERTEX
  8
0
  6
CONTINUOUS
 10
2.042480
 20
2.490840
  0
VERTEX
  8
0
  6
CONTINUOUS
 10
2.678280
 20
2.872320
  0
VERTEX
  8
0
  6
CONTINUOUS
 10
2.759680
 20
2.824800
  0
VERTEX
  8
0
  6
CONTINUOUS
 10
2.124320
 20
2.443320
  0
VERTEX
  8
0
  6
CONTINUOUS
 10
2.042480
 20
2.490840
  0
SEQEND
  8
0
  0
SOLID
  8
0
 62
    15
 10
1.189760
 20
3.963080
 11
1.825120
 21
4.344560
 12
1.203400
 22
3.770800
 13
1.838760
 23
4.152280
  0
POLYLINE
  8
0
  6
CONTINUOUS
 66
     1
 40
0.000000
 41
0.000000
  0
VERTEX
  8
0
  6
CONTINUOUS
 10
1.189760
 20
3.963080
  0
VERTEX
  8
0
  6
CONTINUOUS
 10
1.825120
 20
4.344560
  0
VERTEX
  8
0
  6
CONTINUOUS
 10
1.838760
 20
4.152280
  0
VERTEX
  8
0
  6
CONTINUOUS
 10
1.203400
 20
3.770800
  0
VERTEX
  8
0
  6
CONTINUOUS
 10
1.189760
 20
3.963080
  0
SEQEND
  8
0
  0
SOLID
  8
0
 62
    15
 10
2.218040
 20
2.412520
 11
2.853400
 21
2.794000
 12
2.324080
 22
2.403280
 13
2.959440
 23
2.784760
  0
POLYLINE
  8
0
  6
CONTINUOUS
 66
     1
 40
0.000000
 41
0.000000
  0
VERTEX
  8
0
  6
CONTINUOUS
 10
2.218040
 20
2.412520
  0
VERTEX
  8
0
  6
CONTINUOUS
 10
2.853400
 20
2.794000
  0
VERTEX
  8
0
  6
CONTINUOUS
 10
2.959440
 20
2.784760
  0
VERTEX
  8
0
  6
CONTINUOUS
 10
2.324080
 20
2.403280
  0
VERTEX
  8
0
  6
CONTINUOUS
 10
2.218040
 20
2.412520
  0
SEQEND
  8
0
  0
SOLID
  8
0
 62
    15
 10
2.324080
 20
2.403280
 11
2.959440
 21
2.784760
 12
2.325400
 22
2.306480
 13
2.960760
 23
2.687960
  0
POLYLINE
  8
0
  6
CONTINUOUS
 66
     1
 40
0.000000
 41
0.000000
  0
VERTEX
  8
0
  6
CONTINUOUS
 10
2.324080
 20
2.403280
  0
VERTEX
  8
0
  6
CONTINUOUS
 10
2.959440
 20
2.784760
  0
VERTEX
  8
0
  6
CONTINUOUS
 10
2.960760
 20
2.687960
  0
VERTEX
  8
0
  6
CONTINUOUS
 10
2.325400
 20
2.306480
  0
VERTEX
  8
0
  6
CONTINUOUS
 10
2.324080
 20
2.403280
  0
SEQEND
  8
0
  0
SOLID
  8
0
 62
    15
 10
2.325400
 20
2.306480
 11
2.960760
 21
2.687960
 12
2.450360
 22
2.306480
 13
3.085720
 23
2.687960
  0
POLYLINE
  8
0
  6
CONTINUOUS
 66
     1
 40
0.000000
 41
0.000000
  0
VERTEX
  8
0
  6
CONTINUOUS
 10
2.325400
 20
2.306480
  0
VERTEX
  8
0
  6
CONTINUOUS
 10
2.960760
 20
2.687960
  0
VERTEX
  8
0
  6
CONTINUOUS
 10
3.085720
 20
2.687960
  0
VERTEX
  8
0
  6
CONTINUOUS
 10
2.450360
 20
2.306480
  0
VERTEX
  8
0
  6
CONTINUOUS
 10
2.325400
 20
2.306480
  0
SEQEND
  8
0
  0
SOLID
  8
0
 62
    15
 10
2.450360
 20
2.306480
 11
3.085720
 21
2.687960
 12
2.454320
 22
2.154240
 13
3.089680
 23
2.535720
  0
POLYLINE
  8
0
  6
CONTINUOUS
 66
     1
 40
0.000000
 41
0.000000
  0
VERTEX
  8
0
  6
CONTINUOUS
 10
2.450360
 20
2.306480
  0
VERTEX
  8
0
  6
CONTINUOUS
 10
3.085720
 20
2.687960
  0
VERTEX
  8
0
  6
CONTINUOUS
 10
3.089680
 20
2.535720
  0
VERTEX
  8
0
  6
CONTINUOUS
 10
2.454320
 20
2.154240
  0
VERTEX
  8
0
  6
CONTINUOUS
 10
2.450360
 20
2.306480
  0
SEQEND
  8
0
  0
SOLID
  8
0
 62
    15
 10
2.454320
 20
2.154240
 11
3.089680
 21
2.535720
 12
2.593800
 22
2.151160
 13
3.229160
 23
2.532640
  0
POLYLINE
  8
0
  6
CONTINUOUS
 66
     1
 40
0.000000
 41
0.000000
  0
VERTEX
  8
0
  6
CONTINUOUS
 10
2.454320
 20
2.154240
  0
VERTEX
  8
0
  6
CONTINUOUS
 10
3.089680
 20
2.535720
  0
VERTEX
  8
0
  6
CONTINUOUS
 10
3.229160
 20
2.532640
  0
VERTEX
  8
0
  6
CONTINUOUS
 10
2.593800
 20
2.151160
  0
VERTEX
  8
0
  6
CONTINUOUS
 10
2.454320
 20
2.154240
  0
SEQEND
  8
0
  0
SOLID
  8
0
 62
    15
 10
2.593800
 20
2.151160
 11
3.229160
 21
2.532640
 12
2.726680
 22
2.135320
 13
3.362480
 23
2.516800
  0
POLYLINE
  8
0
  6
CONTINUOUS
 66
     1
 40
0.000000
 41
0.000000
  0
VERTEX
  8
0
  6
CONTINUOUS
 10
2.593800
 20
2.151160
  0
VERTEX
  8
0
  6
CONTINUOUS
 10
3.229160
 20
2.532640
  0
VERTEX
  8
0
  6
CONTINUOUS
 10
3.362480
 20
2.516800
  0
VERTEX
  8
0
  6
CONTINUOUS
 10
2.726680
 20
2.135320
  0
VERTEX
  8
0
  6
CONTINUOUS
 10
2.593800
 20
2.151160
  0
SEQEND
  8
0
  0
SOLID
  8
0
 62
    15
 10
2.726680
 20
2.135320
 11
3.362480
 21
2.516800
 12
2.851640
 22
2.107600
 13
3.487000
 23
2.489080
  0
POLYLINE
  8
0
  6
CONTINUOUS
 66
     1
 40
0.000000
 41
0.000000
  0
VERTEX
  8
0
  6
CONTINUOUS
 10
2.726680
 20
2.135320
  0
VERTEX
  8
0
  6
CONTINUOUS
 10
3.362480
 20
2.516800
  0
VERTEX
  8
0
  6
CONTINUOUS
 10
3.487000
 20
2.489080
  0
VERTEX
  8
0
  6
CONTINUOUS
 10
2.851640
 20
2.107600
  0
VERTEX
  8
0
  6
CONTINUOUS
 10
2.726680
 20
2.135320
  0
SEQEND
  8
0
  0
SOLID
  8
0
 62
    15
 10
2.851640
 20
2.107600
 11
3.487000
 21
2.489080
 12
2.966920
 22
2.069320
 13
3.602280
 23
2.450800
  0
POLYLINE
  8
0
  6
CONTINUOUS
 66
     1
 40
0.000000
 41
0.000000
  0
VERTEX
  8
0
  6
CONTINUOUS
 10
2.851640
 20
2.107600
  0
VERTEX
  8
0
  6
CONTINUOUS
 10
3.487000
 20
2.489080
  0
VERTEX
  8
0
  6
CONTINUOUS
 10
3.602280
 20
2.450800
  0
VERTEX
  8
0
  6
CONTINUOUS
 10
2.966920
 20
2.069320
  0
VERTEX
  8
0
  6
CONTINUOUS
 10
2.851640
 20
2.107600
  0
SEQEND
  8
0
  0
SOLID
  8
0
 62
    15
 10
2.966920
 20
2.069320
 11
3.602280
 21
2.450800
 12
3.070320
 22
2.021800
 13
3.705680
 23
2.403720
  0
POLYLINE
  8
0
  6
CONTINUOUS
 66
     1
 40
0.000000
 41
0.000000
  0
VERTEX
  8
0
  6
CONTINUOUS
 10
2.966920
 20
2.069320
  0
VERTEX
  8
0
  6
CONTINUOUS
 10
3.602280
 20
2.450800
  0
VERTEX
  8
0
  6
CONTINUOUS
 10
3.705680
 20
2.403720
  0
VERTEX
  8
0
  6
CONTINUOUS
 10
3.070320
 20
2.021800
  0
VERTEX
  8
0
  6
CONTINUOUS
 10
2.966920
 20
2.069320
  0
SEQEND
  8
0
  0
SOLID
  8
0
 62
    15
 10
3.070320
 20
2.021800
 11
3.705680
 21
2.403720
 12
3.160520
 22
1.967240
 13
3.795880
 23
2.348720
  0
POLYLINE
  8
0
  6
CONTINUOUS
 66
     1
 40
0.000000
 41
0.000000
  0
VERTEX
  8
0
  6
CONTINUOUS
 10
3.070320
 20
2.021800
  0
VERTEX
  8
0
  6
CONTINUOUS
 10
3.705680
 20
2.403720
  0
VERTEX
  8
0
  6
CONTINUOUS
 10
3.795880
 20
2.348720
  0
VERTEX
  8
0
  6
CONTINUOUS
 10
3.160520
 20
1.967240
  0
VERTEX
  8
0
  6
CONTINUOUS
 10
3.070320
 20
2.021800
  0
SEQEND
  8
0
  0
SOLID
  8
0
 62
    15
 10
3.160520
 20
1.967240
 11
3.795880
 21
2.348720
 12
3.236200
 22
1.906520
 13
3.871560
 23
2.288000
  0
POLYLINE
  8
0
  6
CONTINUOUS
 66
     1
 40
0.000000
 41
0.000000
  0
VERTEX
  8
0
  6
CONTINUOUS
 10
3.160520
 20
1.967240
  0
VERTEX
  8
0
  6
CONTINUOUS
 10
3.795880
 20
2.348720
  0
VERTEX
  8
0
  6
CONTINUOUS
 10
3.871560
 20
2.288000
  0
VERTEX
  8
0
  6
CONTINUOUS
 10
3.236200
 20
1.906520
  0
VERTEX
  8
0
  6
CONTINUOUS
 10
3.160520
 20
1.967240
  0
SEQEND
  8
0
  0
SOLID
  8
0
 62
    15
 10
3.236200
 20
1.906520
 11
3.871560
 21
2.288000
 12
3.295160
 22
1.840960
 13
3.930520
 23
2.222440
  0
POLYLINE
  8
0
  6
CONTINUOUS
 66
     1
 40
0.000000
 41
0.000000
  0
VERTEX
  8
0
  6
CONTINUOUS
 10
3.236200
 20
1.906520
  0
VERTEX
  8
0
  6
CONTINUOUS
 10
3.871560
 20
2.288000
  0
VERTEX
  8
0
  6
CONTINUOUS
 10
3.930520
 20
2.222440
  0
VERTEX
  8
0
  6
CONTINUOUS
 10
3.295160
 20
1.840960
  0
VERTEX
  8
0
  6
CONTINUOUS
 10
3.236200
 20
1.906520
  0
SEQEND
  8
0
  0
SOLID
  8
0
 62
    15
 10
3.295160
 20
1.840960
 11
3.930520
 21
2.222440
 12
3.336080
 22
1.772320
 13
3.971440
 23
2.153800
  0
POLYLINE
  8
0
  6
CONTINUOUS
 66
     1
 40
0.000000
 41
0.000000
  0
VERTEX
  8
0
  6
CONTINUOUS
 10
3.295160
 20
1.840960
  0
VERTEX
  8
0
  6
CONTINUOUS
 10
3.930520
 20
2.222440
  0
VERTEX
  8
0
  6
CONTINUOUS
 10
3.971440
 20
2.153800
  0
VERTEX
  8
0
  6
CONTINUOUS
 10
3.336080
 20
1.772320
  0
VERTEX
  8
0
  6
CONTINUOUS
 10
3.295160
 20
1.840960
  0
SEQEND
  8
0
  0
SOLID
  8
0
 62
    15
 10
3.336080
 20
1.772320
 11
3.971440
 21
2.153800
 12
3.357200
 22
1.701920
 13
3.992560
 23
2.083400
  0
POLYLINE
  8
0
  6
CONTINUOUS
 66
     1
 40
0.000000
 41
0.000000
  0
VERTEX
  8
0
  6
CONTINUOUS
 10
3.336080
 20
1.772320
  0
VERTEX
  8
0
  6
CONTINUOUS
 10
3.971440
 20
2.153800
  0
VERTEX
  8
0
  6
CONTINUOUS
 10
3.992560
 20
2.083400
  0
VERTEX
  8
0
  6
CONTINUOUS
 10
3.357200
 20
1.701920
  0
VERTEX
  8
0
  6
CONTINUOUS
 10
3.336080
 20
1.772320
  0
SEQEND
  8
0
  0
SOLID
  8
0
 62
    15
 10
3.357200
 20
1.701920
 11
3.992560
 21
2.083400
 12
3.356760
 22
1.631080
 13
3.992120
 23
2.012560
  0
POLYLINE
  8
0
  6
CONTINUOUS
 66
     1
 40
0.000000
 41
0.000000
  0
VERTEX
  8
0
  6
CONTINUOUS
 10
3.357200
 20
1.701920
  0
VERTEX
  8
0
  6
CONTINUOUS
 10
3.992560
 20
2.083400
  0
VERTEX
  8
0
  6
CONTINUOUS
 10
3.992120
 20
2.012560
  0
VERTEX
  8
0
  6
CONTINUOUS
 10
3.356760
 20
1.631080
  0
VERTEX
  8
0
  6
CONTINUOUS
 10
3.357200
 20
1.701920
  0
SEQEND
  8
0
  0
SOLID
  8
0
 62
    15
 10
3.356760
 20
1.631080
 11
3.992120
 21
2.012560
 12
3.333000
 22
1.561120
 13
3.968800
 23
1.942600
  0
POLYLINE
  8
0
  6
CONTINUOUS
 66
     1
 40
0.000000
 41
0.000000
  0
VERTEX
  8
0
  6
CONTINUOUS
 10
3.356760
 20
1.631080
  0
VERTEX
  8
0
  6
CONTINUOUS
 10
3.992120
 20
2.012560
  0
VERTEX
  8
0
  6
CONTINUOUS
 10
3.968800
 20
1.942600
  0
VERTEX
  8
0
  6
CONTINUOUS
 10
3.333000
 20
1.561120
  0
VERTEX
  8
0
  6
CONTINUOUS
 10
3.356760
 20
1.631080
  0
SEQEND
  8
0
  0
SOLID
  8
0
 62
    15
 10
3.285040
 20
1.493800
 11
3.920400
 21
1.875280
 12
3.210240
 22
1.430440
 13
3.845600
 23
1.811920
  0
POLYLINE
  8
0
  6
CONTINUOUS
 66
     1
 40
0.000000
 41
0.000000
  0
VERTEX
  8
0
  6
CONTINUOUS
 10
3.285040
 20
1.493800
  0
VERTEX
  8
0
  6
CONTINUOUS
 10
3.920400
 20
1.875280
  0
VERTEX
  8
0
  6
CONTINUOUS
 10
3.845600
 20
1.811920
  0
VERTEX
  8
0
  6
CONTINUOUS
 10
3.210240
 20
1.430440
  0
VERTEX
  8
0
  6
CONTINUOUS
 10
3.285040
 20
1.493800
  0
SEQEND
  8
0
  0
SOLID
  8
0
 62
    15
 10
2.974840
 20
1.320440
 11
3.610200
 21
1.701920
 12
2.943600
 22
1.218800
 13
3.578960
 23
1.600280
  0
POLYLINE
  8
0
  6
CONTINUOUS
 66
     1
 40
0.000000
 41
0.000000
  0
VERTEX
  8
0
  6
CONTINUOUS
 10
2.974840
 20
1.320440
  0
VERTEX
  8
0
  6
CONTINUOUS
 10
3.610200
 20
1.701920
  0
VERTEX
  8
0
  6
CONTINUOUS
 10
3.578960
 20
1.600280
  0
VERTEX
  8
0
  6
CONTINUOUS
 10
2.943600
 20
1.218800
  0
VERTEX
  8
0
  6
CONTINUOUS
 10
2.974840
 20
1.320440
  0
SEQEND
  8
0
  0
SOLID
  8
0
 62
    15
 10
3.333000
 20
1.561120
 11
3.968800
 21
1.942600
 12
3.285040
 22
1.493800
 13
3.920400
 23
1.875280
  0
POLYLINE
  8
0
  6
CONTINUOUS
 66
     1
 40
0.000000
 41
0.000000
  0
VERTEX
  8
0
  6
CONTINUOUS
 10
3.333000
 20
1.561120
  0
VERTEX
  8
0
  6
CONTINUOUS
 10
3.968800
 20
1.942600
  0
VERTEX
  8
0
  6
CONTINUOUS
 10
3.920400
 20
1.875280
  0
VERTEX
  8
0
  6
CONTINUOUS
 10
3.285040
 20
1.493800
  0
VERTEX
  8
0
  6
CONTINUOUS
 10
3.333000
 20
1.561120
  0
SEQEND
  8
0
  0
SOLID
  8
0
 62
    15
 10
0.803880
 20
3.965280
 11
1.439240
 21
4.346760
 12
1.189760
 22
3.965280
 13
1.825120
 23
4.346760
  0
POLYLINE
  8
0
  6
CONTINUOUS
 66
     1
 40
0.000000
 41
0.000000
  0
VERTEX
  8
0
  6
CONTINUOUS
 10
0.803880
 20
3.965280
  0
VERTEX
  8
0
  6
CONTINUOUS
 10
1.439240
 20
4.346760
  0
VERTEX
  8
0
  6
CONTINUOUS
 10
1.825120
 20
4.346760
  0
VERTEX
  8
0
  6
CONTINUOUS
 10
1.189760
 20
3.965280
  0
VERTEX
  8
0
  6
CONTINUOUS
 10
0.803880
 20
3.965280
  0
SEQEND
  8
0
  0
SOLID
  8
0
 62
    15
 10
1.189760
 20
3.965280
 11
1.825120
 21
4.346760
 12
1.189760
 22
3.963080
 13
1.825120
 23
4.344560
  0
POLYLINE
  8
0
  6
CONTINUOUS
 66
     1
 40
0.000000
 41
0.000000
  0
VERTEX
  8
0
  6
CONTINUOUS
 10
1.189760
 20
3.965280
  0
VERTEX
  8
0
  6
CONTINUOUS
 10
1.825120
 20
4.346760
  0
VERTEX
  8
0
  6
CONTINUOUS
 10
1.825120
 20
4.344560
  0
VERTEX
  8
0
  6
CONTINUOUS
 10
1.189760
 20
3.963080
  0
VERTEX
  8
0
  6
CONTINUOUS
 10
1.189760
 20
3.965280
  0
SEQEND
  8
0
  0
POLYLINE
  8
0
  6
CONTINUOUS
 66
     1
 40
0.000000
 41
0.000000
  0
VERTEX
  8
0
  6
CONTINUOUS
 10
1.189760
 20
3.963080
  0
VERTEX
  8
0
  6
CONTINUOUS
 10
1.203400
 20
3.770800
  0
VERTEX
  8
0
  6
CONTINUOUS
 10
1.226720
 20
3.672240
  0
VERTEX
  8
0
  6
CONTINUOUS
 10
1.267200
 20
3.578960
  0
VERTEX
  8
0
  6
CONTINUOUS
 10
1.329240
 20
3.495360
  0
VERTEX
  8
0
  6
CONTINUOUS
 10
1.417240
 20
3.426280
  0
VERTEX
  8
0
  6
CONTINUOUS
 10
1.536040
 20
3.377440
  0
VERTEX
  8
0
  6
CONTINUOUS
 10
1.690040
 20
3.353240
  0
VERTEX
  8
0
  6
CONTINUOUS
 10
1.666720
 20
3.185160
  0
VERTEX
  8
0
  6
CONTINUOUS
 10
1.748120
 20
3.198800
  0
VERTEX
  8
0
  6
CONTINUOUS
 10
1.824680
 20
3.192640
  0
VERTEX
  8
0
  6
CONTINUOUS
 10
1.890240
 20
3.168000
  0
VERTEX
  8
0
  6
CONTINUOUS
 10
1.939080
 20
3.126200
  0
VERTEX
  8
0
  6
CONTINUOUS
 10
1.965040
 20
3.069000
  0
VERTEX
  8
0
  6
CONTINUOUS
 10
1.963280
 20
2.997720
  0
VERTEX
  8
0
  6
CONTINUOUS
 10
1.926760
 20
2.914120
  0
VERTEX
  8
0
  6
CONTINUOUS
 10
1.850640
 20
2.819520
  0
VERTEX
  8
0
  6
CONTINUOUS
 10
1.857680
 20
2.757040
  0
VERTEX
  8
0
  6
CONTINUOUS
 10
1.881440
 20
2.688400
  0
VERTEX
  8
0
  6
CONTINUOUS
 10
1.920600
 20
2.618000
  0
VERTEX
  8
0
  6
CONTINUOUS
 10
1.974720
 20
2.550680
  0
VERTEX
  8
0
  6
CONTINUOUS
 10
2.042480
 20
2.490840
  0
VERTEX
  8
0
  6
CONTINUOUS
 10
2.124320
 20
2.443320
  0
VERTEX
  8
0
  6
CONTINUOUS
 10
2.218040
 20
2.412520
  0
VERTEX
  8
0
  6
CONTINUOUS
 10
2.324080
 20
2.403280
  0
VERTEX
  8
0
  6
CONTINUOUS
 10
2.325400
 20
2.306480
  0
VERTEX
  8
0
  6
CONTINUOUS
 10
2.450360
 20
2.306480
  0
VERTEX
  8
0
  6
CONTINUOUS
 10
2.454320
 20
2.154240
  0
VERTEX
  8
0
  6
CONTINUOUS
 10
2.593800
 20
2.151160
  0
VERTEX
  8
0
  6
CONTINUOUS
 10
2.726680
 20
2.135320
  0
VERTEX
  8
0
  6
CONTINUOUS
 10
2.851640
 20
2.107600
  0
VERTEX
  8
0
  6
CONTINUOUS
 10
2.966920
 20
2.069320
  0
VERTEX
  8
0
  6
CONTINUOUS
 10
3.070320
 20
2.021800
  0
VERTEX
  8
0
  6
CONTINUOUS
 10
3.160520
 20
1.967240
  0
VERTEX
  8
0
  6
CONTINUOUS
 10
3.236200
 20
1.906520
  0
VERTEX
  8
0
  6
CONTINUOUS
 10
3.295160
 20
1.840960
  0
VERTEX
  8
0
  6
CONTINUOUS
 10
3.336080
 20
1.772320
  0
VERTEX
  8
0
  6
CONTINUOUS
 10
3.357200
 20
1.701920
  0
VERTEX
  8
0
  6
CONTINUOUS
 10
3.356760
 20
1.631080
  0
VERTEX
  8
0
  6
CONTINUOUS
 10
3.333000
 20
1.561120
  0
VERTEX
  8
0
  6
CONTINUOUS
 10
3.285040
 20
1.493800
  0
VERTEX
  8
0
  6
CONTINUOUS
 10
3.210240
 20
1.430440
  0
VERTEX
  8
0
  6
CONTINUOUS
 10
3.107280
 20
1.371920
  0
VERTEX
  8
0
  6
CONTINUOUS
 10
2.974840
 20
1.320440
  0
VERTEX
  8
0
  6
CONTINUOUS
 10
2.943600
 20
1.218800
  0
VERTEX
  8
0
  6
CONTINUOUS
 10
0.803880
 20
1.218800
  0
VERTEX
  8
0
  6
CONTINUOUS
 10
0.803880
 20
3.965280
  0
VERTEX
  8
0
  6
CONTINUOUS
 10
1.189760
 20
3.965280
  0
VERTEX
  8
0
  6
CONTINUOUS
 10
1.189760
 20
3.963080
  0
SEQEND
  8
0
  0
TEXT
  8
0
 10
2.103640
 20
0.917840
 40
0.138213
  1
BA  791
 41
1.000000
  7
SN0
 71
     0
 72
     5
 11
2.694330
 21
0.917840
  0
TEXT
  8
0
 10
1.827760
 20
0.726440
 40
0.138213
  1
2-9/16" x 2-3/4"
 41
1.000000
  7
SN0
 71
     0
 72
     5
 11
2.969325
 21
0.726440
  0
POLYLINE
  8
0
  6
CONTINUOUS
 66
     1
 40
0.000000
 41
0.000000
  0
VERTEX
  8
0
  6
CONTINUOUS
 10
5.159880
 20
4.068240
  0
VERTEX
  8
0
  6
CONTINUOUS
 10
5.160320
 20
4.022480
  0
VERTEX
  8
0
  6
CONTINUOUS
 10
5.164280
 20
3.950320
  0
VERTEX
  8
0
  6
CONTINUOUS
 10
5.173080
 20
3.876400
  0
VERTEX
  8
0
  6
CONTINUOUS
 10
5.183200
 20
3.826680
  0
VERTEX
  8
0
  6
CONTINUOUS
 10
5.196400
 20
3.777840
  0
VERTEX
  8
0
  6
CONTINUOUS
 10
5.214440
 20
3.730320
  0
VERTEX
  8
0
  6
CONTINUOUS
 10
5.225000
 20
3.707000
  0
VERTEX
  8
0
  6
CONTINUOUS
 10
5.250520
 20
3.662120
  0
VERTEX
  8
0
  6
CONTINUOUS
 10
5.281320
 20
3.620320
  0
VERTEX
  8
0
  6
CONTINUOUS
 10
5.318720
 20
3.582040
  0
VERTEX
  8
0
  6
CONTINUOUS
 10
5.339840
 20
3.564000
  0
VERTEX
  8
0
  6
CONTINUOUS
 10
5.362720
 20
3.547280
  0
VERTEX
  8
0
  6
CONTINUOUS
 10
5.387360
 20
3.531880
  0
VERTEX
  8
0
  6
CONTINUOUS
 10
5.414200
 20
3.517360
  0
VERTEX
  8
0
  6
CONTINUOUS
 10
5.473600
 20
3.492720
  0
VERTEX
  8
0
  6
CONTINUOUS
 10
5.523320
 20
3.478200
  0
VERTEX
  8
0
  6
CONTINUOUS
 10
5.578760
 20
3.467200
  0
VERTEX
  8
0
  6
CONTINUOUS
 10
5.639040
 20
3.459720
  0
VERTEX
  8
0
  6
CONTINUOUS
 10
5.660160
 20
3.458400
  0
VERTEX
  8
0
  6
CONTINUOUS
 10
5.636840
 20
3.290320
  0
VERTEX
  8
0
  6
CONTINUOUS
 10
5.677760
 20
3.300000
  0
VERTEX
  8
0
  6
CONTINUOUS
 10
5.718240
 20
3.303960
  0
VERTEX
  8
0
  6
CONTINUOUS
 10
5.738040
 20
3.304400
  0
VERTEX
  8
0
  6
CONTINUOUS
 10
5.776320
 20
3.301320
  0
VERTEX
  8
0
  6
CONTINUOUS
 10
5.812400
 20
3.293400
  0
VERTEX
  8
0
  6
CONTINUOUS
 10
5.844960
 20
3.281080
  0
VERTEX
  8
0
  6
CONTINUOUS
 10
5.874000
 20
3.264360
  0
VERTEX
  8
0
  6
CONTINUOUS
 10
5.887200
 20
3.254680
  0
VERTEX
  8
0
  6
CONTINUOUS
 10
5.908760
 20
3.231800
  0
VERTEX
  8
0
  6
CONTINUOUS
 10
5.918000
 20
3.218600
  0
VERTEX
  8
0
  6
CONTINUOUS
 10
5.931200
 20
3.190000
  0
VERTEX
  8
0
  6
CONTINUOUS
 10
5.935160
 20
3.174600
  0
VERTEX
  8
0
  6
CONTINUOUS
 10
5.937360
 20
3.157880
  0
VERTEX
  8
0
  6
CONTINUOUS
 10
5.937800
 20
3.140720
  0
VERTEX
  8
0
  6
CONTINUOUS
 10
5.936480
 20
3.122240
  0
VERTEX
  8
0
  6
CONTINUOUS
 10
5.932960
 20
3.103320
  0
VERTEX
  8
0
  6
CONTINUOUS
 10
5.927240
 20
3.083520
  0
VERTEX
  8
0
  6
CONTINUOUS
 10
5.914920
 20
3.052280
  0
VERTEX
  8
0
  6
CONTINUOUS
 10
5.896880
 20
3.019720
  0
VERTEX
  8
0
  6
CONTINUOUS
 10
5.863880
 20
2.973520
  0
VERTEX
  8
0
  6
CONTINUOUS
 10
5.820320
 20
2.925120
  0
VERTEX
  8
0
  6
CONTINUOUS
 10
5.822080
 20
2.894760
  0
VERTEX
  8
0
  6
CONTINUOUS
 10
5.827800
 20
2.862640
  0
VERTEX
  8
0
  6
CONTINUOUS
 10
5.843640
 20
2.811160
  0
VERTEX
  8
0
  6
CONTINUOUS
 10
5.869160
 20
2.758360
  0
VERTEX
  8
0
  6
CONTINUOUS
 10
5.890280
 20
2.723600
  0
VERTEX
  8
0
  6
CONTINUOUS
 10
5.915800
 20
2.689280
  0
VERTEX
  8
0
  6
CONTINUOUS
 10
5.944400
 20
2.656280
  0
VERTEX
  8
0
  6
CONTINUOUS
 10
5.976960
 20
2.625040
  0
VERTEX
  8
0
  6
CONTINUOUS
 10
6.012600
 20
2.596440
  0
VERTEX
  8
0
  6
CONTINUOUS
 10
6.051760
 20
2.570920
  0
VERTEX
  8
0
  6
CONTINUOUS
 10
6.094000
 20
2.548920
  0
VERTEX
  8
0
  6
CONTINUOUS
 10
6.116440
 20
2.539240
  0
VERTEX
  8
0
  6
CONTINUOUS
 10
6.163520
 20
2.523840
  0
VERTEX
  8
0
  6
CONTINUOUS
 10
6.213240
 20
2.513720
  0
VERTEX
  8
0
  6
CONTINUOUS
 10
6.266480
 20
2.508880
  0
VERTEX
  8
0
  6
CONTINUOUS
 10
6.293760
 20
2.508880
  0
VERTEX
  8
0
  6
CONTINUOUS
 10
6.295520
 20
2.412080
  0
VERTEX
  8
0
  6
CONTINUOUS
 10
6.420480
 20
2.412080
  0
VERTEX
  8
0
  6
CONTINUOUS
 10
6.424440
 20
2.259400
  0
VERTEX
  8
0
  6
CONTINUOUS
 10
6.494840
 20
2.259840
  0
VERTEX
  8
0
  6
CONTINUOUS
 10
6.563920
 20
2.256760
  0
VERTEX
  8
0
  6
CONTINUOUS
 10
6.631240
 20
2.250160
  0
VERTEX
  8
0
  6
CONTINUOUS
 10
6.696800
 20
2.240480
  0
VERTEX
  8
0
  6
CONTINUOUS
 10
6.760600
 20
2.228160
  0
VERTEX
  8
0
  6
CONTINUOUS
 10
6.821760
 20
2.212760
  0
VERTEX
  8
0
  6
CONTINUOUS
 10
6.908880
 20
2.185040
  0
VERTEX
  8
0
  6
CONTINUOUS
 10
6.990280
 20
2.152040
  0
VERTEX
  8
0
  6
CONTINUOUS
 10
7.040440
 20
2.127400
  0
VERTEX
  8
0
  6
CONTINUOUS
 10
7.109520
 20
2.086920
  0
VERTEX
  8
0
  6
CONTINUOUS
 10
7.150880
 20
2.057880
  0
VERTEX
  8
0
  6
CONTINUOUS
 10
7.205880
 20
2.012120
  0
VERTEX
  8
0
  6
CONTINUOUS
 10
7.237560
 20
1.979560
  0
VERTEX
  8
0
  6
CONTINUOUS
 10
7.265280
 20
1.946560
  0
VERTEX
  8
0
  6
CONTINUOUS
 10
7.287720
 20
1.912680
  0
VERTEX
  8
0
  6
CONTINUOUS
 10
7.306200
 20
1.877920
  0
VERTEX
  8
0
  6
CONTINUOUS
 10
7.318960
 20
1.842720
  0
VERTEX
  8
0
  6
CONTINUOUS
 10
7.323800
 20
1.825120
  0
VERTEX
  8
0
  6
CONTINUOUS
 10
7.329080
 20
1.789480
  0
VERTEX
  8
0
  6
CONTINUOUS
 10
7.329520
 20
1.771880
  0
VERTEX
  8
0
  6
CONTINUOUS
 10
7.326440
 20
1.736240
  0
VERTEX
  8
0
  6
CONTINUOUS
 10
7.318080
 20
1.701480
  0
VERTEX
  8
0
  6
CONTINUOUS
 10
7.311480
 20
1.683880
  0
VERTEX
  8
0
  6
CONTINUOUS
 10
7.293440
 20
1.649560
  0
VERTEX
  8
0
  6
CONTINUOUS
 10
7.269240
 20
1.615680
  0
VERTEX
  8
0
  6
CONTINUOUS
 10
7.238880
 20
1.582680
  0
VERTEX
  8
0
  6
CONTINUOUS
 10
7.201480
 20
1.551000
  0
VERTEX
  8
0
  6
CONTINUOUS
 10
7.157040
 20
1.520640
  0
VERTEX
  8
0
  6
CONTINUOUS
 10
7.132400
 20
1.505680
  0
VERTEX
  8
0
  6
CONTINUOUS
 10
7.076960
 20
1.477520
  0
VERTEX
  8
0
  6
CONTINUOUS
 10
7.014480
 20
1.450680
  0
VERTEX
  8
0
  6
CONTINUOUS
 10
6.944520
 20
1.426040
  0
VERTEX
  8
0
  6
CONTINUOUS
 10
6.913280
 20
1.324400
  0
VERTEX
  8
0
  6
CONTINUOUS
 10
4.774000
 20
1.324400
  0
VERTEX
  8
0
  6
CONTINUOUS
 10
4.774000
 20
4.070880
  0
VERTEX
  8
0
  6
CONTINUOUS
 10
5.159880
 20
4.070880
  0
SEQEND
  8
0
  0
ENDSEC
  0
EOF
