  0
SECTION
  2
HEADER
  9
$ACADVER
  1
AC1006
  9
$EXTMIN
 10
2.575320
 20
0.671000
  9
$EXTMAX
 10
6.863120
 20
3.762000
  9
$LTSCALE
 40
0.044000
  9
$PDMODE
 70
    35
  9
$PDSIZE
 40
0.035200
  0
ENDSEC
  0
SECTION
  2
TABLES
  0
TABLE
  2
LTYPE
 70
     9
  0
LTYPE
  2
CONTINUOUS
 70
    64
  3
Solid line
 72
    65
 73
     0
 40
0.000000
  0
LTYPE
  2
DASHED
 70
    64
  3
__ __ __ __ __ __ __ __ __ __ __ __ __ __ __
 72
    65
 73
     2
 40
0.000330
 49
0.000220
 49
-0.000110
  0
LTYPE
  2
HIDDEN
 70
    64
  3
 _ _ _ _ _ _ _ _ _ _ _ _ _ _ _ _ _ _ _ _ _ _
 72
    65
 73
     2
 40
0.000165
 49
0.000110
 49
-0.000055
  0
LTYPE
  2
CENTER
 70
    64
  3
____ _ ____ _ ____ _ ____ _ ____ _ ____ _ ____
 72
    65
 73
     4
 40
0.000880
 49
0.000550
 49
-0.000110
 49
0.000110
 49
-0.000110
  0
LTYPE
  2
PHANTOM
 70
    64
  3
_____ _ _ _____ _ _ _____ _ _ _____ _ _ ____
 72
    65
 73
     6
 40
0.001100
 49
0.000550
 49
-0.000110
 49
0.000110
 49
-0.000110
 49
0.000110
 49
-0.000110
  0
LTYPE
  2
DOT
 70
    64
  3
...............................................
 72
    65
 73
     2
 40
0.000110
 49
0.000000
 49
-0.000110
  0
LTYPE
  2
DASHDOT
 70
    64
  3
__ . __ . __ . __ . __ . __ . __ . __ . __ . __
 72
    65
 73
     4
 40
0.000440
 49
0.000220
 49
-0.000110
 49
0.000000
 49
-0.000110
  0
LTYPE
  2
BORDER
 70
    64
  3
__ __ . __ __ . __ __ . __ __ . __ __ . __ __
 72
    65
 73
     6
 40
0.000770
 49
0.000220
 49
-0.000110
 49
0.000220
 49
-0.000110
 49
0.000000
 49
-0.000110
  0
LTYPE
  2
DIVIDE
 70
    64
  3
__ . . __ . . __ . . __ . . __ . . __ . . __
 72
    65
 73
     6
 40
0.000550
 49
0.000220
 49
-0.000110
 49
0.000000
 49
-0.000110
 49
0.000000
 49
-0.000110
  0
LTYPE
  2
DOTDOT
 70
    64
  3
 . .  . .  . .  . .  . .  . . 
 72
    65
 73
     5
 40
0.000242
 49
-0.000110
 49
0.000000
 49
-0.000110
 49
0.000000
 49
-0.000110
  0
ENDTAB
  0
TABLE
  2
STYLE
 70
     2
  0
STYLE
 70
     0
  2
SN0
 40
0.000000
 41
0.000440
 50
0.000000
 71
     0
 42
0.000000
  3
ROMAND
  0
STYLE
 70
    68
  2
SV0
 40
0.000000
 41
0.000440
 50
0.000000
 71
     0
 42
0.000000
  3
ROMAND
  0
ENDTAB
  0
TABLE
  2
LAYER
 70
     3
  0
LAYER
  2
FOREGROUND
 70
    64
 62
     7
  6
CONTINUOUS
  0
LAYER
  2
BACKGROUND
 70
    65
 62
    -7
  6
CONTINUOUS
  0
LAYER
  2
0
 70
    64
 62
     7
  6
CONTINUOUS
  0
ENDTAB
  0
ENDSEC
  0
SECTION
  2
ENTITIES
  0
POLYLINE
  8
FOREGROUND
  6
CONTINUOUS
 66
     1
 40
0.000000
 41
0.000000
  0
VERTEX
  8
FOREGROUND
  6
CONTINUOUS
 10
0.000000
 20
4.433000
  0
VERTEX
  8
FOREGROUND
  6
CONTINUOUS
 10
8.499920
 20
4.433000
  0
VERTEX
  8
FOREGROUND
  6
CONTINUOUS
 10
8.499920
 20
-6.567000
  0
VERTEX
  8
FOREGROUND
  6
CONTINUOUS
 10
0.000000
 20
-6.567000
  0
VERTEX
  8
FOREGROUND
  6
CONTINUOUS
 10
0.000000
 20
4.433000
  0
SEQEND
  8
0
  0
POLYLINE
  8
FOREGROUND
  6
CONTINUOUS
 66
     1
 40
0.000000
 41
0.000000
  0
VERTEX
  8
FOREGROUND
  6
CONTINUOUS
 10
0.000000
 20
4.433000
  0
VERTEX
  8
FOREGROUND
  6
CONTINUOUS
 10
8.499920
 20
4.433000
  0
VERTEX
  8
FOREGROUND
  6
CONTINUOUS
 10
8.499920
 20
-6.567000
  0
VERTEX
  8
FOREGROUND
  6
CONTINUOUS
 10
0.000000
 20
-6.567000
  0
VERTEX
  8
FOREGROUND
  6
CONTINUOUS
 10
0.000000
 20
4.433000
  0
SEQEND
  8
0
  0
SOLID
  8
0
 62
    15
 10
4.586120
 20
1.698400
 11
4.589640
 21
2.449040
 12
4.592280
 22
1.641640
 13
4.596240
 23
2.392280
  0
POLYLINE
  8
0
  6
CONTINUOUS
 66
     1
 40
0.000000
 41
0.000000
  0
VERTEX
  8
0
  6
CONTINUOUS
 10
4.586120
 20
1.698400
  0
VERTEX
  8
0
  6
CONTINUOUS
 10
4.589640
 20
2.449040
  0
VERTEX
  8
0
  6
CONTINUOUS
 10
4.596240
 20
2.392280
  0
VERTEX
  8
0
  6
CONTINUOUS
 10
4.592280
 20
1.641640
  0
VERTEX
  8
0
  6
CONTINUOUS
 10
4.586120
 20
1.698400
  0
SEQEND
  8
0
  0
SOLID
  8
0
 62
    15
 10
3.665640
 20
1.868680
 11
3.669600
 21
2.619320
 12
3.693800
 22
1.868680
 13
3.697760
 23
2.619320
  0
POLYLINE
  8
0
  6
CONTINUOUS
 66
     1
 40
0.000000
 41
0.000000
  0
VERTEX
  8
0
  6
CONTINUOUS
 10
3.665640
 20
1.868680
  0
VERTEX
  8
0
  6
CONTINUOUS
 10
3.669600
 20
2.619320
  0
VERTEX
  8
0
  6
CONTINUOUS
 10
3.697760
 20
2.619320
  0
VERTEX
  8
0
  6
CONTINUOUS
 10
3.693800
 20
1.868680
  0
VERTEX
  8
0
  6
CONTINUOUS
 10
3.665640
 20
1.868680
  0
SEQEND
  8
0
  0
SOLID
  8
0
 62
    15
 10
3.693800
 20
1.868680
 11
3.697760
 21
2.619320
 12
3.722840
 22
1.908280
 13
3.726800
 23
2.658920
  0
POLYLINE
  8
0
  6
CONTINUOUS
 66
     1
 40
0.000000
 41
0.000000
  0
VERTEX
  8
0
  6
CONTINUOUS
 10
3.693800
 20
1.868680
  0
VERTEX
  8
0
  6
CONTINUOUS
 10
3.697760
 20
2.619320
  0
VERTEX
  8
0
  6
CONTINUOUS
 10
3.726800
 20
2.658920
  0
VERTEX
  8
0
  6
CONTINUOUS
 10
3.722840
 20
1.908280
  0
VERTEX
  8
0
  6
CONTINUOUS
 10
3.693800
 20
1.868680
  0
SEQEND
  8
0
  0
SOLID
  8
0
 62
    15
 10
3.722840
 20
1.908280
 11
3.726800
 21
2.658920
 12
3.756280
 22
1.935120
 13
3.760240
 23
2.685760
  0
POLYLINE
  8
0
  6
CONTINUOUS
 66
     1
 40
0.000000
 41
0.000000
  0
VERTEX
  8
0
  6
CONTINUOUS
 10
3.722840
 20
1.908280
  0
VERTEX
  8
0
  6
CONTINUOUS
 10
3.726800
 20
2.658920
  0
VERTEX
  8
0
  6
CONTINUOUS
 10
3.760240
 20
2.685760
  0
VERTEX
  8
0
  6
CONTINUOUS
 10
3.756280
 20
1.935120
  0
VERTEX
  8
0
  6
CONTINUOUS
 10
3.722840
 20
1.908280
  0
SEQEND
  8
0
  0
SOLID
  8
0
 62
    15
 10
3.756280
 20
1.935120
 11
3.760240
 21
2.685760
 12
3.794120
 22
1.949640
 13
3.798080
 23
2.700280
  0
POLYLINE
  8
0
  6
CONTINUOUS
 66
     1
 40
0.000000
 41
0.000000
  0
VERTEX
  8
0
  6
CONTINUOUS
 10
3.756280
 20
1.935120
  0
VERTEX
  8
0
  6
CONTINUOUS
 10
3.760240
 20
2.685760
  0
VERTEX
  8
0
  6
CONTINUOUS
 10
3.798080
 20
2.700280
  0
VERTEX
  8
0
  6
CONTINUOUS
 10
3.794120
 20
1.949640
  0
VERTEX
  8
0
  6
CONTINUOUS
 10
3.756280
 20
1.935120
  0
SEQEND
  8
0
  0
SOLID
  8
0
 62
    15
 10
3.794120
 20
1.949640
 11
3.798080
 21
2.700280
 12
3.836360
 22
1.951400
 13
3.840320
 23
2.702040
  0
POLYLINE
  8
0
  6
CONTINUOUS
 66
     1
 40
0.000000
 41
0.000000
  0
VERTEX
  8
0
  6
CONTINUOUS
 10
3.794120
 20
1.949640
  0
VERTEX
  8
0
  6
CONTINUOUS
 10
3.798080
 20
2.700280
  0
VERTEX
  8
0
  6
CONTINUOUS
 10
3.840320
 20
2.702040
  0
VERTEX
  8
0
  6
CONTINUOUS
 10
3.836360
 20
1.951400
  0
VERTEX
  8
0
  6
CONTINUOUS
 10
3.794120
 20
1.949640
  0
SEQEND
  8
0
  0
SOLID
  8
0
 62
    15
 10
3.836360
 20
1.951400
 11
3.840320
 21
2.702040
 12
3.882560
 22
1.941280
 13
3.886520
 23
2.691920
  0
POLYLINE
  8
0
  6
CONTINUOUS
 66
     1
 40
0.000000
 41
0.000000
  0
VERTEX
  8
0
  6
CONTINUOUS
 10
3.836360
 20
1.951400
  0
VERTEX
  8
0
  6
CONTINUOUS
 10
3.840320
 20
2.702040
  0
VERTEX
  8
0
  6
CONTINUOUS
 10
3.886520
 20
2.691920
  0
VERTEX
  8
0
  6
CONTINUOUS
 10
3.882560
 20
1.941280
  0
VERTEX
  8
0
  6
CONTINUOUS
 10
3.836360
 20
1.951400
  0
SEQEND
  8
0
  0
SOLID
  8
0
 62
    15
 10
3.882560
 20
1.941280
 11
3.886520
 21
2.691920
 12
3.932720
 22
1.919280
 13
3.936680
 23
2.669920
  0
POLYLINE
  8
0
  6
CONTINUOUS
 66
     1
 40
0.000000
 41
0.000000
  0
VERTEX
  8
0
  6
CONTINUOUS
 10
3.882560
 20
1.941280
  0
VERTEX
  8
0
  6
CONTINUOUS
 10
3.886520
 20
2.691920
  0
VERTEX
  8
0
  6
CONTINUOUS
 10
3.936680
 20
2.669920
  0
VERTEX
  8
0
  6
CONTINUOUS
 10
3.932720
 20
1.919280
  0
VERTEX
  8
0
  6
CONTINUOUS
 10
3.882560
 20
1.941280
  0
SEQEND
  8
0
  0
SOLID
  8
0
 62
    15
 10
3.932720
 20
1.919280
 11
3.936680
 21
2.669920
 12
3.986400
 22
1.885400
 13
3.990360
 23
2.636040
  0
POLYLINE
  8
0
  6
CONTINUOUS
 66
     1
 40
0.000000
 41
0.000000
  0
VERTEX
  8
0
  6
CONTINUOUS
 10
3.932720
 20
1.919280
  0
VERTEX
  8
0
  6
CONTINUOUS
 10
3.936680
 20
2.669920
  0
VERTEX
  8
0
  6
CONTINUOUS
 10
3.990360
 20
2.636040
  0
VERTEX
  8
0
  6
CONTINUOUS
 10
3.986400
 20
1.885400
  0
VERTEX
  8
0
  6
CONTINUOUS
 10
3.932720
 20
1.919280
  0
SEQEND
  8
0
  0
SOLID
  8
0
 62
    15
 10
3.986400
 20
1.885400
 11
3.990360
 21
2.636040
 12
4.044040
 22
1.840080
 13
4.047560
 23
2.590720
  0
POLYLINE
  8
0
  6
CONTINUOUS
 66
     1
 40
0.000000
 41
0.000000
  0
VERTEX
  8
0
  6
CONTINUOUS
 10
3.986400
 20
1.885400
  0
VERTEX
  8
0
  6
CONTINUOUS
 10
3.990360
 20
2.636040
  0
VERTEX
  8
0
  6
CONTINUOUS
 10
4.047560
 20
2.590720
  0
VERTEX
  8
0
  6
CONTINUOUS
 10
4.044040
 20
1.840080
  0
VERTEX
  8
0
  6
CONTINUOUS
 10
3.986400
 20
1.885400
  0
SEQEND
  8
0
  0
SOLID
  8
0
 62
    15
 10
4.044040
 20
1.840080
 11
4.047560
 21
2.590720
 12
4.106520
 22
1.796080
 13
4.110480
 23
2.546720
  0
POLYLINE
  8
0
  6
CONTINUOUS
 66
     1
 40
0.000000
 41
0.000000
  0
VERTEX
  8
0
  6
CONTINUOUS
 10
4.044040
 20
1.840080
  0
VERTEX
  8
0
  6
CONTINUOUS
 10
4.047560
 20
2.590720
  0
VERTEX
  8
0
  6
CONTINUOUS
 10
4.110480
 20
2.546720
  0
VERTEX
  8
0
  6
CONTINUOUS
 10
4.106520
 20
1.796080
  0
VERTEX
  8
0
  6
CONTINUOUS
 10
4.044040
 20
1.840080
  0
SEQEND
  8
0
  0
SOLID
  8
0
 62
    15
 10
4.106520
 20
1.796080
 11
4.110480
 21
2.546720
 12
4.174720
 22
1.763520
 13
4.178680
 23
2.514160
  0
POLYLINE
  8
0
  6
CONTINUOUS
 66
     1
 40
0.000000
 41
0.000000
  0
VERTEX
  8
0
  6
CONTINUOUS
 10
4.106520
 20
1.796080
  0
VERTEX
  8
0
  6
CONTINUOUS
 10
4.110480
 20
2.546720
  0
VERTEX
  8
0
  6
CONTINUOUS
 10
4.178680
 20
2.514160
  0
VERTEX
  8
0
  6
CONTINUOUS
 10
4.174720
 20
1.763520
  0
VERTEX
  8
0
  6
CONTINUOUS
 10
4.106520
 20
1.796080
  0
SEQEND
  8
0
  0
SOLID
  8
0
 62
    15
 10
4.174720
 20
1.763520
 11
4.178680
 21
2.514160
 12
4.246440
 22
1.740640
 13
4.250400
 23
2.491280
  0
POLYLINE
  8
0
  6
CONTINUOUS
 66
     1
 40
0.000000
 41
0.000000
  0
VERTEX
  8
0
  6
CONTINUOUS
 10
4.174720
 20
1.763520
  0
VERTEX
  8
0
  6
CONTINUOUS
 10
4.178680
 20
2.514160
  0
VERTEX
  8
0
  6
CONTINUOUS
 10
4.250400
 20
2.491280
  0
VERTEX
  8
0
  6
CONTINUOUS
 10
4.246440
 20
1.740640
  0
VERTEX
  8
0
  6
CONTINUOUS
 10
4.174720
 20
1.763520
  0
SEQEND
  8
0
  0
SOLID
  8
0
 62
    15
 10
4.246440
 20
1.740640
 11
4.250400
 21
2.491280
 12
4.319480
 22
1.725680
 13
4.323440
 23
2.476320
  0
POLYLINE
  8
0
  6
CONTINUOUS
 66
     1
 40
0.000000
 41
0.000000
  0
VERTEX
  8
0
  6
CONTINUOUS
 10
4.246440
 20
1.740640
  0
VERTEX
  8
0
  6
CONTINUOUS
 10
4.250400
 20
2.491280
  0
VERTEX
  8
0
  6
CONTINUOUS
 10
4.323440
 20
2.476320
  0
VERTEX
  8
0
  6
CONTINUOUS
 10
4.319480
 20
1.725680
  0
VERTEX
  8
0
  6
CONTINUOUS
 10
4.246440
 20
1.740640
  0
SEQEND
  8
0
  0
SOLID
  8
0
 62
    15
 10
4.319480
 20
1.725680
 11
4.323440
 21
2.476320
 12
4.392080
 22
1.716000
 13
4.396040
 23
2.466640
  0
POLYLINE
  8
0
  6
CONTINUOUS
 66
     1
 40
0.000000
 41
0.000000
  0
VERTEX
  8
0
  6
CONTINUOUS
 10
4.319480
 20
1.725680
  0
VERTEX
  8
0
  6
CONTINUOUS
 10
4.323440
 20
2.476320
  0
VERTEX
  8
0
  6
CONTINUOUS
 10
4.396040
 20
2.466640
  0
VERTEX
  8
0
  6
CONTINUOUS
 10
4.392080
 20
1.716000
  0
VERTEX
  8
0
  6
CONTINUOUS
 10
4.319480
 20
1.725680
  0
SEQEND
  8
0
  0
SOLID
  8
0
 62
    15
 10
4.392080
 20
1.716000
 11
4.396040
 21
2.466640
 12
4.462480
 22
1.709400
 13
4.466000
 23
2.460040
  0
POLYLINE
  8
0
  6
CONTINUOUS
 66
     1
 40
0.000000
 41
0.000000
  0
VERTEX
  8
0
  6
CONTINUOUS
 10
4.392080
 20
1.716000
  0
VERTEX
  8
0
  6
CONTINUOUS
 10
4.396040
 20
2.466640
  0
VERTEX
  8
0
  6
CONTINUOUS
 10
4.466000
 20
2.460040
  0
VERTEX
  8
0
  6
CONTINUOUS
 10
4.462480
 20
1.709400
  0
VERTEX
  8
0
  6
CONTINUOUS
 10
4.392080
 20
1.716000
  0
SEQEND
  8
0
  0
SOLID
  8
0
 62
    15
 10
4.462480
 20
1.709400
 11
4.466000
 21
2.460040
 12
4.495480
 22
1.706760
 13
4.499440
 23
2.457400
  0
POLYLINE
  8
0
  6
CONTINUOUS
 66
     1
 40
0.000000
 41
0.000000
  0
VERTEX
  8
0
  6
CONTINUOUS
 10
4.462480
 20
1.709400
  0
VERTEX
  8
0
  6
CONTINUOUS
 10
4.466000
 20
2.460040
  0
VERTEX
  8
0
  6
CONTINUOUS
 10
4.499440
 20
2.457400
  0
VERTEX
  8
0
  6
CONTINUOUS
 10
4.495480
 20
1.706760
  0
VERTEX
  8
0
  6
CONTINUOUS
 10
4.462480
 20
1.709400
  0
SEQEND
  8
0
  0
SOLID
  8
0
 62
    15
 10
4.495480
 20
1.706760
 11
4.499440
 21
2.457400
 12
4.527600
 22
1.704560
 13
4.531120
 23
2.455200
  0
POLYLINE
  8
0
  6
CONTINUOUS
 66
     1
 40
0.000000
 41
0.000000
  0
VERTEX
  8
0
  6
CONTINUOUS
 10
4.495480
 20
1.706760
  0
VERTEX
  8
0
  6
CONTINUOUS
 10
4.499440
 20
2.457400
  0
VERTEX
  8
0
  6
CONTINUOUS
 10
4.531120
 20
2.455200
  0
VERTEX
  8
0
  6
CONTINUOUS
 10
4.527600
 20
1.704560
  0
VERTEX
  8
0
  6
CONTINUOUS
 10
4.495480
 20
1.706760
  0
SEQEND
  8
0
  0
SOLID
  8
0
 62
    15
 10
4.527600
 20
1.704560
 11
4.531120
 21
2.455200
 12
4.586120
 22
1.698400
 13
4.589640
 23
2.449040
  0
POLYLINE
  8
0
  6
CONTINUOUS
 66
     1
 40
0.000000
 41
0.000000
  0
VERTEX
  8
0
  6
CONTINUOUS
 10
4.527600
 20
1.704560
  0
VERTEX
  8
0
  6
CONTINUOUS
 10
4.531120
 20
2.455200
  0
VERTEX
  8
0
  6
CONTINUOUS
 10
4.589640
 20
2.449040
  0
VERTEX
  8
0
  6
CONTINUOUS
 10
4.586120
 20
1.698400
  0
VERTEX
  8
0
  6
CONTINUOUS
 10
4.527600
 20
1.704560
  0
SEQEND
  8
0
  0
SOLID
  8
0
 62
    15
 10
3.643640
 20
1.988360
 11
3.647160
 21
2.739000
 12
3.665640
 22
1.868680
 13
3.669600
 23
2.619320
  0
POLYLINE
  8
0
  6
CONTINUOUS
 66
     1
 40
0.000000
 41
0.000000
  0
VERTEX
  8
0
  6
CONTINUOUS
 10
3.643640
 20
1.988360
  0
VERTEX
  8
0
  6
CONTINUOUS
 10
3.647160
 20
2.739000
  0
VERTEX
  8
0
  6
CONTINUOUS
 10
3.669600
 20
2.619320
  0
VERTEX
  8
0
  6
CONTINUOUS
 10
3.665640
 20
1.868680
  0
VERTEX
  8
0
  6
CONTINUOUS
 10
3.643640
 20
1.988360
  0
SEQEND
  8
0
  0
SOLID
  8
0
 62
    15
 10
4.592280
 20
1.641640
 11
4.596240
 21
2.392280
 12
4.721640
 22
1.641640
 13
4.725160
 23
2.392280
  0
POLYLINE
  8
0
  6
CONTINUOUS
 66
     1
 40
0.000000
 41
0.000000
  0
VERTEX
  8
0
  6
CONTINUOUS
 10
4.592280
 20
1.641640
  0
VERTEX
  8
0
  6
CONTINUOUS
 10
4.596240
 20
2.392280
  0
VERTEX
  8
0
  6
CONTINUOUS
 10
4.725160
 20
2.392280
  0
VERTEX
  8
0
  6
CONTINUOUS
 10
4.721640
 20
1.641640
  0
VERTEX
  8
0
  6
CONTINUOUS
 10
4.592280
 20
1.641640
  0
SEQEND
  8
0
  0
SOLID
  8
0
 62
    15
 10
4.721640
 20
1.641640
 11
4.725160
 21
2.392280
 12
4.730880
 22
1.569040
 13
4.734840
 23
2.319680
  0
POLYLINE
  8
0
  6
CONTINUOUS
 66
     1
 40
0.000000
 41
0.000000
  0
VERTEX
  8
0
  6
CONTINUOUS
 10
4.721640
 20
1.641640
  0
VERTEX
  8
0
  6
CONTINUOUS
 10
4.725160
 20
2.392280
  0
VERTEX
  8
0
  6
CONTINUOUS
 10
4.734840
 20
2.319680
  0
VERTEX
  8
0
  6
CONTINUOUS
 10
4.730880
 20
1.569040
  0
VERTEX
  8
0
  6
CONTINUOUS
 10
4.721640
 20
1.641640
  0
SEQEND
  8
0
  0
SOLID
  8
0
 62
    15
 10
6.578000
 20
1.470480
 11
6.581520
 21
2.221120
 12
6.632120
 22
1.464760
 13
6.636080
 23
2.215400
  0
POLYLINE
  8
0
  6
CONTINUOUS
 66
     1
 40
0.000000
 41
0.000000
  0
VERTEX
  8
0
  6
CONTINUOUS
 10
6.578000
 20
1.470480
  0
VERTEX
  8
0
  6
CONTINUOUS
 10
6.581520
 20
2.221120
  0
VERTEX
  8
0
  6
CONTINUOUS
 10
6.636080
 20
2.215400
  0
VERTEX
  8
0
  6
CONTINUOUS
 10
6.632120
 20
1.464760
  0
VERTEX
  8
0
  6
CONTINUOUS
 10
6.578000
 20
1.470480
  0
SEQEND
  8
0
  0
SOLID
  8
0
 62
    15
 10
6.575360
 20
1.546600
 11
6.579320
 21
2.297240
 12
6.578000
 22
1.470480
 13
6.581520
 23
2.221120
  0
POLYLINE
  8
0
  6
CONTINUOUS
 66
     1
 40
0.000000
 41
0.000000
  0
VERTEX
  8
0
  6
CONTINUOUS
 10
6.575360
 20
1.546600
  0
VERTEX
  8
0
  6
CONTINUOUS
 10
6.579320
 20
2.297240
  0
VERTEX
  8
0
  6
CONTINUOUS
 10
6.581520
 20
2.221120
  0
VERTEX
  8
0
  6
CONTINUOUS
 10
6.578000
 20
1.470480
  0
VERTEX
  8
0
  6
CONTINUOUS
 10
6.575360
 20
1.546600
  0
SEQEND
  8
0
  0
SOLID
  8
0
 62
    15
 10
4.730880
 20
1.569040
 11
4.734840
 21
2.319680
 12
6.575360
 22
1.546600
 13
6.579320
 23
2.297240
  0
POLYLINE
  8
0
  6
CONTINUOUS
 66
     1
 40
0.000000
 41
0.000000
  0
VERTEX
  8
0
  6
CONTINUOUS
 10
4.730880
 20
1.569040
  0
VERTEX
  8
0
  6
CONTINUOUS
 10
4.734840
 20
2.319680
  0
VERTEX
  8
0
  6
CONTINUOUS
 10
6.579320
 20
2.297240
  0
VERTEX
  8
0
  6
CONTINUOUS
 10
6.575360
 20
1.546600
  0
VERTEX
  8
0
  6
CONTINUOUS
 10
4.730880
 20
1.569040
  0
SEQEND
  8
0
  0
SOLID
  8
0
 62
    15
 10
6.632120
 20
1.464760
 11
6.636080
 21
2.215400
 12
6.677440
 22
1.451560
 13
6.681400
 23
2.202200
  0
POLYLINE
  8
0
  6
CONTINUOUS
 66
     1
 40
0.000000
 41
0.000000
  0
VERTEX
  8
0
  6
CONTINUOUS
 10
6.632120
 20
1.464760
  0
VERTEX
  8
0
  6
CONTINUOUS
 10
6.636080
 20
2.215400
  0
VERTEX
  8
0
  6
CONTINUOUS
 10
6.681400
 20
2.202200
  0
VERTEX
  8
0
  6
CONTINUOUS
 10
6.677440
 20
1.451560
  0
VERTEX
  8
0
  6
CONTINUOUS
 10
6.632120
 20
1.464760
  0
SEQEND
  8
0
  0
SOLID
  8
0
 62
    15
 10
6.677440
 20
1.451560
 11
6.681400
 21
2.202200
 12
6.714840
 22
1.432640
 13
6.718800
 23
2.183280
  0
POLYLINE
  8
0
  6
CONTINUOUS
 66
     1
 40
0.000000
 41
0.000000
  0
VERTEX
  8
0
  6
CONTINUOUS
 10
6.677440
 20
1.451560
  0
VERTEX
  8
0
  6
CONTINUOUS
 10
6.681400
 20
2.202200
  0
VERTEX
  8
0
  6
CONTINUOUS
 10
6.718800
 20
2.183280
  0
VERTEX
  8
0
  6
CONTINUOUS
 10
6.714840
 20
1.432640
  0
VERTEX
  8
0
  6
CONTINUOUS
 10
6.677440
 20
1.451560
  0
SEQEND
  8
0
  0
SOLID
  8
0
 62
    15
 10
6.714840
 20
1.432640
 11
6.718800
 21
2.183280
 12
6.744760
 22
1.411080
 13
6.748720
 23
2.161720
  0
POLYLINE
  8
0
  6
CONTINUOUS
 66
     1
 40
0.000000
 41
0.000000
  0
VERTEX
  8
0
  6
CONTINUOUS
 10
6.714840
 20
1.432640
  0
VERTEX
  8
0
  6
CONTINUOUS
 10
6.718800
 20
2.183280
  0
VERTEX
  8
0
  6
CONTINUOUS
 10
6.748720
 20
2.161720
  0
VERTEX
  8
0
  6
CONTINUOUS
 10
6.744760
 20
1.411080
  0
VERTEX
  8
0
  6
CONTINUOUS
 10
6.714840
 20
1.432640
  0
SEQEND
  8
0
  0
SOLID
  8
0
 62
    15
 10
6.744760
 20
1.411080
 11
6.748720
 21
2.161720
 12
6.768080
 22
1.388200
 13
6.772040
 23
2.138840
  0
POLYLINE
  8
0
  6
CONTINUOUS
 66
     1
 40
0.000000
 41
0.000000
  0
VERTEX
  8
0
  6
CONTINUOUS
 10
6.744760
 20
1.411080
  0
VERTEX
  8
0
  6
CONTINUOUS
 10
6.748720
 20
2.161720
  0
VERTEX
  8
0
  6
CONTINUOUS
 10
6.772040
 20
2.138840
  0
VERTEX
  8
0
  6
CONTINUOUS
 10
6.768080
 20
1.388200
  0
VERTEX
  8
0
  6
CONTINUOUS
 10
6.744760
 20
1.411080
  0
SEQEND
  8
0
  0
SOLID
  8
0
 62
    15
 10
6.768080
 20
1.388200
 11
6.772040
 21
2.138840
 12
6.785680
 22
1.366640
 13
6.789640
 23
2.117280
  0
POLYLINE
  8
0
  6
CONTINUOUS
 66
     1
 40
0.000000
 41
0.000000
  0
VERTEX
  8
0
  6
CONTINUOUS
 10
6.768080
 20
1.388200
  0
VERTEX
  8
0
  6
CONTINUOUS
 10
6.772040
 20
2.138840
  0
VERTEX
  8
0
  6
CONTINUOUS
 10
6.789640
 20
2.117280
  0
VERTEX
  8
0
  6
CONTINUOUS
 10
6.785680
 20
1.366640
  0
VERTEX
  8
0
  6
CONTINUOUS
 10
6.768080
 20
1.388200
  0
SEQEND
  8
0
  0
SOLID
  8
0
 62
    15
 10
6.785680
 20
1.366640
 11
6.789640
 21
2.117280
 12
6.798000
 22
1.348160
 13
6.801960
 23
2.098800
  0
POLYLINE
  8
0
  6
CONTINUOUS
 66
     1
 40
0.000000
 41
0.000000
  0
VERTEX
  8
0
  6
CONTINUOUS
 10
6.785680
 20
1.366640
  0
VERTEX
  8
0
  6
CONTINUOUS
 10
6.789640
 20
2.117280
  0
VERTEX
  8
0
  6
CONTINUOUS
 10
6.801960
 20
2.098800
  0
VERTEX
  8
0
  6
CONTINUOUS
 10
6.798000
 20
1.348160
  0
VERTEX
  8
0
  6
CONTINUOUS
 10
6.785680
 20
1.366640
  0
SEQEND
  8
0
  0
SOLID
  8
0
 62
    15
 10
6.798000
 20
1.348160
 11
6.801960
 21
2.098800
 12
6.806360
 22
1.334960
 13
6.809880
 23
2.085600
  0
POLYLINE
  8
0
  6
CONTINUOUS
 66
     1
 40
0.000000
 41
0.000000
  0
VERTEX
  8
0
  6
CONTINUOUS
 10
6.798000
 20
1.348160
  0
VERTEX
  8
0
  6
CONTINUOUS
 10
6.801960
 20
2.098800
  0
VERTEX
  8
0
  6
CONTINUOUS
 10
6.809880
 20
2.085600
  0
VERTEX
  8
0
  6
CONTINUOUS
 10
6.806360
 20
1.334960
  0
VERTEX
  8
0
  6
CONTINUOUS
 10
6.798000
 20
1.348160
  0
SEQEND
  8
0
  0
SOLID
  8
0
 62
    15
 10
6.806360
 20
1.334960
 11
6.809880
 21
2.085600
 12
6.832760
 22
1.298440
 13
6.836720
 23
2.049080
  0
POLYLINE
  8
0
  6
CONTINUOUS
 66
     1
 40
0.000000
 41
0.000000
  0
VERTEX
  8
0
  6
CONTINUOUS
 10
6.806360
 20
1.334960
  0
VERTEX
  8
0
  6
CONTINUOUS
 10
6.809880
 20
2.085600
  0
VERTEX
  8
0
  6
CONTINUOUS
 10
6.836720
 20
2.049080
  0
VERTEX
  8
0
  6
CONTINUOUS
 10
6.832760
 20
1.298440
  0
VERTEX
  8
0
  6
CONTINUOUS
 10
6.806360
 20
1.334960
  0
SEQEND
  8
0
  0
SOLID
  8
0
 62
    15
 10
6.832760
 20
1.298440
 11
6.836720
 21
2.049080
 12
6.846400
 22
1.286120
 13
6.850360
 23
2.036760
  0
POLYLINE
  8
0
  6
CONTINUOUS
 66
     1
 40
0.000000
 41
0.000000
  0
VERTEX
  8
0
  6
CONTINUOUS
 10
6.832760
 20
1.298440
  0
VERTEX
  8
0
  6
CONTINUOUS
 10
6.836720
 20
2.049080
  0
VERTEX
  8
0
  6
CONTINUOUS
 10
6.850360
 20
2.036760
  0
VERTEX
  8
0
  6
CONTINUOUS
 10
6.846400
 20
1.286120
  0
VERTEX
  8
0
  6
CONTINUOUS
 10
6.832760
 20
1.298440
  0
SEQEND
  8
0
  0
SOLID
  8
0
 62
    15
 10
6.859160
 20
1.282160
 11
6.863120
 21
2.032800
 12
6.859160
 22
1.125080
 13
6.863120
 23
1.875720
  0
POLYLINE
  8
0
  6
CONTINUOUS
 66
     1
 40
0.000000
 41
0.000000
  0
VERTEX
  8
0
  6
CONTINUOUS
 10
6.859160
 20
1.282160
  0
VERTEX
  8
0
  6
CONTINUOUS
 10
6.863120
 20
2.032800
  0
VERTEX
  8
0
  6
CONTINUOUS
 10
6.863120
 20
1.875720
  0
VERTEX
  8
0
  6
CONTINUOUS
 10
6.859160
 20
1.125080
  0
VERTEX
  8
0
  6
CONTINUOUS
 10
6.859160
 20
1.282160
  0
SEQEND
  8
0
  0
SOLID
  8
0
 62
    15
 10
6.846400
 20
1.286120
 11
6.850360
 21
2.036760
 12
6.859160
 22
1.282160
 13
6.863120
 23
2.032800
  0
POLYLINE
  8
0
  6
CONTINUOUS
 66
     1
 40
0.000000
 41
0.000000
  0
VERTEX
  8
0
  6
CONTINUOUS
 10
6.846400
 20
1.286120
  0
VERTEX
  8
0
  6
CONTINUOUS
 10
6.850360
 20
2.036760
  0
VERTEX
  8
0
  6
CONTINUOUS
 10
6.863120
 20
2.032800
  0
VERTEX
  8
0
  6
CONTINUOUS
 10
6.859160
 20
1.282160
  0
VERTEX
  8
0
  6
CONTINUOUS
 10
6.846400
 20
1.286120
  0
SEQEND
  8
0
  0
SOLID
  8
0
 62
    15
 10
2.595560
 20
1.991880
 11
2.599080
 21
2.742520
 12
3.639240
 22
1.991880
 13
3.643200
 23
2.742520
  0
POLYLINE
  8
0
  6
CONTINUOUS
 66
     1
 40
0.000000
 41
0.000000
  0
VERTEX
  8
0
  6
CONTINUOUS
 10
2.595560
 20
1.991880
  0
VERTEX
  8
0
  6
CONTINUOUS
 10
2.599080
 20
2.742520
  0
VERTEX
  8
0
  6
CONTINUOUS
 10
3.643200
 20
2.742520
  0
VERTEX
  8
0
  6
CONTINUOUS
 10
3.639240
 20
1.991880
  0
VERTEX
  8
0
  6
CONTINUOUS
 10
2.595560
 20
1.991880
  0
SEQEND
  8
0
  0
SOLID
  8
0
 62
    15
 10
3.639240
 20
1.991880
 11
3.643200
 21
2.742520
 12
3.643640
 22
1.988360
 13
3.647160
 23
2.739000
  0
POLYLINE
  8
0
  6
CONTINUOUS
 66
     1
 40
0.000000
 41
0.000000
  0
VERTEX
  8
0
  6
CONTINUOUS
 10
3.639240
 20
1.991880
  0
VERTEX
  8
0
  6
CONTINUOUS
 10
3.643200
 20
2.742520
  0
VERTEX
  8
0
  6
CONTINUOUS
 10
3.647160
 20
2.739000
  0
VERTEX
  8
0
  6
CONTINUOUS
 10
3.643640
 20
1.988360
  0
VERTEX
  8
0
  6
CONTINUOUS
 10
3.639240
 20
1.991880
  0
SEQEND
  8
0
  0
POLYLINE
  8
0
  6
CONTINUOUS
 66
     1
 40
0.000000
 41
0.000000
  0
VERTEX
  8
0
  6
CONTINUOUS
 10
3.643640
 20
1.988360
  0
VERTEX
  8
0
  6
CONTINUOUS
 10
3.665640
 20
1.868680
  0
VERTEX
  8
0
  6
CONTINUOUS
 10
3.693800
 20
1.868680
  0
VERTEX
  8
0
  6
CONTINUOUS
 10
3.722840
 20
1.908280
  0
VERTEX
  8
0
  6
CONTINUOUS
 10
3.756280
 20
1.935120
  0
VERTEX
  8
0
  6
CONTINUOUS
 10
3.794120
 20
1.949640
  0
VERTEX
  8
0
  6
CONTINUOUS
 10
3.836360
 20
1.951400
  0
VERTEX
  8
0
  6
CONTINUOUS
 10
3.882560
 20
1.941280
  0
VERTEX
  8
0
  6
CONTINUOUS
 10
3.932720
 20
1.919280
  0
VERTEX
  8
0
  6
CONTINUOUS
 10
3.986400
 20
1.885400
  0
VERTEX
  8
0
  6
CONTINUOUS
 10
4.044040
 20
1.840080
  0
VERTEX
  8
0
  6
CONTINUOUS
 10
4.106520
 20
1.796080
  0
VERTEX
  8
0
  6
CONTINUOUS
 10
4.174720
 20
1.763520
  0
VERTEX
  8
0
  6
CONTINUOUS
 10
4.246440
 20
1.740640
  0
VERTEX
  8
0
  6
CONTINUOUS
 10
4.319480
 20
1.725680
  0
VERTEX
  8
0
  6
CONTINUOUS
 10
4.392080
 20
1.716000
  0
VERTEX
  8
0
  6
CONTINUOUS
 10
4.462480
 20
1.709400
  0
VERTEX
  8
0
  6
CONTINUOUS
 10
4.495480
 20
1.706760
  0
VERTEX
  8
0
  6
CONTINUOUS
 10
4.527600
 20
1.704560
  0
VERTEX
  8
0
  6
CONTINUOUS
 10
4.586120
 20
1.698400
  0
VERTEX
  8
0
  6
CONTINUOUS
 10
4.592280
 20
1.641640
  0
VERTEX
  8
0
  6
CONTINUOUS
 10
4.721640
 20
1.641640
  0
VERTEX
  8
0
  6
CONTINUOUS
 10
4.730880
 20
1.569040
  0
VERTEX
  8
0
  6
CONTINUOUS
 10
6.575360
 20
1.546600
  0
VERTEX
  8
0
  6
CONTINUOUS
 10
6.578000
 20
1.470480
  0
VERTEX
  8
0
  6
CONTINUOUS
 10
6.632120
 20
1.464760
  0
VERTEX
  8
0
  6
CONTINUOUS
 10
6.677440
 20
1.451560
  0
VERTEX
  8
0
  6
CONTINUOUS
 10
6.714840
 20
1.432640
  0
VERTEX
  8
0
  6
CONTINUOUS
 10
6.744760
 20
1.411080
  0
VERTEX
  8
0
  6
CONTINUOUS
 10
6.768080
 20
1.388200
  0
VERTEX
  8
0
  6
CONTINUOUS
 10
6.785680
 20
1.366640
  0
VERTEX
  8
0
  6
CONTINUOUS
 10
6.798000
 20
1.348160
  0
VERTEX
  8
0
  6
CONTINUOUS
 10
6.806360
 20
1.334960
  0
VERTEX
  8
0
  6
CONTINUOUS
 10
6.832760
 20
1.298440
  0
VERTEX
  8
0
  6
CONTINUOUS
 10
6.846400
 20
1.286120
  0
VERTEX
  8
0
  6
CONTINUOUS
 10
6.859160
 20
1.282160
  0
VERTEX
  8
0
  6
CONTINUOUS
 10
6.859160
 20
1.125080
  0
VERTEX
  8
0
  6
CONTINUOUS
 10
2.595560
 20
1.125080
  0
VERTEX
  8
0
  6
CONTINUOUS
 10
2.595560
 20
1.991880
  0
VERTEX
  8
0
  6
CONTINUOUS
 10
3.639240
 20
1.991880
  0
VERTEX
  8
0
  6
CONTINUOUS
 10
3.643640
 20
1.988360
  0
SEQEND
  8
0
  0
TEXT
  8
0
 10
4.433880
 20
0.906400
 40
0.137965
  1
BA  789
 41
1.000000
  7
SN0
 71
     0
 72
     5
 11
5.023881
 21
0.906400
  0
TEXT
  8
0
 10
4.278120
 20
0.715000
 40
0.137965
  1
7/8" x 4-1/4"
 41
1.000000
  7
SN0
 71
     0
 72
     5
 11
5.177700
 21
0.715000
  0
POLYLINE
  8
0
  6
CONTINUOUS
 66
     1
 40
0.014080
 41
0.014080
  0
VERTEX
  8
0
  6
CONTINUOUS
 10
3.631320
 20
3.751000
  0
VERTEX
  8
0
  6
CONTINUOUS
 10
3.653320
 20
3.631320
  0
VERTEX
  8
0
  6
CONTINUOUS
 10
3.681480
 20
3.631320
  0
VERTEX
  8
0
  6
CONTINUOUS
 10
3.703040
 20
3.662120
  0
VERTEX
  8
0
  6
CONTINUOUS
 10
3.718440
 20
3.678840
  0
VERTEX
  8
0
  6
CONTINUOUS
 10
3.743960
 20
3.697760
  0
VERTEX
  8
0
  6
CONTINUOUS
 10
3.762440
 20
3.706560
  0
VERTEX
  8
0
  6
CONTINUOUS
 10
3.791920
 20
3.713600
  0
VERTEX
  8
0
  6
CONTINUOUS
 10
3.813040
 20
3.714480
  0
VERTEX
  8
0
  6
CONTINUOUS
 10
3.835480
 20
3.712280
  0
VERTEX
  8
0
  6
CONTINUOUS
 10
3.858360
 20
3.707440
  0
VERTEX
  8
0
  6
CONTINUOUS
 10
3.894880
 20
3.694240
  0
VERTEX
  8
0
  6
CONTINUOUS
 10
3.933600
 20
3.674440
  0
VERTEX
  8
0
  6
CONTINUOUS
 10
3.988160
 20
3.637480
  0
VERTEX
  8
0
  6
CONTINUOUS
 10
4.062080
 20
3.578960
  0
VERTEX
  8
0
  6
CONTINUOUS
 10
4.094200
 20
3.558280
  0
VERTEX
  8
0
  6
CONTINUOUS
 10
4.144800
 20
3.533200
  0
VERTEX
  8
0
  6
CONTINUOUS
 10
4.198040
 20
3.513400
  0
VERTEX
  8
0
  6
CONTINUOUS
 10
4.234120
 20
3.503280
  0
VERTEX
  8
0
  6
CONTINUOUS
 10
4.270640
 20
3.494920
  0
VERTEX
  8
0
  6
CONTINUOUS
 10
4.343680
 20
3.482600
  0
VERTEX
  8
0
  6
CONTINUOUS
 10
4.483160
 20
3.469400
  0
VERTEX
  8
0
  6
CONTINUOUS
 10
4.545640
 20
3.464120
  0
VERTEX
  8
0
  6
CONTINUOUS
 10
4.573800
 20
3.461040
  0
VERTEX
  8
0
  6
CONTINUOUS
 10
4.579960
 20
3.404280
  0
VERTEX
  8
0
  6
CONTINUOUS
 10
4.709320
 20
3.404280
  0
VERTEX
  8
0
  6
CONTINUOUS
 10
4.718560
 20
3.331680
  0
VERTEX
  8
0
  6
CONTINUOUS
 10
6.563040
 20
3.309240
  0
VERTEX
  8
0
  6
CONTINUOUS
 10
6.565680
 20
3.233120
  0
VERTEX
  8
0
  6
CONTINUOUS
 10
6.607040
 20
3.229600
  0
VERTEX
  8
0
  6
CONTINUOUS
 10
6.643560
 20
3.221240
  0
VERTEX
  8
0
  6
CONTINUOUS
 10
6.665120
 20
3.213760
  0
VERTEX
  8
0
  6
CONTINUOUS
 10
6.702520
 20
3.195280
  0
VERTEX
  8
0
  6
CONTINUOUS
 10
6.732440
 20
3.173280
  0
VERTEX
  8
0
  6
CONTINUOUS
 10
6.755760
 20
3.150840
  0
VERTEX
  8
0
  6
CONTINUOUS
 10
6.783040
 20
3.114760
  0
VERTEX
  8
0
  6
CONTINUOUS
 10
6.813400
 20
3.069000
  0
VERTEX
  8
0
  6
CONTINUOUS
 10
6.834080
 20
3.048760
  0
VERTEX
  8
0
  6
CONTINUOUS
 10
6.843760
 20
3.044800
  0
VERTEX
  8
0
  6
CONTINUOUS
 10
6.846840
 20
3.044800
  0
VERTEX
  8
0
  6
CONTINUOUS
 10
6.846840
 20
2.887280
  0
VERTEX
  8
0
  6
CONTINUOUS
 10
2.583240
 20
2.887280
  0
VERTEX
  8
0
  6
CONTINUOUS
 10
2.583240
 20
3.754520
  0
VERTEX
  8
0
  6
CONTINUOUS
 10
3.626920
 20
3.754520
  0
VERTEX
  8
0
  6
CONTINUOUS
 10
3.631320
 20
3.751000
  0
SEQEND
  8
0
  0
ENDSEC
  0
EOF
