  0
SECTION
  2
HEADER
  9
$ACADVER
  1
AC1006
  9
$EXTMIN
 10
2.495680
 20
4.325200
  9
$EXTMAX
 10
6.003800
 20
6.674360
  9
$LTSCALE
 40
0.044000
  9
$PDMODE
 70
    35
  9
$PDSIZE
 40
0.035200
  0
ENDSEC
  0
SECTION
  2
TABLES
  0
TABLE
  2
LTYPE
 70
     9
  0
LTYPE
  2
CONTINUOUS
 70
    64
  3
Solid line
 72
    65
 73
     0
 40
0.000000
  0
LTYPE
  2
DASHED
 70
    64
  3
__ __ __ __ __ __ __ __ __ __ __ __ __ __ __
 72
    65
 73
     2
 40
0.000330
 49
0.000220
 49
-0.000110
  0
LTYPE
  2
HIDDEN
 70
    64
  3
 _ _ _ _ _ _ _ _ _ _ _ _ _ _ _ _ _ _ _ _ _ _
 72
    65
 73
     2
 40
0.000165
 49
0.000110
 49
-0.000055
  0
LTYPE
  2
CENTER
 70
    64
  3
____ _ ____ _ ____ _ ____ _ ____ _ ____ _ ____
 72
    65
 73
     4
 40
0.000880
 49
0.000550
 49
-0.000110
 49
0.000110
 49
-0.000110
  0
LTYPE
  2
PHANTOM
 70
    64
  3
_____ _ _ _____ _ _ _____ _ _ _____ _ _ ____
 72
    65
 73
     6
 40
0.001100
 49
0.000550
 49
-0.000110
 49
0.000110
 49
-0.000110
 49
0.000110
 49
-0.000110
  0
LTYPE
  2
DOT
 70
    64
  3
...............................................
 72
    65
 73
     2
 40
0.000110
 49
0.000000
 49
-0.000110
  0
LTYPE
  2
DASHDOT
 70
    64
  3
__ . __ . __ . __ . __ . __ . __ . __ . __ . __
 72
    65
 73
     4
 40
0.000440
 49
0.000220
 49
-0.000110
 49
0.000000
 49
-0.000110
  0
LTYPE
  2
BORDER
 70
    64
  3
__ __ . __ __ . __ __ . __ __ . __ __ . __ __
 72
    65
 73
     6
 40
0.000770
 49
0.000220
 49
-0.000110
 49
0.000220
 49
-0.000110
 49
0.000000
 49
-0.000110
  0
LTYPE
  2
DIVIDE
 70
    64
  3
__ . . __ . . __ . . __ . . __ . . __ . . __
 72
    65
 73
     6
 40
0.000550
 49
0.000220
 49
-0.000110
 49
0.000000
 49
-0.000110
 49
0.000000
 49
-0.000110
  0
LTYPE
  2
DOTDOT
 70
    64
  3
 . .  . .  . .  . .  . .  . . 
 72
    65
 73
     5
 40
0.000242
 49
-0.000110
 49
0.000000
 49
-0.000110
 49
0.000000
 49
-0.000110
  0
ENDTAB
  0
TABLE
  2
STYLE
 70
     2
  0
STYLE
 70
     0
  2
SN0
 40
0.000000
 41
0.000440
 50
0.000000
 71
     0
 42
0.000000
  3
ROMAND
  0
STYLE
 70
    68
  2
SV0
 40
0.000000
 41
0.000440
 50
0.000000
 71
     0
 42
0.000000
  3
ROMAND
  0
ENDTAB
  0
TABLE
  2
LAYER
 70
     3
  0
LAYER
  2
FOREGROUND
 70
    64
 62
     7
  6
CONTINUOUS
  0
LAYER
  2
BACKGROUND
 70
    65
 62
    -7
  6
CONTINUOUS
  0
LAYER
  2
0
 70
    64
 62
     7
  6
CONTINUOUS
  0
ENDTAB
  0
ENDSEC
  0
SECTION
  2
ENTITIES
  0
POLYLINE
  8
FOREGROUND
  6
CONTINUOUS
 66
     1
 40
0.000000
 41
0.000000
  0
VERTEX
  8
FOREGROUND
  6
CONTINUOUS
 10
0.000000
 20
10.999560
  0
VERTEX
  8
FOREGROUND
  6
CONTINUOUS
 10
8.499920
 20
10.999560
  0
VERTEX
  8
FOREGROUND
  6
CONTINUOUS
 10
8.499920
 20
-0.000440
  0
VERTEX
  8
FOREGROUND
  6
CONTINUOUS
 10
0.000000
 20
-0.000440
  0
VERTEX
  8
FOREGROUND
  6
CONTINUOUS
 10
0.000000
 20
10.999560
  0
SEQEND
  8
0
  0
POLYLINE
  8
FOREGROUND
  6
CONTINUOUS
 66
     1
 40
0.000000
 41
0.000000
  0
VERTEX
  8
FOREGROUND
  6
CONTINUOUS
 10
0.000000
 20
10.999560
  0
VERTEX
  8
FOREGROUND
  6
CONTINUOUS
 10
8.499920
 20
10.999560
  0
VERTEX
  8
FOREGROUND
  6
CONTINUOUS
 10
8.499920
 20
-0.000440
  0
VERTEX
  8
FOREGROUND
  6
CONTINUOUS
 10
0.000000
 20
-0.000440
  0
VERTEX
  8
FOREGROUND
  6
CONTINUOUS
 10
0.000000
 20
10.999560
  0
SEQEND
  8
0
  0
TEXT
  8
0
 10
2.929960
 20
4.561480
 40
0.138123
  1
BA  788
 41
1.000000
  7
SN0
 71
     0
 72
     5
 11
3.520377
 21
4.561480
  0
TEXT
  8
0
 10
2.681800
 20
4.369640
 40
0.138123
  1
13/16" x 1-1/2"
 41
1.000000
  7
SN0
 71
     0
 72
     5
 11
3.767388
 21
4.369640
  0
SOLID
  8
0
 62
     7
 10
2.973080
 20
5.562480
 11
3.624280
 21
5.189360
 12
2.964720
 22
5.529040
 13
3.616360
 23
5.155920
  0
POLYLINE
  8
0
  6
CONTINUOUS
 66
     1
 40
0.000000
 41
0.000000
  0
VERTEX
  8
0
  6
CONTINUOUS
 10
2.973080
 20
5.562480
  0
VERTEX
  8
0
  6
CONTINUOUS
 10
3.624280
 20
5.189360
  0
VERTEX
  8
0
  6
CONTINUOUS
 10
3.616360
 20
5.155920
  0
VERTEX
  8
0
  6
CONTINUOUS
 10
2.964720
 20
5.529040
  0
VERTEX
  8
0
  6
CONTINUOUS
 10
2.973080
 20
5.562480
  0
SEQEND
  8
0
  0
SOLID
  8
0
 62
    15
 10
3.255120
 20
6.273960
 11
3.906320
 21
5.900840
 12
3.216840
 22
6.255480
 13
3.868040
 23
5.882360
  0
POLYLINE
  8
0
  6
CONTINUOUS
 66
     1
 40
0.000000
 41
0.000000
  0
VERTEX
  8
0
  6
CONTINUOUS
 10
3.255120
 20
6.273960
  0
VERTEX
  8
0
  6
CONTINUOUS
 10
3.906320
 20
5.900840
  0
VERTEX
  8
0
  6
CONTINUOUS
 10
3.868040
 20
5.882360
  0
VERTEX
  8
0
  6
CONTINUOUS
 10
3.216840
 20
6.255480
  0
VERTEX
  8
0
  6
CONTINUOUS
 10
3.255120
 20
6.273960
  0
SEQEND
  8
0
  0
SOLID
  8
0
 62
    15
 10
3.216840
 20
6.255480
 11
3.868040
 21
5.882360
 12
3.183400
 22
6.228200
 13
3.834600
 23
5.855080
  0
POLYLINE
  8
0
  6
CONTINUOUS
 66
     1
 40
0.000000
 41
0.000000
  0
VERTEX
  8
0
  6
CONTINUOUS
 10
3.216840
 20
6.255480
  0
VERTEX
  8
0
  6
CONTINUOUS
 10
3.868040
 20
5.882360
  0
VERTEX
  8
0
  6
CONTINUOUS
 10
3.834600
 20
5.855080
  0
VERTEX
  8
0
  6
CONTINUOUS
 10
3.183400
 20
6.228200
  0
VERTEX
  8
0
  6
CONTINUOUS
 10
3.216840
 20
6.255480
  0
SEQEND
  8
0
  0
SOLID
  8
0
 62
     7
 10
3.183400
 20
6.228200
 11
3.834600
 21
5.855080
 12
3.154800
 22
6.193880
 13
3.806440
 23
5.820760
  0
POLYLINE
  8
0
  6
CONTINUOUS
 66
     1
 40
0.000000
 41
0.000000
  0
VERTEX
  8
0
  6
CONTINUOUS
 10
3.183400
 20
6.228200
  0
VERTEX
  8
0
  6
CONTINUOUS
 10
3.834600
 20
5.855080
  0
VERTEX
  8
0
  6
CONTINUOUS
 10
3.806440
 20
5.820760
  0
VERTEX
  8
0
  6
CONTINUOUS
 10
3.154800
 20
6.193880
  0
VERTEX
  8
0
  6
CONTINUOUS
 10
3.183400
 20
6.228200
  0
SEQEND
  8
0
  0
SOLID
  8
0
 62
     7
 10
3.154800
 20
6.193880
 11
3.806440
 21
5.820760
 12
3.131920
 22
6.153400
 13
3.783120
 23
5.780280
  0
POLYLINE
  8
0
  6
CONTINUOUS
 66
     1
 40
0.000000
 41
0.000000
  0
VERTEX
  8
0
  6
CONTINUOUS
 10
3.154800
 20
6.193880
  0
VERTEX
  8
0
  6
CONTINUOUS
 10
3.806440
 20
5.820760
  0
VERTEX
  8
0
  6
CONTINUOUS
 10
3.783120
 20
5.780280
  0
VERTEX
  8
0
  6
CONTINUOUS
 10
3.131920
 20
6.153400
  0
VERTEX
  8
0
  6
CONTINUOUS
 10
3.154800
 20
6.193880
  0
SEQEND
  8
0
  0
SOLID
  8
0
 62
     7
 10
3.131920
 20
6.153400
 11
3.783120
 21
5.780280
 12
3.114320
 22
6.108960
 13
3.765960
 23
5.735840
  0
POLYLINE
  8
0
  6
CONTINUOUS
 66
     1
 40
0.000000
 41
0.000000
  0
VERTEX
  8
0
  6
CONTINUOUS
 10
3.131920
 20
6.153400
  0
VERTEX
  8
0
  6
CONTINUOUS
 10
3.783120
 20
5.780280
  0
VERTEX
  8
0
  6
CONTINUOUS
 10
3.765960
 20
5.735840
  0
VERTEX
  8
0
  6
CONTINUOUS
 10
3.114320
 20
6.108960
  0
VERTEX
  8
0
  6
CONTINUOUS
 10
3.131920
 20
6.153400
  0
SEQEND
  8
0
  0
SOLID
  8
0
 62
     7
 10
3.114320
 20
6.108960
 11
3.765960
 21
5.735840
 12
3.103320
 22
6.061880
 13
3.754520
 23
5.688760
  0
POLYLINE
  8
0
  6
CONTINUOUS
 66
     1
 40
0.000000
 41
0.000000
  0
VERTEX
  8
0
  6
CONTINUOUS
 10
3.114320
 20
6.108960
  0
VERTEX
  8
0
  6
CONTINUOUS
 10
3.765960
 20
5.735840
  0
VERTEX
  8
0
  6
CONTINUOUS
 10
3.754520
 20
5.688760
  0
VERTEX
  8
0
  6
CONTINUOUS
 10
3.103320
 20
6.061880
  0
VERTEX
  8
0
  6
CONTINUOUS
 10
3.114320
 20
6.108960
  0
SEQEND
  8
0
  0
SOLID
  8
0
 62
     7
 10
3.103320
 20
6.061880
 11
3.754520
 21
5.688760
 12
3.098480
 22
6.013920
 13
3.749680
 23
5.640800
  0
POLYLINE
  8
0
  6
CONTINUOUS
 66
     1
 40
0.000000
 41
0.000000
  0
VERTEX
  8
0
  6
CONTINUOUS
 10
3.103320
 20
6.061880
  0
VERTEX
  8
0
  6
CONTINUOUS
 10
3.754520
 20
5.688760
  0
VERTEX
  8
0
  6
CONTINUOUS
 10
3.749680
 20
5.640800
  0
VERTEX
  8
0
  6
CONTINUOUS
 10
3.098480
 20
6.013920
  0
VERTEX
  8
0
  6
CONTINUOUS
 10
3.103320
 20
6.061880
  0
SEQEND
  8
0
  0
SOLID
  8
0
 62
    15
 10
3.098480
 20
6.013920
 11
3.749680
 21
5.640800
 12
2.996400
 22
6.007320
 13
3.647600
 23
5.634200
  0
POLYLINE
  8
0
  6
CONTINUOUS
 66
     1
 40
0.000000
 41
0.000000
  0
VERTEX
  8
0
  6
CONTINUOUS
 10
3.098480
 20
6.013920
  0
VERTEX
  8
0
  6
CONTINUOUS
 10
3.749680
 20
5.640800
  0
VERTEX
  8
0
  6
CONTINUOUS
 10
3.647600
 20
5.634200
  0
VERTEX
  8
0
  6
CONTINUOUS
 10
2.996400
 20
6.007320
  0
VERTEX
  8
0
  6
CONTINUOUS
 10
3.098480
 20
6.013920
  0
SEQEND
  8
0
  0
SOLID
  8
0
 62
     7
 10
2.996400
 20
6.007320
 11
3.647600
 21
5.634200
 12
2.983200
 22
5.639040
 13
3.634400
 23
5.265920
  0
POLYLINE
  8
0
  6
CONTINUOUS
 66
     1
 40
0.000000
 41
0.000000
  0
VERTEX
  8
0
  6
CONTINUOUS
 10
2.996400
 20
6.007320
  0
VERTEX
  8
0
  6
CONTINUOUS
 10
3.647600
 20
5.634200
  0
VERTEX
  8
0
  6
CONTINUOUS
 10
3.634400
 20
5.265920
  0
VERTEX
  8
0
  6
CONTINUOUS
 10
2.983200
 20
5.639040
  0
VERTEX
  8
0
  6
CONTINUOUS
 10
2.996400
 20
6.007320
  0
SEQEND
  8
0
  0
SOLID
  8
0
 62
     7
 10
2.983200
 20
5.639040
 11
3.634400
 21
5.265920
 12
2.978800
 22
5.599000
 13
3.630440
 23
5.225880
  0
POLYLINE
  8
0
  6
CONTINUOUS
 66
     1
 40
0.000000
 41
0.000000
  0
VERTEX
  8
0
  6
CONTINUOUS
 10
2.983200
 20
5.639040
  0
VERTEX
  8
0
  6
CONTINUOUS
 10
3.634400
 20
5.265920
  0
VERTEX
  8
0
  6
CONTINUOUS
 10
3.630440
 20
5.225880
  0
VERTEX
  8
0
  6
CONTINUOUS
 10
2.978800
 20
5.599000
  0
VERTEX
  8
0
  6
CONTINUOUS
 10
2.983200
 20
5.639040
  0
SEQEND
  8
0
  0
SOLID
  8
0
 62
     7
 10
2.978800
 20
5.599000
 11
3.630440
 21
5.225880
 12
2.973080
 22
5.562480
 13
3.624280
 23
5.189360
  0
POLYLINE
  8
0
  6
CONTINUOUS
 66
     1
 40
0.000000
 41
0.000000
  0
VERTEX
  8
0
  6
CONTINUOUS
 10
2.978800
 20
5.599000
  0
VERTEX
  8
0
  6
CONTINUOUS
 10
3.630440
 20
5.225880
  0
VERTEX
  8
0
  6
CONTINUOUS
 10
3.624280
 20
5.189360
  0
VERTEX
  8
0
  6
CONTINUOUS
 10
2.973080
 20
5.562480
  0
VERTEX
  8
0
  6
CONTINUOUS
 10
2.978800
 20
5.599000
  0
SEQEND
  8
0
  0
SOLID
  8
0
 62
    15
 10
3.297800
 20
6.282320
 11
3.949440
 21
5.908760
 12
3.255120
 22
6.273960
 13
3.906320
 23
5.900840
  0
POLYLINE
  8
0
  6
CONTINUOUS
 66
     1
 40
0.000000
 41
0.000000
  0
VERTEX
  8
0
  6
CONTINUOUS
 10
3.297800
 20
6.282320
  0
VERTEX
  8
0
  6
CONTINUOUS
 10
3.949440
 20
5.908760
  0
VERTEX
  8
0
  6
CONTINUOUS
 10
3.906320
 20
5.900840
  0
VERTEX
  8
0
  6
CONTINUOUS
 10
3.255120
 20
6.273960
  0
VERTEX
  8
0
  6
CONTINUOUS
 10
3.297800
 20
6.282320
  0
SEQEND
  8
0
  0
SOLID
  8
0
 62
     7
 10
2.964720
 20
5.529040
 11
3.616360
 21
5.155920
 12
2.954600
 22
5.499120
 13
3.606240
 23
5.126000
  0
POLYLINE
  8
0
  6
CONTINUOUS
 66
     1
 40
0.000000
 41
0.000000
  0
VERTEX
  8
0
  6
CONTINUOUS
 10
2.964720
 20
5.529040
  0
VERTEX
  8
0
  6
CONTINUOUS
 10
3.616360
 20
5.155920
  0
VERTEX
  8
0
  6
CONTINUOUS
 10
3.606240
 20
5.126000
  0
VERTEX
  8
0
  6
CONTINUOUS
 10
2.954600
 20
5.499120
  0
VERTEX
  8
0
  6
CONTINUOUS
 10
2.964720
 20
5.529040
  0
SEQEND
  8
0
  0
SOLID
  8
0
 62
     7
 10
2.954600
 20
5.499120
 11
3.606240
 21
5.126000
 12
2.929080
 22
5.448520
 13
3.580720
 23
5.075400
  0
POLYLINE
  8
0
  6
CONTINUOUS
 66
     1
 40
0.000000
 41
0.000000
  0
VERTEX
  8
0
  6
CONTINUOUS
 10
2.954600
 20
5.499120
  0
VERTEX
  8
0
  6
CONTINUOUS
 10
3.606240
 20
5.126000
  0
VERTEX
  8
0
  6
CONTINUOUS
 10
3.580720
 20
5.075400
  0
VERTEX
  8
0
  6
CONTINUOUS
 10
2.929080
 20
5.448520
  0
VERTEX
  8
0
  6
CONTINUOUS
 10
2.954600
 20
5.499120
  0
SEQEND
  8
0
  0
SOLID
  8
0
 62
    15
 10
2.929080
 20
5.448520
 11
3.580720
 21
5.075400
 12
2.896960
 22
5.408920
 13
3.548160
 23
5.035800
  0
POLYLINE
  8
0
  6
CONTINUOUS
 66
     1
 40
0.000000
 41
0.000000
  0
VERTEX
  8
0
  6
CONTINUOUS
 10
2.929080
 20
5.448520
  0
VERTEX
  8
0
  6
CONTINUOUS
 10
3.580720
 20
5.075400
  0
VERTEX
  8
0
  6
CONTINUOUS
 10
3.548160
 20
5.035800
  0
VERTEX
  8
0
  6
CONTINUOUS
 10
2.896960
 20
5.408920
  0
VERTEX
  8
0
  6
CONTINUOUS
 10
2.929080
 20
5.448520
  0
SEQEND
  8
0
  0
SOLID
  8
0
 62
    15
 10
2.896960
 20
5.408920
 11
3.548160
 21
5.035800
 12
2.858240
 22
5.379880
 13
3.509880
 23
5.006760
  0
POLYLINE
  8
0
  6
CONTINUOUS
 66
     1
 40
0.000000
 41
0.000000
  0
VERTEX
  8
0
  6
CONTINUOUS
 10
2.896960
 20
5.408920
  0
VERTEX
  8
0
  6
CONTINUOUS
 10
3.548160
 20
5.035800
  0
VERTEX
  8
0
  6
CONTINUOUS
 10
3.509880
 20
5.006760
  0
VERTEX
  8
0
  6
CONTINUOUS
 10
2.858240
 20
5.379880
  0
VERTEX
  8
0
  6
CONTINUOUS
 10
2.896960
 20
5.408920
  0
SEQEND
  8
0
  0
SOLID
  8
0
 62
    15
 10
2.858240
 20
5.379880
 11
3.509880
 21
5.006760
 12
2.814240
 22
5.359640
 13
3.465880
 23
4.986520
  0
POLYLINE
  8
0
  6
CONTINUOUS
 66
     1
 40
0.000000
 41
0.000000
  0
VERTEX
  8
0
  6
CONTINUOUS
 10
2.858240
 20
5.379880
  0
VERTEX
  8
0
  6
CONTINUOUS
 10
3.509880
 20
5.006760
  0
VERTEX
  8
0
  6
CONTINUOUS
 10
3.465880
 20
4.986520
  0
VERTEX
  8
0
  6
CONTINUOUS
 10
2.814240
 20
5.359640
  0
VERTEX
  8
0
  6
CONTINUOUS
 10
2.858240
 20
5.379880
  0
SEQEND
  8
0
  0
SOLID
  8
0
 62
    15
 10
2.814240
 20
5.359640
 11
3.465880
 21
4.986520
 12
2.765400
 22
5.347320
 13
3.417040
 23
4.974200
  0
POLYLINE
  8
0
  6
CONTINUOUS
 66
     1
 40
0.000000
 41
0.000000
  0
VERTEX
  8
0
  6
CONTINUOUS
 10
2.814240
 20
5.359640
  0
VERTEX
  8
0
  6
CONTINUOUS
 10
3.465880
 20
4.986520
  0
VERTEX
  8
0
  6
CONTINUOUS
 10
3.417040
 20
4.974200
  0
VERTEX
  8
0
  6
CONTINUOUS
 10
2.765400
 20
5.347320
  0
VERTEX
  8
0
  6
CONTINUOUS
 10
2.814240
 20
5.359640
  0
SEQEND
  8
0
  0
SOLID
  8
0
 62
    15
 10
2.765400
 20
5.347320
 11
3.417040
 21
4.974200
 12
2.712600
 22
5.342040
 13
3.363800
 23
4.968920
  0
POLYLINE
  8
0
  6
CONTINUOUS
 66
     1
 40
0.000000
 41
0.000000
  0
VERTEX
  8
0
  6
CONTINUOUS
 10
2.765400
 20
5.347320
  0
VERTEX
  8
0
  6
CONTINUOUS
 10
3.417040
 20
4.974200
  0
VERTEX
  8
0
  6
CONTINUOUS
 10
3.363800
 20
4.968920
  0
VERTEX
  8
0
  6
CONTINUOUS
 10
2.712600
 20
5.342040
  0
VERTEX
  8
0
  6
CONTINUOUS
 10
2.765400
 20
5.347320
  0
SEQEND
  8
0
  0
SOLID
  8
0
 62
     7
 10
2.712600
 20
5.342040
 11
3.363800
 21
4.968920
 12
2.712600
 22
5.202120
 13
3.363800
 23
4.829000
  0
POLYLINE
  8
0
  6
CONTINUOUS
 66
     1
 40
0.000000
 41
0.000000
  0
VERTEX
  8
0
  6
CONTINUOUS
 10
2.712600
 20
5.342040
  0
VERTEX
  8
0
  6
CONTINUOUS
 10
3.363800
 20
4.968920
  0
VERTEX
  8
0
  6
CONTINUOUS
 10
3.363800
 20
4.829000
  0
VERTEX
  8
0
  6
CONTINUOUS
 10
2.712600
 20
5.202120
  0
VERTEX
  8
0
  6
CONTINUOUS
 10
2.712600
 20
5.342040
  0
SEQEND
  8
0
  0
SOLID
  8
0
 62
    15
 10
2.712600
 20
5.202120
 11
3.363800
 21
4.829000
 12
2.496560
 22
5.202120
 13
3.147760
 23
4.829000
  0
POLYLINE
  8
0
  6
CONTINUOUS
 66
     1
 40
0.000000
 41
0.000000
  0
VERTEX
  8
0
  6
CONTINUOUS
 10
2.712600
 20
5.202120
  0
VERTEX
  8
0
  6
CONTINUOUS
 10
3.363800
 20
4.829000
  0
VERTEX
  8
0
  6
CONTINUOUS
 10
3.147760
 20
4.829000
  0
VERTEX
  8
0
  6
CONTINUOUS
 10
2.496560
 20
5.202120
  0
VERTEX
  8
0
  6
CONTINUOUS
 10
2.712600
 20
5.202120
  0
SEQEND
  8
0
  0
SOLID
  8
0
 62
    15
 10
3.300440
 20
6.673480
 11
3.952080
 21
6.300360
 12
3.300440
 22
6.284960
 13
3.952080
 23
5.911840
  0
POLYLINE
  8
0
  6
CONTINUOUS
 66
     1
 40
0.000000
 41
0.000000
  0
VERTEX
  8
0
  6
CONTINUOUS
 10
3.300440
 20
6.673480
  0
VERTEX
  8
0
  6
CONTINUOUS
 10
3.952080
 20
6.300360
  0
VERTEX
  8
0
  6
CONTINUOUS
 10
3.952080
 20
5.911840
  0
VERTEX
  8
0
  6
CONTINUOUS
 10
3.300440
 20
6.284960
  0
VERTEX
  8
0
  6
CONTINUOUS
 10
3.300440
 20
6.673480
  0
SEQEND
  8
0
  0
SOLID
  8
0
 62
    15
 10
3.300440
 20
6.284960
 11
3.952080
 21
5.911840
 12
3.297800
 22
6.282320
 13
3.949440
 23
5.908760
  0
POLYLINE
  8
0
  6
CONTINUOUS
 66
     1
 40
0.000000
 41
0.000000
  0
VERTEX
  8
0
  6
CONTINUOUS
 10
3.300440
 20
6.284960
  0
VERTEX
  8
0
  6
CONTINUOUS
 10
3.952080
 20
5.911840
  0
VERTEX
  8
0
  6
CONTINUOUS
 10
3.949440
 20
5.908760
  0
VERTEX
  8
0
  6
CONTINUOUS
 10
3.297800
 20
6.282320
  0
VERTEX
  8
0
  6
CONTINUOUS
 10
3.300440
 20
6.284960
  0
SEQEND
  8
0
  0
POLYLINE
  8
0
  6
CONTINUOUS
 66
     1
 40
0.000000
 41
0.000000
  0
VERTEX
  8
0
  6
CONTINUOUS
 10
3.297800
 20
6.282320
  0
VERTEX
  8
0
  6
CONTINUOUS
 10
3.255120
 20
6.273960
  0
VERTEX
  8
0
  6
CONTINUOUS
 10
3.216840
 20
6.255480
  0
VERTEX
  8
0
  6
CONTINUOUS
 10
3.183400
 20
6.228200
  0
VERTEX
  8
0
  6
CONTINUOUS
 10
3.154800
 20
6.193880
  0
VERTEX
  8
0
  6
CONTINUOUS
 10
3.131920
 20
6.153400
  0
VERTEX
  8
0
  6
CONTINUOUS
 10
3.114320
 20
6.108960
  0
VERTEX
  8
0
  6
CONTINUOUS
 10
3.103320
 20
6.061880
  0
VERTEX
  8
0
  6
CONTINUOUS
 10
3.098480
 20
6.013920
  0
VERTEX
  8
0
  6
CONTINUOUS
 10
2.996400
 20
6.007320
  0
VERTEX
  8
0
  6
CONTINUOUS
 10
2.983200
 20
5.639040
  0
VERTEX
  8
0
  6
CONTINUOUS
 10
2.978800
 20
5.599000
  0
VERTEX
  8
0
  6
CONTINUOUS
 10
2.973080
 20
5.562480
  0
VERTEX
  8
0
  6
CONTINUOUS
 10
2.964720
 20
5.529040
  0
VERTEX
  8
0
  6
CONTINUOUS
 10
2.954600
 20
5.499120
  0
VERTEX
  8
0
  6
CONTINUOUS
 10
2.929080
 20
5.448520
  0
VERTEX
  8
0
  6
CONTINUOUS
 10
2.896960
 20
5.408920
  0
VERTEX
  8
0
  6
CONTINUOUS
 10
2.858240
 20
5.379880
  0
VERTEX
  8
0
  6
CONTINUOUS
 10
2.814240
 20
5.359640
  0
VERTEX
  8
0
  6
CONTINUOUS
 10
2.765400
 20
5.347320
  0
VERTEX
  8
0
  6
CONTINUOUS
 10
2.712600
 20
5.342040
  0
VERTEX
  8
0
  6
CONTINUOUS
 10
2.712600
 20
5.202120
  0
VERTEX
  8
0
  6
CONTINUOUS
 10
2.496560
 20
5.202120
  0
VERTEX
  8
0
  6
CONTINUOUS
 10
2.496560
 20
6.673480
  0
VERTEX
  8
0
  6
CONTINUOUS
 10
3.300440
 20
6.673480
  0
VERTEX
  8
0
  6
CONTINUOUS
 10
3.300440
 20
6.284960
  0
VERTEX
  8
0
  6
CONTINUOUS
 10
3.297800
 20
6.282320
  0
SEQEND
  8
0
  0
POLYLINE
  8
0
  6
CONTINUOUS
 66
     1
 40
0.014080
 41
0.014080
  0
VERTEX
  8
0
  6
CONTINUOUS
 10
5.746400
 20
6.258120
  0
VERTEX
  8
0
  6
CONTINUOUS
 10
5.724400
 20
6.255480
  0
VERTEX
  8
0
  6
CONTINUOUS
 10
5.693600
 20
6.246240
  0
VERTEX
  8
0
  6
CONTINUOUS
 10
5.665440
 20
6.231280
  0
VERTEX
  8
0
  6
CONTINUOUS
 10
5.647840
 20
6.218960
  0
VERTEX
  8
0
  6
CONTINUOUS
 10
5.617040
 20
6.187720
  0
VERTEX
  8
0
  6
CONTINUOUS
 10
5.603400
 20
6.169680
  0
VERTEX
  8
0
  6
CONTINUOUS
 10
5.580520
 20
6.129200
  0
VERTEX
  8
0
  6
CONTINUOUS
 10
5.563360
 20
6.084760
  0
VERTEX
  8
0
  6
CONTINUOUS
 10
5.556760
 20
6.061440
  0
VERTEX
  8
0
  6
CONTINUOUS
 10
5.551920
 20
6.037680
  0
VERTEX
  8
0
  6
CONTINUOUS
 10
5.547080
 20
5.989720
  0
VERTEX
  8
0
  6
CONTINUOUS
 10
5.445000
 20
5.983120
  0
VERTEX
  8
0
  6
CONTINUOUS
 10
5.431360
 20
5.615280
  0
VERTEX
  8
0
  6
CONTINUOUS
 10
5.424760
 20
5.556320
  0
VERTEX
  8
0
  6
CONTINUOUS
 10
5.413320
 20
5.505280
  0
VERTEX
  8
0
  6
CONTINUOUS
 10
5.397480
 20
5.461280
  0
VERTEX
  8
0
  6
CONTINUOUS
 10
5.377680
 20
5.424320
  0
VERTEX
  8
0
  6
CONTINUOUS
 10
5.353920
 20
5.393960
  0
VERTEX
  8
0
  6
CONTINUOUS
 10
5.336320
 20
5.376800
  0
VERTEX
  8
0
  6
CONTINUOUS
 10
5.306840
 20
5.355680
  0
VERTEX
  8
0
  6
CONTINUOUS
 10
5.285280
 20
5.344680
  0
VERTEX
  8
0
  6
CONTINUOUS
 10
5.262840
 20
5.335440
  0
VERTEX
  8
0
  6
CONTINUOUS
 10
5.239080
 20
5.328400
  0
VERTEX
  8
0
  6
CONTINUOUS
 10
5.214000
 20
5.323120
  0
VERTEX
  8
0
  6
CONTINUOUS
 10
5.188040
 20
5.319600
  0
VERTEX
  8
0
  6
CONTINUOUS
 10
5.161200
 20
5.317840
  0
VERTEX
  8
0
  6
CONTINUOUS
 10
5.161200
 20
5.177920
  0
VERTEX
  8
0
  6
CONTINUOUS
 10
4.945160
 20
5.177920
  0
VERTEX
  8
0
  6
CONTINUOUS
 10
4.945160
 20
6.649720
  0
VERTEX
  8
0
  6
CONTINUOUS
 10
5.749040
 20
6.649720
  0
VERTEX
  8
0
  6
CONTINUOUS
 10
5.749040
 20
6.261200
  0
VERTEX
  8
0
  6
CONTINUOUS
 10
5.746400
 20
6.258120
  0
SEQEND
  8
0
  0
TEXT
  8
0
 10
5.052520
 20
4.932840
 40
0.138123
  1
BA  788
 41
1.000000
  7
SN0
 71
     0
 72
     5
 11
5.642937
 21
4.932840
  0
TEXT
  8
0
 10
4.804360
 20
4.741000
 40
0.138123
  1
13/16" x 1-1/2"
 41
1.000000
  7
SN0
 71
     0
 72
     5
 11
5.889948
 21
4.741000
  0
ENDSEC
  0
EOF
