  0
SECTION
  2
HEADER
  9
$ACADVER
  1
AC1006
  9
$EXTMIN
 10
0.443520
 20
3.075160
  9
$EXTMAX
 10
8.056400
 20
8.738400
  9
$LTSCALE
 40
0.044000
  9
$PDMODE
 70
    35
  9
$PDSIZE
 40
0.035200
  0
ENDSEC
  0
SECTION
  2
TABLES
  0
TABLE
  2
LTYPE
 70
     9
  0
LTYPE
  2
CONTINUOUS
 70
    64
  3
Solid line
 72
    65
 73
     0
 40
0.000000
  0
LTYPE
  2
DASHED
 70
    64
  3
__ __ __ __ __ __ __ __ __ __ __ __ __ __ __
 72
    65
 73
     2
 40
0.000330
 49
0.000220
 49
-0.000110
  0
LTYPE
  2
HIDDEN
 70
    64
  3
 _ _ _ _ _ _ _ _ _ _ _ _ _ _ _ _ _ _ _ _ _ _
 72
    65
 73
     2
 40
0.000165
 49
0.000110
 49
-0.000055
  0
LTYPE
  2
CENTER
 70
    64
  3
____ _ ____ _ ____ _ ____ _ ____ _ ____ _ ____
 72
    65
 73
     4
 40
0.000880
 49
0.000550
 49
-0.000110
 49
0.000110
 49
-0.000110
  0
LTYPE
  2
PHANTOM
 70
    64
  3
_____ _ _ _____ _ _ _____ _ _ _____ _ _ ____
 72
    65
 73
     6
 40
0.001100
 49
0.000550
 49
-0.000110
 49
0.000110
 49
-0.000110
 49
0.000110
 49
-0.000110
  0
LTYPE
  2
DOT
 70
    64
  3
...............................................
 72
    65
 73
     2
 40
0.000110
 49
0.000000
 49
-0.000110
  0
LTYPE
  2
DASHDOT
 70
    64
  3
__ . __ . __ . __ . __ . __ . __ . __ . __ . __
 72
    65
 73
     4
 40
0.000440
 49
0.000220
 49
-0.000110
 49
0.000000
 49
-0.000110
  0
LTYPE
  2
BORDER
 70
    64
  3
__ __ . __ __ . __ __ . __ __ . __ __ . __ __
 72
    65
 73
     6
 40
0.000770
 49
0.000220
 49
-0.000110
 49
0.000220
 49
-0.000110
 49
0.000000
 49
-0.000110
  0
LTYPE
  2
DIVIDE
 70
    64
  3
__ . . __ . . __ . . __ . . __ . . __ . . __
 72
    65
 73
     6
 40
0.000550
 49
0.000220
 49
-0.000110
 49
0.000000
 49
-0.000110
 49
0.000000
 49
-0.000110
  0
LTYPE
  2
DOTDOT
 70
    64
  3
 . .  . .  . .  . .  . .  . . 
 72
    65
 73
     5
 40
0.000242
 49
-0.000110
 49
0.000000
 49
-0.000110
 49
0.000000
 49
-0.000110
  0
ENDTAB
  0
TABLE
  2
STYLE
 70
     2
  0
STYLE
 70
     0
  2
SN0
 40
0.000000
 41
0.000440
 50
0.000000
 71
     0
 42
0.000000
  3
ROMAND
  0
STYLE
 70
    68
  2
SV0
 40
0.000000
 41
0.000440
 50
0.000000
 71
     0
 42
0.000000
  3
ROMAND
  0
ENDTAB
  0
TABLE
  2
LAYER
 70
     3
  0
LAYER
  2
FOREGROUND
 70
    64
 62
     7
  6
CONTINUOUS
  0
LAYER
  2
BACKGROUND
 70
    65
 62
    -7
  6
CONTINUOUS
  0
LAYER
  2
0
 70
    64
 62
     7
  6
CONTINUOUS
  0
ENDTAB
  0
ENDSEC
  0
SECTION
  2
ENTITIES
  0
POLYLINE
  8
FOREGROUND
  6
CONTINUOUS
 66
     1
 40
0.000000
 41
0.000000
  0
VERTEX
  8
FOREGROUND
  6
CONTINUOUS
 10
0.000000
 20
11.813560
  0
VERTEX
  8
FOREGROUND
  6
CONTINUOUS
 10
8.499920
 20
11.813560
  0
VERTEX
  8
FOREGROUND
  6
CONTINUOUS
 10
8.499920
 20
0.813560
  0
VERTEX
  8
FOREGROUND
  6
CONTINUOUS
 10
0.000000
 20
0.813560
  0
VERTEX
  8
FOREGROUND
  6
CONTINUOUS
 10
0.000000
 20
11.813560
  0
SEQEND
  8
0
  0
POLYLINE
  8
FOREGROUND
  6
CONTINUOUS
 66
     1
 40
0.000000
 41
0.000000
  0
VERTEX
  8
FOREGROUND
  6
CONTINUOUS
 10
0.000000
 20
11.813560
  0
VERTEX
  8
FOREGROUND
  6
CONTINUOUS
 10
8.499920
 20
11.813560
  0
VERTEX
  8
FOREGROUND
  6
CONTINUOUS
 10
8.499920
 20
0.813560
  0
VERTEX
  8
FOREGROUND
  6
CONTINUOUS
 10
0.000000
 20
0.813560
  0
VERTEX
  8
FOREGROUND
  6
CONTINUOUS
 10
0.000000
 20
11.813560
  0
SEQEND
  8
0
  0
POLYLINE
  8
0
  6
CONTINUOUS
 66
     1
 40
0.000000
 41
0.000000
  0
VERTEX
  8
0
  6
CONTINUOUS
 10
1.917960
 20
6.092240
  0
VERTEX
  8
0
  6
CONTINUOUS
 10
1.917960
 20
8.361320
  0
VERTEX
  8
0
  6
CONTINUOUS
 10
1.837880
 20
8.346360
  0
VERTEX
  8
0
  6
CONTINUOUS
 10
1.763080
 20
8.327880
  0
VERTEX
  8
0
  6
CONTINUOUS
 10
1.692680
 20
8.306760
  0
VERTEX
  8
0
  6
CONTINUOUS
 10
1.627560
 20
8.283000
  0
VERTEX
  8
0
  6
CONTINUOUS
 10
1.566840
 20
8.257040
  0
VERTEX
  8
0
  6
CONTINUOUS
 10
1.510960
 20
8.228440
  0
VERTEX
  8
0
  6
CONTINUOUS
 10
1.459480
 20
8.198080
  0
VERTEX
  8
0
  6
CONTINUOUS
 10
1.412400
 20
8.165520
  0
VERTEX
  8
0
  6
CONTINUOUS
 10
1.350360
 20
8.114480
  0
VERTEX
  8
0
  6
CONTINUOUS
 10
1.314720
 20
8.078840
  0
VERTEX
  8
0
  6
CONTINUOUS
 10
1.268960
 20
8.023400
  0
VERTEX
  8
0
  6
CONTINUOUS
 10
1.243440
 20
7.985560
  0
VERTEX
  8
0
  6
CONTINUOUS
 10
1.222320
 20
7.947720
  0
VERTEX
  8
0
  6
CONTINUOUS
 10
1.205160
 20
7.909440
  0
VERTEX
  8
0
  6
CONTINUOUS
 10
1.191960
 20
7.871160
  0
VERTEX
  8
0
  6
CONTINUOUS
 10
1.182720
 20
7.833320
  0
VERTEX
  8
0
  6
CONTINUOUS
 10
1.177440
 20
7.795480
  0
VERTEX
  8
0
  6
CONTINUOUS
 10
1.175680
 20
7.758960
  0
VERTEX
  8
0
  6
CONTINUOUS
 10
1.177880
 20
7.723320
  0
VERTEX
  8
0
  6
CONTINUOUS
 10
1.183600
 20
7.689000
  0
VERTEX
  8
0
  6
CONTINUOUS
 10
1.192840
 20
7.655560
  0
VERTEX
  8
0
  6
CONTINUOUS
 10
1.205600
 20
7.624320
  0
VERTEX
  8
0
  6
CONTINUOUS
 10
1.221880
 20
7.594840
  0
VERTEX
  8
0
  6
CONTINUOUS
 10
1.252680
 20
7.554360
  0
VERTEX
  8
0
  6
CONTINUOUS
 10
1.277320
 20
7.530600
  0
VERTEX
  8
0
  6
CONTINUOUS
 10
1.305040
 20
7.509480
  0
VERTEX
  8
0
  6
CONTINUOUS
 10
1.336280
 20
7.491440
  0
VERTEX
  8
0
  6
CONTINUOUS
 10
1.370160
 20
7.476480
  0
VERTEX
  8
0
  6
CONTINUOUS
 10
1.407120
 20
7.464600
  0
VERTEX
  8
0
  6
CONTINUOUS
 10
1.447160
 20
7.456680
  0
VERTEX
  8
0
  6
CONTINUOUS
 10
1.468280
 20
7.454040
  0
VERTEX
  8
0
  6
CONTINUOUS
 10
1.425160
 20
7.438640
  0
VERTEX
  8
0
  6
CONTINUOUS
 10
1.385120
 20
7.417080
  0
VERTEX
  8
0
  6
CONTINUOUS
 10
1.349480
 20
7.391120
  0
VERTEX
  8
0
  6
CONTINUOUS
 10
1.320000
 20
7.362520
  0
VERTEX
  8
0
  6
CONTINUOUS
 10
1.297560
 20
7.332600
  0
VERTEX
  8
0
  6
CONTINUOUS
 10
1.289640
 20
7.317640
  0
VERTEX
  8
0
  6
CONTINUOUS
 10
1.281720
 20
7.295640
  0
VERTEX
  8
0
  6
CONTINUOUS
 10
1.279520
 20
7.274960
  0
VERTEX
  8
0
  6
CONTINUOUS
 10
1.283920
 20
7.256040
  0
VERTEX
  8
0
  6
CONTINUOUS
 10
1.286560
 20
7.250320
  0
VERTEX
  8
0
  6
CONTINUOUS
 10
1.308120
 20
7.247680
  0
VERTEX
  8
0
  6
CONTINUOUS
 10
1.340240
 20
7.238440
  0
VERTEX
  8
0
  6
CONTINUOUS
 10
1.371920
 20
7.223480
  0
VERTEX
  8
0
  6
CONTINUOUS
 10
1.411520
 20
7.195760
  0
VERTEX
  8
0
  6
CONTINUOUS
 10
1.430000
 20
7.179040
  0
VERTEX
  8
0
  6
CONTINUOUS
 10
1.447600
 20
7.160560
  0
VERTEX
  8
0
  6
CONTINUOUS
 10
1.478840
 20
7.119200
  0
VERTEX
  8
0
  6
CONTINUOUS
 10
1.492040
 20
7.096760
  0
VERTEX
  8
0
  6
CONTINUOUS
 10
1.503480
 20
7.073440
  0
VERTEX
  8
0
  6
CONTINUOUS
 10
1.513160
 20
7.049680
  0
VERTEX
  8
0
  6
CONTINUOUS
 10
1.521080
 20
7.025040
  0
VERTEX
  8
0
  6
CONTINUOUS
 10
1.526360
 20
6.999960
  0
VERTEX
  8
0
  6
CONTINUOUS
 10
1.529440
 20
6.962120
  0
VERTEX
  8
0
  6
CONTINUOUS
 10
1.528560
 20
6.937040
  0
VERTEX
  8
0
  6
CONTINUOUS
 10
1.524600
 20
6.912400
  0
VERTEX
  8
0
  6
CONTINUOUS
 10
1.518000
 20
6.887760
  0
VERTEX
  8
0
  6
CONTINUOUS
 10
1.501720
 20
6.852560
  0
VERTEX
  8
0
  6
CONTINUOUS
 10
1.477960
 20
6.819560
  0
VERTEX
  8
0
  6
CONTINUOUS
 10
1.445840
 20
6.789200
  0
VERTEX
  8
0
  6
CONTINUOUS
 10
1.404920
 20
6.761920
  0
VERTEX
  8
0
  6
CONTINUOUS
 10
1.372360
 20
6.746080
  0
VERTEX
  8
0
  6
CONTINUOUS
 10
1.335840
 20
6.732440
  0
VERTEX
  8
0
  6
CONTINUOUS
 10
1.294480
 20
6.720560
  0
VERTEX
  8
0
  6
CONTINUOUS
 10
1.223640
 20
6.707360
  0
VERTEX
  8
0
  6
CONTINUOUS
 10
1.170400
 20
6.701640
  0
VERTEX
  8
0
  6
CONTINUOUS
 10
1.112320
 20
6.699000
  0
VERTEX
  8
0
  6
CONTINUOUS
 10
1.112320
 20
6.587240
  0
VERTEX
  8
0
  6
CONTINUOUS
 10
1.111880
 20
6.589440
  0
VERTEX
  8
0
  6
CONTINUOUS
 10
1.073160
 20
6.588120
  0
VERTEX
  8
0
  6
CONTINUOUS
 10
1.048960
 20
6.584600
  0
VERTEX
  8
0
  6
CONTINUOUS
 10
1.025200
 20
6.578440
  0
VERTEX
  8
0
  6
CONTINUOUS
 10
1.002320
 20
6.570080
  0
VERTEX
  8
0
  6
CONTINUOUS
 10
0.980760
 20
6.559520
  0
VERTEX
  8
0
  6
CONTINUOUS
 10
0.960080
 20
6.547200
  0
VERTEX
  8
0
  6
CONTINUOUS
 10
0.923560
 20
6.516840
  0
VERTEX
  8
0
  6
CONTINUOUS
 10
0.893200
 20
6.480320
  0
VERTEX
  8
0
  6
CONTINUOUS
 10
0.880880
 20
6.459640
  0
VERTEX
  8
0
  6
CONTINUOUS
 10
0.870320
 20
6.438080
  0
VERTEX
  8
0
  6
CONTINUOUS
 10
0.858880
 20
6.403760
  0
VERTEX
  8
0
  6
CONTINUOUS
 10
0.853600
 20
6.379560
  0
VERTEX
  8
0
  6
CONTINUOUS
 10
0.850960
 20
6.341720
  0
VERTEX
  8
0
  6
CONTINUOUS
 10
0.853600
 20
6.303880
  0
VERTEX
  8
0
  6
CONTINUOUS
 10
0.861960
 20
6.267800
  0
VERTEX
  8
0
  6
CONTINUOUS
 10
0.870320
 20
6.245360
  0
VERTEX
  8
0
  6
CONTINUOUS
 10
0.880880
 20
6.223360
  0
VERTEX
  8
0
  6
CONTINUOUS
 10
0.893200
 20
6.203120
  0
VERTEX
  8
0
  6
CONTINUOUS
 10
0.907720
 20
6.183760
  0
VERTEX
  8
0
  6
CONTINUOUS
 10
0.923560
 20
6.166160
  0
VERTEX
  8
0
  6
CONTINUOUS
 10
0.960080
 20
6.135800
  0
VERTEX
  8
0
  6
CONTINUOUS
 10
0.980760
 20
6.123480
  0
VERTEX
  8
0
  6
CONTINUOUS
 10
1.002320
 20
6.112920
  0
VERTEX
  8
0
  6
CONTINUOUS
 10
1.036640
 20
6.101480
  0
VERTEX
  8
0
  6
CONTINUOUS
 10
1.060840
 20
6.096640
  0
VERTEX
  8
0
  6
CONTINUOUS
 10
1.085920
 20
6.094000
  0
VERTEX
  8
0
  6
CONTINUOUS
 10
1.916200
 20
6.093560
  0
VERTEX
  8
0
  6
CONTINUOUS
 10
1.917960
 20
6.092240
  0
SEQEND
  8
0
  0
POLYLINE
  8
0
  6
CONTINUOUS
 66
     1
 40
0.000000
 41
0.000000
  0
VERTEX
  8
0
  6
CONTINUOUS
 10
1.915320
 20
8.214800
  0
VERTEX
  8
0
  6
CONTINUOUS
 10
6.774240
 20
8.215680
  0
VERTEX
  8
0
  6
CONTINUOUS
 10
6.774240
 20
8.353400
  0
VERTEX
  8
0
  6
CONTINUOUS
 10
6.770720
 20
8.380680
  0
VERTEX
  8
0
  6
CONTINUOUS
 10
6.760600
 20
8.410160
  0
VERTEX
  8
0
  6
CONTINUOUS
 10
6.747840
 20
8.430840
  0
VERTEX
  8
0
  6
CONTINUOUS
 10
6.728480
 20
8.447560
  0
VERTEX
  8
0
  6
CONTINUOUS
 10
6.712200
 20
8.455920
  0
VERTEX
  8
0
  6
CONTINUOUS
 10
6.691960
 20
8.460760
  0
VERTEX
  8
0
  6
CONTINUOUS
 10
6.668640
 20
8.462520
  0
VERTEX
  8
0
  6
CONTINUOUS
 10
6.640480
 20
8.459440
  0
VERTEX
  8
0
  6
CONTINUOUS
 10
6.608360
 20
8.451960
  0
VERTEX
  8
0
  6
CONTINUOUS
 10
6.571400
 20
8.438760
  0
VERTEX
  8
0
  6
CONTINUOUS
 10
6.506720
 20
8.409280
  0
VERTEX
  8
0
  6
CONTINUOUS
 10
6.459200
 20
8.392120
  0
VERTEX
  8
0
  6
CONTINUOUS
 10
6.408160
 20
8.379800
  0
VERTEX
  8
0
  6
CONTINUOUS
 10
6.354480
 20
8.371880
  0
VERTEX
  8
0
  6
CONTINUOUS
 10
6.298600
 20
8.368360
  0
VERTEX
  8
0
  6
CONTINUOUS
 10
6.240080
 20
8.368360
  0
VERTEX
  8
0
  6
CONTINUOUS
 10
6.149000
 20
8.374520
  0
VERTEX
  8
0
  6
CONTINUOUS
 10
6.053960
 20
8.387280
  0
VERTEX
  8
0
  6
CONTINUOUS
 10
5.955840
 20
8.405320
  0
VERTEX
  8
0
  6
CONTINUOUS
 10
5.822960
 20
8.435240
  0
VERTEX
  8
0
  6
CONTINUOUS
 10
5.687880
 20
8.469560
  0
VERTEX
  8
0
  6
CONTINUOUS
 10
5.190240
 20
8.601560
  0
VERTEX
  8
0
  6
CONTINUOUS
 10
5.033160
 20
8.639400
  0
VERTEX
  8
0
  6
CONTINUOUS
 10
4.873880
 20
8.674160
  0
VERTEX
  8
0
  6
CONTINUOUS
 10
4.794240
 20
8.689560
  0
VERTEX
  8
0
  6
CONTINUOUS
 10
4.715040
 20
8.703200
  0
VERTEX
  8
0
  6
CONTINUOUS
 10
4.636720
 20
8.715080
  0
VERTEX
  8
0
  6
CONTINUOUS
 10
4.521000
 20
8.728720
  0
VERTEX
  8
0
  6
CONTINUOUS
 10
4.446200
 20
8.734440
  0
VERTEX
  8
0
  6
CONTINUOUS
 10
4.373160
 20
8.737520
  0
VERTEX
  8
0
  6
CONTINUOUS
 10
4.337520
 20
8.737960
  0
VERTEX
  8
0
  6
CONTINUOUS
 10
4.357320
 20
8.737520
  0
VERTEX
  8
0
  6
CONTINUOUS
 10
4.285600
 20
8.736200
  0
VERTEX
  8
0
  6
CONTINUOUS
 10
4.211240
 20
8.731800
  0
VERTEX
  8
0
  6
CONTINUOUS
 10
4.135120
 20
8.724760
  0
VERTEX
  8
0
  6
CONTINUOUS
 10
4.057680
 20
8.715080
  0
VERTEX
  8
0
  6
CONTINUOUS
 10
3.978920
 20
8.703640
  0
VERTEX
  8
0
  6
CONTINUOUS
 10
3.819200
 20
8.675040
  0
VERTEX
  8
0
  6
CONTINUOUS
 10
3.659040
 20
8.641160
  0
VERTEX
  8
0
  6
CONTINUOUS
 10
3.424520
 20
8.584400
  0
VERTEX
  8
0
  6
CONTINUOUS
 10
2.935240
 20
8.455040
  0
VERTEX
  8
0
  6
CONTINUOUS
 10
2.800600
 20
8.422480
  0
VERTEX
  8
0
  6
CONTINUOUS
 10
2.734600
 20
8.408400
  0
VERTEX
  8
0
  6
CONTINUOUS
 10
2.604800
 20
8.385520
  0
VERTEX
  8
0
  6
CONTINUOUS
 10
2.510640
 20
8.374960
  0
VERTEX
  8
0
  6
CONTINUOUS
 10
2.450360
 20
8.371880
  0
VERTEX
  8
0
  6
CONTINUOUS
 10
2.391840
 20
8.371880
  0
VERTEX
  8
0
  6
CONTINUOUS
 10
2.335960
 20
8.375400
  0
VERTEX
  8
0
  6
CONTINUOUS
 10
2.282280
 20
8.383320
  0
VERTEX
  8
0
  6
CONTINUOUS
 10
2.231240
 20
8.395640
  0
VERTEX
  8
0
  6
CONTINUOUS
 10
2.183720
 20
8.412800
  0
VERTEX
  8
0
  6
CONTINUOUS
 10
2.119040
 20
8.442280
  0
VERTEX
  8
0
  6
CONTINUOUS
 10
2.082080
 20
8.455480
  0
VERTEX
  8
0
  6
CONTINUOUS
 10
2.049960
 20
8.462960
  0
VERTEX
  8
0
  6
CONTINUOUS
 10
2.035440
 20
8.465160
  0
VERTEX
  8
0
  6
CONTINUOUS
 10
2.009480
 20
8.465600
  0
VERTEX
  8
0
  6
CONTINUOUS
 10
1.987920
 20
8.462080
  0
VERTEX
  8
0
  6
CONTINUOUS
 10
1.969440
 20
8.455480
  0
VERTEX
  8
0
  6
CONTINUOUS
 10
1.948320
 20
8.440080
  0
VERTEX
  8
0
  6
CONTINUOUS
 10
1.933360
 20
8.420720
  0
VERTEX
  8
0
  6
CONTINUOUS
 10
1.924120
 20
8.398720
  0
VERTEX
  8
0
  6
CONTINUOUS
 10
1.919720
 20
8.384200
  0
VERTEX
  8
0
  6
CONTINUOUS
 10
1.916200
 20
8.356480
  0
VERTEX
  8
0
  6
CONTINUOUS
 10
1.916200
 20
8.218760
  0
VERTEX
  8
0
  6
CONTINUOUS
 10
1.915320
 20
8.214800
  0
SEQEND
  8
0
  0
POLYLINE
  8
0
  6
CONTINUOUS
 66
     1
 40
0.000000
 41
0.000000
  0
VERTEX
  8
0
  6
CONTINUOUS
 10
6.774240
 20
6.095760
  0
VERTEX
  8
0
  6
CONTINUOUS
 10
6.774240
 20
8.364840
  0
VERTEX
  8
0
  6
CONTINUOUS
 10
6.854320
 20
8.349880
  0
VERTEX
  8
0
  6
CONTINUOUS
 10
6.929120
 20
8.331400
  0
VERTEX
  8
0
  6
CONTINUOUS
 10
6.999520
 20
8.310280
  0
VERTEX
  8
0
  6
CONTINUOUS
 10
7.064640
 20
8.286520
  0
VERTEX
  8
0
  6
CONTINUOUS
 10
7.125360
 20
8.260560
  0
VERTEX
  8
0
  6
CONTINUOUS
 10
7.181240
 20
8.231960
  0
VERTEX
  8
0
  6
CONTINUOUS
 10
7.232720
 20
8.201600
  0
VERTEX
  8
0
  6
CONTINUOUS
 10
7.279800
 20
8.169040
  0
VERTEX
  8
0
  6
CONTINUOUS
 10
7.322040
 20
8.135600
  0
VERTEX
  8
0
  6
CONTINUOUS
 10
7.360320
 20
8.100400
  0
VERTEX
  8
0
  6
CONTINUOUS
 10
7.394200
 20
8.063880
  0
VERTEX
  8
0
  6
CONTINUOUS
 10
7.423680
 20
8.026920
  0
VERTEX
  8
0
  6
CONTINUOUS
 10
7.448760
 20
7.989520
  0
VERTEX
  8
0
  6
CONTINUOUS
 10
7.479120
 20
7.931880
  0
VERTEX
  8
0
  6
CONTINUOUS
 10
7.494520
 20
7.893600
  0
VERTEX
  8
0
  6
CONTINUOUS
 10
7.505520
 20
7.855760
  0
VERTEX
  8
0
  6
CONTINUOUS
 10
7.513000
 20
7.817920
  0
VERTEX
  8
0
  6
CONTINUOUS
 10
7.516520
 20
7.780960
  0
VERTEX
  8
0
  6
CONTINUOUS
 10
7.516080
 20
7.744880
  0
VERTEX
  8
0
  6
CONTINUOUS
 10
7.512120
 20
7.709680
  0
VERTEX
  8
0
  6
CONTINUOUS
 10
7.504640
 20
7.675800
  0
VERTEX
  8
0
  6
CONTINUOUS
 10
7.493640
 20
7.643680
  0
VERTEX
  8
0
  6
CONTINUOUS
 10
7.479120
 20
7.612880
  0
VERTEX
  8
0
  6
CONTINUOUS
 10
7.450960
 20
7.571080
  0
VERTEX
  8
0
  6
CONTINUOUS
 10
7.428080
 20
7.546000
  0
VERTEX
  8
0
  6
CONTINUOUS
 10
7.401680
 20
7.523560
  0
VERTEX
  8
0
  6
CONTINUOUS
 10
7.372200
 20
7.503760
  0
VERTEX
  8
0
  6
CONTINUOUS
 10
7.339640
 20
7.487040
  0
VERTEX
  8
0
  6
CONTINUOUS
 10
7.304440
 20
7.473840
  0
VERTEX
  8
0
  6
CONTINUOUS
 10
7.265720
 20
7.463720
  0
VERTEX
  8
0
  6
CONTINUOUS
 10
7.224360
 20
7.457560
  0
VERTEX
  8
0
  6
CONTINUOUS
 10
7.267480
 20
7.442160
  0
VERTEX
  8
0
  6
CONTINUOUS
 10
7.288160
 20
7.432040
  0
VERTEX
  8
0
  6
CONTINUOUS
 10
7.326000
 20
7.408280
  0
VERTEX
  8
0
  6
CONTINUOUS
 10
7.343160
 20
7.395080
  0
VERTEX
  8
0
  6
CONTINUOUS
 10
7.372640
 20
7.366040
  0
VERTEX
  8
0
  6
CONTINUOUS
 10
7.394640
 20
7.336120
  0
VERTEX
  8
0
  6
CONTINUOUS
 10
7.408720
 20
7.306640
  0
VERTEX
  8
0
  6
CONTINUOUS
 10
7.412680
 20
7.285520
  0
VERTEX
  8
0
  6
CONTINUOUS
 10
7.411800
 20
7.272320
  0
VERTEX
  8
0
  6
CONTINUOUS
 10
7.408280
 20
7.260000
  0
VERTEX
  8
0
  6
CONTINUOUS
 10
7.405640
 20
7.254280
  0
VERTEX
  8
0
  6
CONTINUOUS
 10
7.384080
 20
7.251640
  0
VERTEX
  8
0
  6
CONTINUOUS
 10
7.351960
 20
7.241960
  0
VERTEX
  8
0
  6
CONTINUOUS
 10
7.320280
 20
7.227000
  0
VERTEX
  8
0
  6
CONTINUOUS
 10
7.300040
 20
7.214240
  0
VERTEX
  8
0
  6
CONTINUOUS
 10
7.280680
 20
7.199280
  0
VERTEX
  8
0
  6
CONTINUOUS
 10
7.262200
 20
7.182560
  0
VERTEX
  8
0
  6
CONTINUOUS
 10
7.228320
 20
7.144280
  0
VERTEX
  8
0
  6
CONTINUOUS
 10
7.200160
 20
7.100720
  0
VERTEX
  8
0
  6
CONTINUOUS
 10
7.188720
 20
7.077400
  0
VERTEX
  8
0
  6
CONTINUOUS
 10
7.179040
 20
7.053200
  0
VERTEX
  8
0
  6
CONTINUOUS
 10
7.171560
 20
7.028560
  0
VERTEX
  8
0
  6
CONTINUOUS
 10
7.166280
 20
7.003480
  0
VERTEX
  8
0
  6
CONTINUOUS
 10
7.162760
 20
6.966080
  0
VERTEX
  8
0
  6
CONTINUOUS
 10
7.163640
 20
6.940560
  0
VERTEX
  8
0
  6
CONTINUOUS
 10
7.170680
 20
6.903600
  0
VERTEX
  8
0
  6
CONTINUOUS
 10
7.179040
 20
6.879840
  0
VERTEX
  8
0
  6
CONTINUOUS
 10
7.197960
 20
6.845080
  0
VERTEX
  8
0
  6
CONTINUOUS
 10
7.214680
 20
6.823080
  0
VERTEX
  8
0
  6
CONTINUOUS
 10
7.246800
 20
6.792720
  0
VERTEX
  8
0
  6
CONTINUOUS
 10
7.273200
 20
6.774240
  0
VERTEX
  8
0
  6
CONTINUOUS
 10
7.303560
 20
6.757520
  0
VERTEX
  8
0
  6
CONTINUOUS
 10
7.356800
 20
6.735960
  0
VERTEX
  8
0
  6
CONTINUOUS
 10
7.398160
 20
6.724520
  0
VERTEX
  8
0
  6
CONTINUOUS
 10
7.443920
 20
6.714840
  0
VERTEX
  8
0
  6
CONTINUOUS
 10
7.522240
 20
6.705600
  0
VERTEX
  8
0
  6
CONTINUOUS
 10
7.580320
 20
6.702960
  0
VERTEX
  8
0
  6
CONTINUOUS
 10
7.580320
 20
6.590760
  0
VERTEX
  8
0
  6
CONTINUOUS
 10
7.580320
 20
6.592960
  0
VERTEX
  8
0
  6
CONTINUOUS
 10
7.619480
 20
6.591640
  0
VERTEX
  8
0
  6
CONTINUOUS
 10
7.643680
 20
6.588120
  0
VERTEX
  8
0
  6
CONTINUOUS
 10
7.667440
 20
6.581960
  0
VERTEX
  8
0
  6
CONTINUOUS
 10
7.690320
 20
6.573600
  0
VERTEX
  8
0
  6
CONTINUOUS
 10
7.711880
 20
6.563040
  0
VERTEX
  8
0
  6
CONTINUOUS
 10
7.732560
 20
6.550720
  0
VERTEX
  8
0
  6
CONTINUOUS
 10
7.751480
 20
6.536200
  0
VERTEX
  8
0
  6
CONTINUOUS
 10
7.769080
 20
6.520360
  0
VERTEX
  8
0
  6
CONTINUOUS
 10
7.784920
 20
6.502760
  0
VERTEX
  8
0
  6
CONTINUOUS
 10
7.799440
 20
6.483840
  0
VERTEX
  8
0
  6
CONTINUOUS
 10
7.811760
 20
6.463160
  0
VERTEX
  8
0
  6
CONTINUOUS
 10
7.822320
 20
6.441600
  0
VERTEX
  8
0
  6
CONTINUOUS
 10
7.833760
 20
6.407280
  0
VERTEX
  8
0
  6
CONTINUOUS
 10
7.839040
 20
6.383080
  0
VERTEX
  8
0
  6
CONTINUOUS
 10
7.841680
 20
6.345240
  0
VERTEX
  8
0
  6
CONTINUOUS
 10
7.839040
 20
6.307400
  0
VERTEX
  8
0
  6
CONTINUOUS
 10
7.830680
 20
6.271760
  0
VERTEX
  8
0
  6
CONTINUOUS
 10
7.822320
 20
6.248880
  0
VERTEX
  8
0
  6
CONTINUOUS
 10
7.811760
 20
6.227320
  0
VERTEX
  8
0
  6
CONTINUOUS
 10
7.799440
 20
6.206640
  0
VERTEX
  8
0
  6
CONTINUOUS
 10
7.784920
 20
6.187720
  0
VERTEX
  8
0
  6
CONTINUOUS
 10
7.769080
 20
6.170120
  0
VERTEX
  8
0
  6
CONTINUOUS
 10
7.751480
 20
6.154280
  0
VERTEX
  8
0
  6
CONTINUOUS
 10
7.732560
 20
6.139760
  0
VERTEX
  8
0
  6
CONTINUOUS
 10
7.711880
 20
6.127440
  0
VERTEX
  8
0
  6
CONTINUOUS
 10
7.690320
 20
6.116880
  0
VERTEX
  8
0
  6
CONTINUOUS
 10
7.656000
 20
6.105440
  0
VERTEX
  8
0
  6
CONTINUOUS
 10
7.631800
 20
6.100160
  0
VERTEX
  8
0
  6
CONTINUOUS
 10
7.593960
 20
6.097520
  0
VERTEX
  8
0
  6
CONTINUOUS
 10
6.776000
 20
6.097520
  0
VERTEX
  8
0
  6
CONTINUOUS
 10
6.774240
 20
6.095760
  0
SEQEND
  8
0
  0
SOLID
  8
0
 62
    15
 10
0.641960
 20
3.592600
 11
1.255760
 21
3.952520
 12
0.691680
 22
3.597440
 13
1.305920
 23
3.957360
  0
POLYLINE
  8
0
  6
CONTINUOUS
 66
     1
 40
0.000000
 41
0.000000
  0
VERTEX
  8
0
  6
CONTINUOUS
 10
0.641960
 20
3.592600
  0
VERTEX
  8
0
  6
CONTINUOUS
 10
1.255760
 20
3.952520
  0
VERTEX
  8
0
  6
CONTINUOUS
 10
1.305920
 20
3.957360
  0
VERTEX
  8
0
  6
CONTINUOUS
 10
0.691680
 20
3.597440
  0
VERTEX
  8
0
  6
CONTINUOUS
 10
0.641960
 20
3.592600
  0
SEQEND
  8
0
  0
SOLID
  8
0
 62
    15
 10
0.595320
 20
3.578080
 11
1.209560
 21
3.938000
 12
0.641960
 22
3.592600
 13
1.255760
 23
3.952520
  0
POLYLINE
  8
0
  6
CONTINUOUS
 66
     1
 40
0.000000
 41
0.000000
  0
VERTEX
  8
0
  6
CONTINUOUS
 10
0.595320
 20
3.578080
  0
VERTEX
  8
0
  6
CONTINUOUS
 10
1.209560
 20
3.938000
  0
VERTEX
  8
0
  6
CONTINUOUS
 10
1.255760
 20
3.952520
  0
VERTEX
  8
0
  6
CONTINUOUS
 10
0.641960
 20
3.592600
  0
VERTEX
  8
0
  6
CONTINUOUS
 10
0.595320
 20
3.578080
  0
SEQEND
  8
0
  0
SOLID
  8
0
 62
    15
 10
0.691680
 20
3.597440
 11
1.305920
 21
3.957360
 12
0.705320
 22
3.597440
 13
1.319120
 23
3.957360
  0
POLYLINE
  8
0
  6
CONTINUOUS
 66
     1
 40
0.000000
 41
0.000000
  0
VERTEX
  8
0
  6
CONTINUOUS
 10
0.691680
 20
3.597440
  0
VERTEX
  8
0
  6
CONTINUOUS
 10
1.305920
 20
3.957360
  0
VERTEX
  8
0
  6
CONTINUOUS
 10
1.319120
 20
3.957360
  0
VERTEX
  8
0
  6
CONTINUOUS
 10
0.705320
 20
3.597440
  0
VERTEX
  8
0
  6
CONTINUOUS
 10
0.691680
 20
3.597440
  0
SEQEND
  8
0
  0
SOLID
  8
0
 62
    15
 10
0.908600
 20
3.734720
 11
1.522840
 21
4.094640
 12
0.982080
 22
3.762440
 13
1.596320
 23
4.122360
  0
POLYLINE
  8
0
  6
CONTINUOUS
 66
     1
 40
0.000000
 41
0.000000
  0
VERTEX
  8
0
  6
CONTINUOUS
 10
0.908600
 20
3.734720
  0
VERTEX
  8
0
  6
CONTINUOUS
 10
1.522840
 20
4.094640
  0
VERTEX
  8
0
  6
CONTINUOUS
 10
1.596320
 20
4.122360
  0
VERTEX
  8
0
  6
CONTINUOUS
 10
0.982080
 20
3.762440
  0
VERTEX
  8
0
  6
CONTINUOUS
 10
0.908600
 20
3.734720
  0
SEQEND
  8
0
  0
SOLID
  8
0
 62
    15
 10
0.705320
 20
3.597440
 11
1.319120
 21
3.957360
 12
0.705320
 22
3.595240
 13
1.319560
 23
3.955160
  0
POLYLINE
  8
0
  6
CONTINUOUS
 66
     1
 40
0.000000
 41
0.000000
  0
VERTEX
  8
0
  6
CONTINUOUS
 10
0.705320
 20
3.597440
  0
VERTEX
  8
0
  6
CONTINUOUS
 10
1.319120
 20
3.957360
  0
VERTEX
  8
0
  6
CONTINUOUS
 10
1.319560
 20
3.955160
  0
VERTEX
  8
0
  6
CONTINUOUS
 10
0.705320
 20
3.595240
  0
VERTEX
  8
0
  6
CONTINUOUS
 10
0.705320
 20
3.597440
  0
SEQEND
  8
0
  0
SOLID
  8
0
 62
    15
 10
0.705320
 20
3.707440
 11
1.319560
 21
4.067360
 12
0.763840
 22
3.710080
 13
1.377640
 23
4.070000
  0
POLYLINE
  8
0
  6
CONTINUOUS
 66
     1
 40
0.000000
 41
0.000000
  0
VERTEX
  8
0
  6
CONTINUOUS
 10
0.705320
 20
3.707440
  0
VERTEX
  8
0
  6
CONTINUOUS
 10
1.319560
 20
4.067360
  0
VERTEX
  8
0
  6
CONTINUOUS
 10
1.377640
 20
4.070000
  0
VERTEX
  8
0
  6
CONTINUOUS
 10
0.763840
 20
3.710080
  0
VERTEX
  8
0
  6
CONTINUOUS
 10
0.705320
 20
3.707440
  0
SEQEND
  8
0
  0
SOLID
  8
0
 62
    15
 10
0.763840
 20
3.710080
 11
1.377640
 21
4.070000
 12
0.816640
 22
3.715800
 13
1.430880
 23
4.075720
  0
POLYLINE
  8
0
  6
CONTINUOUS
 66
     1
 40
0.000000
 41
0.000000
  0
VERTEX
  8
0
  6
CONTINUOUS
 10
0.763840
 20
3.710080
  0
VERTEX
  8
0
  6
CONTINUOUS
 10
1.377640
 20
4.070000
  0
VERTEX
  8
0
  6
CONTINUOUS
 10
1.430880
 20
4.075720
  0
VERTEX
  8
0
  6
CONTINUOUS
 10
0.816640
 20
3.715800
  0
VERTEX
  8
0
  6
CONTINUOUS
 10
0.763840
 20
3.710080
  0
SEQEND
  8
0
  0
SOLID
  8
0
 62
    15
 10
0.553080
 20
3.555200
 11
1.167320
 21
3.915120
 12
0.595320
 22
3.578080
 13
1.209560
 23
3.938000
  0
POLYLINE
  8
0
  6
CONTINUOUS
 66
     1
 40
0.000000
 41
0.000000
  0
VERTEX
  8
0
  6
CONTINUOUS
 10
0.553080
 20
3.555200
  0
VERTEX
  8
0
  6
CONTINUOUS
 10
1.167320
 20
3.915120
  0
VERTEX
  8
0
  6
CONTINUOUS
 10
1.209560
 20
3.938000
  0
VERTEX
  8
0
  6
CONTINUOUS
 10
0.595320
 20
3.578080
  0
VERTEX
  8
0
  6
CONTINUOUS
 10
0.553080
 20
3.555200
  0
SEQEND
  8
0
  0
SOLID
  8
0
 62
    15
 10
0.865040
 20
3.724160
 11
1.479280
 21
4.084080
 12
0.908600
 22
3.734720
 13
1.522840
 23
4.094640
  0
POLYLINE
  8
0
  6
CONTINUOUS
 66
     1
 40
0.000000
 41
0.000000
  0
VERTEX
  8
0
  6
CONTINUOUS
 10
0.865040
 20
3.724160
  0
VERTEX
  8
0
  6
CONTINUOUS
 10
1.479280
 20
4.084080
  0
VERTEX
  8
0
  6
CONTINUOUS
 10
1.522840
 20
4.094640
  0
VERTEX
  8
0
  6
CONTINUOUS
 10
0.908600
 20
3.734720
  0
VERTEX
  8
0
  6
CONTINUOUS
 10
0.865040
 20
3.724160
  0
SEQEND
  8
0
  0
SOLID
  8
0
 62
    15
 10
0.816640
 20
3.715800
 11
1.430880
 21
4.075720
 12
0.865040
 22
3.724160
 13
1.479280
 23
4.084080
  0
POLYLINE
  8
0
  6
CONTINUOUS
 66
     1
 40
0.000000
 41
0.000000
  0
VERTEX
  8
0
  6
CONTINUOUS
 10
0.816640
 20
3.715800
  0
VERTEX
  8
0
  6
CONTINUOUS
 10
1.430880
 20
4.075720
  0
VERTEX
  8
0
  6
CONTINUOUS
 10
1.479280
 20
4.084080
  0
VERTEX
  8
0
  6
CONTINUOUS
 10
0.865040
 20
3.724160
  0
VERTEX
  8
0
  6
CONTINUOUS
 10
0.816640
 20
3.715800
  0
SEQEND
  8
0
  0
SOLID
  8
0
 62
    15
 10
0.978120
 20
4.425520
 11
1.591920
 21
4.785440
 12
1.018160
 22
4.447080
 13
1.631960
 23
4.807000
  0
POLYLINE
  8
0
  6
CONTINUOUS
 66
     1
 40
0.000000
 41
0.000000
  0
VERTEX
  8
0
  6
CONTINUOUS
 10
0.978120
 20
4.425520
  0
VERTEX
  8
0
  6
CONTINUOUS
 10
1.591920
 20
4.785440
  0
VERTEX
  8
0
  6
CONTINUOUS
 10
1.631960
 20
4.807000
  0
VERTEX
  8
0
  6
CONTINUOUS
 10
1.018160
 20
4.447080
  0
VERTEX
  8
0
  6
CONTINUOUS
 10
0.978120
 20
4.425520
  0
SEQEND
  8
0
  0
SOLID
  8
0
 62
    15
 10
1.018160
 20
4.447080
 11
1.631960
 21
4.807000
 12
1.061280
 22
4.462480
 13
1.675520
 23
4.822400
  0
POLYLINE
  8
0
  6
CONTINUOUS
 66
     1
 40
0.000000
 41
0.000000
  0
VERTEX
  8
0
  6
CONTINUOUS
 10
1.018160
 20
4.447080
  0
VERTEX
  8
0
  6
CONTINUOUS
 10
1.631960
 20
4.807000
  0
VERTEX
  8
0
  6
CONTINUOUS
 10
1.675520
 20
4.822400
  0
VERTEX
  8
0
  6
CONTINUOUS
 10
1.061280
 20
4.462480
  0
VERTEX
  8
0
  6
CONTINUOUS
 10
1.018160
 20
4.447080
  0
SEQEND
  8
0
  0
SOLID
  8
0
 62
    15
 10
1.103960
 20
5.236440
 11
1.718200
 21
5.596800
 12
1.160280
 22
5.265040
 13
1.774080
 23
5.624960
  0
POLYLINE
  8
0
  6
CONTINUOUS
 66
     1
 40
0.000000
 41
0.000000
  0
VERTEX
  8
0
  6
CONTINUOUS
 10
1.103960
 20
5.236440
  0
VERTEX
  8
0
  6
CONTINUOUS
 10
1.718200
 20
5.596800
  0
VERTEX
  8
0
  6
CONTINUOUS
 10
1.774080
 20
5.624960
  0
VERTEX
  8
0
  6
CONTINUOUS
 10
1.160280
 20
5.265040
  0
VERTEX
  8
0
  6
CONTINUOUS
 10
1.103960
 20
5.236440
  0
SEQEND
  8
0
  0
SOLID
  8
0
 62
    15
 10
1.160280
 20
5.265040
 11
1.774080
 21
5.624960
 12
1.221000
 22
5.291440
 13
1.834800
 23
5.651360
  0
POLYLINE
  8
0
  6
CONTINUOUS
 66
     1
 40
0.000000
 41
0.000000
  0
VERTEX
  8
0
  6
CONTINUOUS
 10
1.160280
 20
5.265040
  0
VERTEX
  8
0
  6
CONTINUOUS
 10
1.774080
 20
5.624960
  0
VERTEX
  8
0
  6
CONTINUOUS
 10
1.834800
 20
5.651360
  0
VERTEX
  8
0
  6
CONTINUOUS
 10
1.221000
 20
5.291440
  0
VERTEX
  8
0
  6
CONTINUOUS
 10
1.160280
 20
5.265040
  0
SEQEND
  8
0
  0
SOLID
  8
0
 62
    15
 10
1.221000
 20
5.291440
 11
1.834800
 21
5.651360
 12
1.286120
 22
5.315200
 13
1.900360
 23
5.675120
  0
POLYLINE
  8
0
  6
CONTINUOUS
 66
     1
 40
0.000000
 41
0.000000
  0
VERTEX
  8
0
  6
CONTINUOUS
 10
1.221000
 20
5.291440
  0
VERTEX
  8
0
  6
CONTINUOUS
 10
1.834800
 20
5.651360
  0
VERTEX
  8
0
  6
CONTINUOUS
 10
1.900360
 20
5.675120
  0
VERTEX
  8
0
  6
CONTINUOUS
 10
1.286120
 20
5.315200
  0
VERTEX
  8
0
  6
CONTINUOUS
 10
1.221000
 20
5.291440
  0
SEQEND
  8
0
  0
SOLID
  8
0
 62
    15
 10
1.286120
 20
5.315200
 11
1.900360
 21
5.675120
 12
1.356520
 22
5.336320
 13
1.970320
 23
5.696240
  0
POLYLINE
  8
0
  6
CONTINUOUS
 66
     1
 40
0.000000
 41
0.000000
  0
VERTEX
  8
0
  6
CONTINUOUS
 10
1.286120
 20
5.315200
  0
VERTEX
  8
0
  6
CONTINUOUS
 10
1.900360
 20
5.675120
  0
VERTEX
  8
0
  6
CONTINUOUS
 10
1.970320
 20
5.696240
  0
VERTEX
  8
0
  6
CONTINUOUS
 10
1.356520
 20
5.336320
  0
VERTEX
  8
0
  6
CONTINUOUS
 10
1.286120
 20
5.315200
  0
SEQEND
  8
0
  0
SOLID
  8
0
 62
    15
 10
1.356520
 20
5.336320
 11
1.970320
 21
5.696240
 12
1.431320
 22
5.354360
 13
2.045560
 23
5.714720
  0
POLYLINE
  8
0
  6
CONTINUOUS
 66
     1
 40
0.000000
 41
0.000000
  0
VERTEX
  8
0
  6
CONTINUOUS
 10
1.356520
 20
5.336320
  0
VERTEX
  8
0
  6
CONTINUOUS
 10
1.970320
 20
5.696240
  0
VERTEX
  8
0
  6
CONTINUOUS
 10
2.045560
 20
5.714720
  0
VERTEX
  8
0
  6
CONTINUOUS
 10
1.431320
 20
5.354360
  0
VERTEX
  8
0
  6
CONTINUOUS
 10
1.356520
 20
5.336320
  0
SEQEND
  8
0
  0
SOLID
  8
0
 62
    15
 10
1.431320
 20
5.354360
 11
2.045560
 21
5.714720
 12
1.511400
 22
5.369760
 13
2.125200
 23
5.729680
  0
POLYLINE
  8
0
  6
CONTINUOUS
 66
     1
 40
0.000000
 41
0.000000
  0
VERTEX
  8
0
  6
CONTINUOUS
 10
1.431320
 20
5.354360
  0
VERTEX
  8
0
  6
CONTINUOUS
 10
2.045560
 20
5.714720
  0
VERTEX
  8
0
  6
CONTINUOUS
 10
2.125200
 20
5.729680
  0
VERTEX
  8
0
  6
CONTINUOUS
 10
1.511400
 20
5.369760
  0
VERTEX
  8
0
  6
CONTINUOUS
 10
1.431320
 20
5.354360
  0
SEQEND
  8
0
  0
SOLID
  8
0
 62
    15
 10
1.511400
 20
5.369760
 11
2.125200
 21
5.729680
 12
1.511400
 22
3.100680
 13
2.125200
 23
3.460600
  0
POLYLINE
  8
0
  6
CONTINUOUS
 66
     1
 40
0.000000
 41
0.000000
  0
VERTEX
  8
0
  6
CONTINUOUS
 10
1.511400
 20
5.369760
  0
VERTEX
  8
0
  6
CONTINUOUS
 10
2.125200
 20
5.729680
  0
VERTEX
  8
0
  6
CONTINUOUS
 10
2.125200
 20
3.460600
  0
VERTEX
  8
0
  6
CONTINUOUS
 10
1.511400
 20
3.100680
  0
VERTEX
  8
0
  6
CONTINUOUS
 10
1.511400
 20
5.369760
  0
SEQEND
  8
0
  0
POLYLINE
  8
0
  6
CONTINUOUS
 66
     1
 40
0.000000
 41
0.000000
  0
VERTEX
  8
0
  6
CONTINUOUS
 10
1.509640
 20
3.102000
  0
VERTEX
  8
0
  6
CONTINUOUS
 10
0.691680
 20
3.102000
  0
VERTEX
  8
0
  6
CONTINUOUS
 10
0.641960
 20
3.107280
  0
VERTEX
  8
0
  6
CONTINUOUS
 10
0.595320
 20
3.121360
  0
VERTEX
  8
0
  6
CONTINUOUS
 10
0.553080
 20
3.144240
  0
VERTEX
  8
0
  6
CONTINUOUS
 10
0.516560
 20
3.174600
  0
VERTEX
  8
0
  6
CONTINUOUS
 10
0.486200
 20
3.211120
  0
VERTEX
  8
0
  6
CONTINUOUS
 10
0.463320
 20
3.253360
  0
VERTEX
  8
0
  6
CONTINUOUS
 10
0.449240
 20
3.300000
  0
VERTEX
  8
0
  6
CONTINUOUS
 10
0.443960
 20
3.349720
  0
VERTEX
  8
0
  6
CONTINUOUS
 10
0.449240
 20
3.399880
  0
VERTEX
  8
0
  6
CONTINUOUS
 10
0.463320
 20
3.446080
  0
VERTEX
  8
0
  6
CONTINUOUS
 10
0.486200
 20
3.488320
  0
VERTEX
  8
0
  6
CONTINUOUS
 10
0.516560
 20
3.524840
  0
VERTEX
  8
0
  6
CONTINUOUS
 10
0.553080
 20
3.555200
  0
VERTEX
  8
0
  6
CONTINUOUS
 10
0.595320
 20
3.578080
  0
VERTEX
  8
0
  6
CONTINUOUS
 10
0.641960
 20
3.592600
  0
VERTEX
  8
0
  6
CONTINUOUS
 10
0.691680
 20
3.597440
  0
VERTEX
  8
0
  6
CONTINUOUS
 10
0.705320
 20
3.597440
  0
VERTEX
  8
0
  6
CONTINUOUS
 10
0.705320
 20
3.595240
  0
VERTEX
  8
0
  6
CONTINUOUS
 10
0.705320
 20
3.707440
  0
VERTEX
  8
0
  6
CONTINUOUS
 10
0.763840
 20
3.710080
  0
VERTEX
  8
0
  6
CONTINUOUS
 10
0.816640
 20
3.715800
  0
VERTEX
  8
0
  6
CONTINUOUS
 10
0.865040
 20
3.724160
  0
VERTEX
  8
0
  6
CONTINUOUS
 10
0.908600
 20
3.734720
  0
VERTEX
  8
0
  6
CONTINUOUS
 10
0.982080
 20
3.762440
  0
VERTEX
  8
0
  6
CONTINUOUS
 10
1.038840
 20
3.797640
  0
VERTEX
  8
0
  6
CONTINUOUS
 10
1.079760
 20
3.838560
  0
VERTEX
  8
0
  6
CONTINUOUS
 10
1.106600
 20
3.884320
  0
VERTEX
  8
0
  6
CONTINUOUS
 10
1.120240
 20
3.933160
  0
VERTEX
  8
0
  6
CONTINUOUS
 10
1.122440
 20
3.982880
  0
VERTEX
  8
0
  6
CONTINUOUS
 10
1.114080
 20
4.033040
  0
VERTEX
  8
0
  6
CONTINUOUS
 10
1.096920
 20
4.081880
  0
VERTEX
  8
0
  6
CONTINUOUS
 10
1.072280
 20
4.127640
  0
VERTEX
  8
0
  6
CONTINUOUS
 10
1.041040
 20
4.168560
  0
VERTEX
  8
0
  6
CONTINUOUS
 10
1.004960
 20
4.203760
  0
VERTEX
  8
0
  6
CONTINUOUS
 10
0.964920
 20
4.231480
  0
VERTEX
  8
0
  6
CONTINUOUS
 10
0.923120
 20
4.250400
  0
VERTEX
  8
0
  6
CONTINUOUS
 10
0.880000
 20
4.258760
  0
VERTEX
  8
0
  6
CONTINUOUS
 10
0.872960
 20
4.283400
  0
VERTEX
  8
0
  6
CONTINUOUS
 10
0.876920
 20
4.311120
  0
VERTEX
  8
0
  6
CONTINUOUS
 10
0.891000
 20
4.341040
  0
VERTEX
  8
0
  6
CONTINUOUS
 10
0.913000
 20
4.370960
  0
VERTEX
  8
0
  6
CONTINUOUS
 10
0.942480
 20
4.399560
  0
VERTEX
  8
0
  6
CONTINUOUS
 10
0.978120
 20
4.425520
  0
VERTEX
  8
0
  6
CONTINUOUS
 10
1.018160
 20
4.447080
  0
VERTEX
  8
0
  6
CONTINUOUS
 10
1.061280
 20
4.462480
  0
VERTEX
  8
0
  6
CONTINUOUS
 10
0.981200
 20
4.478320
  0
VERTEX
  8
0
  6
CONTINUOUS
 10
0.913440
 20
4.508680
  0
VERTEX
  8
0
  6
CONTINUOUS
 10
0.857560
 20
4.550920
  0
VERTEX
  8
0
  6
CONTINUOUS
 10
0.815320
 20
4.603280
  0
VERTEX
  8
0
  6
CONTINUOUS
 10
0.785840
 20
4.664000
  0
VERTEX
  8
0
  6
CONTINUOUS
 10
0.770880
 20
4.731760
  0
VERTEX
  8
0
  6
CONTINUOUS
 10
0.770440
 20
4.803920
  0
VERTEX
  8
0
  6
CONTINUOUS
 10
0.784960
 20
4.879600
  0
VERTEX
  8
0
  6
CONTINUOUS
 10
0.815320
 20
4.955720
  0
VERTEX
  8
0
  6
CONTINUOUS
 10
0.861960
 20
5.031840
  0
VERTEX
  8
0
  6
CONTINUOUS
 10
0.925320
 20
5.104880
  0
VERTEX
  8
0
  6
CONTINUOUS
 10
1.005840
 20
5.173960
  0
VERTEX
  8
0
  6
CONTINUOUS
 10
1.103960
 20
5.236440
  0
VERTEX
  8
0
  6
CONTINUOUS
 10
1.160280
 20
5.265040
  0
VERTEX
  8
0
  6
CONTINUOUS
 10
1.221000
 20
5.291440
  0
VERTEX
  8
0
  6
CONTINUOUS
 10
1.286120
 20
5.315200
  0
VERTEX
  8
0
  6
CONTINUOUS
 10
1.356520
 20
5.336320
  0
VERTEX
  8
0
  6
CONTINUOUS
 10
1.431320
 20
5.354360
  0
VERTEX
  8
0
  6
CONTINUOUS
 10
1.511400
 20
5.369760
  0
VERTEX
  8
0
  6
CONTINUOUS
 10
1.511400
 20
3.100680
  0
VERTEX
  8
0
  6
CONTINUOUS
 10
1.509640
 20
3.102000
  0
SEQEND
  8
0
  0
SOLID
  8
0
 62
    15
 10
4.152720
 20
5.732760
 11
4.779280
 21
6.103240
 12
4.229720
 22
5.723080
 13
4.856720
 23
6.093560
  0
POLYLINE
  8
0
  6
CONTINUOUS
 66
     1
 40
0.000000
 41
0.000000
  0
VERTEX
  8
0
  6
CONTINUOUS
 10
4.152720
 20
5.732760
  0
VERTEX
  8
0
  6
CONTINUOUS
 10
4.779280
 20
6.103240
  0
VERTEX
  8
0
  6
CONTINUOUS
 10
4.856720
 20
6.093560
  0
VERTEX
  8
0
  6
CONTINUOUS
 10
4.229720
 20
5.723080
  0
VERTEX
  8
0
  6
CONTINUOUS
 10
4.152720
 20
5.732760
  0
SEQEND
  8
0
  0
SOLID
  8
0
 62
    15
 10
1.554960
 20
5.459080
 11
2.181960
 21
5.829560
 12
1.571240
 22
5.467440
 13
2.198240
 23
5.837920
  0
POLYLINE
  8
0
  6
CONTINUOUS
 66
     1
 40
0.000000
 41
0.000000
  0
VERTEX
  8
0
  6
CONTINUOUS
 10
1.554960
 20
5.459080
  0
VERTEX
  8
0
  6
CONTINUOUS
 10
2.181960
 20
5.829560
  0
VERTEX
  8
0
  6
CONTINUOUS
 10
2.198240
 20
5.837920
  0
VERTEX
  8
0
  6
CONTINUOUS
 10
1.571240
 20
5.467440
  0
VERTEX
  8
0
  6
CONTINUOUS
 10
1.554960
 20
5.459080
  0
SEQEND
  8
0
  0
SOLID
  8
0
 62
    15
 10
1.591480
 20
5.472720
 11
2.218480
 21
5.842760
 12
1.615240
 22
5.474040
 13
2.242240
 23
5.844520
  0
POLYLINE
  8
0
  6
CONTINUOUS
 66
     1
 40
0.000000
 41
0.000000
  0
VERTEX
  8
0
  6
CONTINUOUS
 10
1.591480
 20
5.472720
  0
VERTEX
  8
0
  6
CONTINUOUS
 10
2.218480
 20
5.842760
  0
VERTEX
  8
0
  6
CONTINUOUS
 10
2.242240
 20
5.844520
  0
VERTEX
  8
0
  6
CONTINUOUS
 10
1.615240
 20
5.474040
  0
VERTEX
  8
0
  6
CONTINUOUS
 10
1.591480
 20
5.472720
  0
SEQEND
  8
0
  0
SOLID
  8
0
 62
    15
 10
1.615240
 20
5.474040
 11
2.242240
 21
5.844520
 12
1.642960
 22
5.471400
 13
2.269960
 23
5.841880
  0
POLYLINE
  8
0
  6
CONTINUOUS
 66
     1
 40
0.000000
 41
0.000000
  0
VERTEX
  8
0
  6
CONTINUOUS
 10
1.615240
 20
5.474040
  0
VERTEX
  8
0
  6
CONTINUOUS
 10
2.242240
 20
5.844520
  0
VERTEX
  8
0
  6
CONTINUOUS
 10
2.269960
 20
5.841880
  0
VERTEX
  8
0
  6
CONTINUOUS
 10
1.642960
 20
5.471400
  0
VERTEX
  8
0
  6
CONTINUOUS
 10
1.615240
 20
5.474040
  0
SEQEND
  8
0
  0
SOLID
  8
0
 62
    15
 10
1.642960
 20
5.471400
 11
2.269960
 21
5.841880
 12
1.675080
 22
5.463480
 13
2.302080
 23
5.833960
  0
POLYLINE
  8
0
  6
CONTINUOUS
 66
     1
 40
0.000000
 41
0.000000
  0
VERTEX
  8
0
  6
CONTINUOUS
 10
1.642960
 20
5.471400
  0
VERTEX
  8
0
  6
CONTINUOUS
 10
2.269960
 20
5.841880
  0
VERTEX
  8
0
  6
CONTINUOUS
 10
2.302080
 20
5.833960
  0
VERTEX
  8
0
  6
CONTINUOUS
 10
1.675080
 20
5.463480
  0
VERTEX
  8
0
  6
CONTINUOUS
 10
1.642960
 20
5.471400
  0
SEQEND
  8
0
  0
SOLID
  8
0
 62
    15
 10
1.675080
 20
5.463480
 11
2.302080
 21
5.833960
 12
1.712040
 22
5.450720
 13
2.339040
 23
5.821200
  0
POLYLINE
  8
0
  6
CONTINUOUS
 66
     1
 40
0.000000
 41
0.000000
  0
VERTEX
  8
0
  6
CONTINUOUS
 10
1.675080
 20
5.463480
  0
VERTEX
  8
0
  6
CONTINUOUS
 10
2.302080
 20
5.833960
  0
VERTEX
  8
0
  6
CONTINUOUS
 10
2.339040
 20
5.821200
  0
VERTEX
  8
0
  6
CONTINUOUS
 10
1.712040
 20
5.450720
  0
VERTEX
  8
0
  6
CONTINUOUS
 10
1.675080
 20
5.463480
  0
SEQEND
  8
0
  0
SOLID
  8
0
 62
    15
 10
1.712040
 20
5.450720
 11
2.339040
 21
5.821200
 12
1.753840
 22
5.431360
 13
2.380840
 23
5.801840
  0
POLYLINE
  8
0
  6
CONTINUOUS
 66
     1
 40
0.000000
 41
0.000000
  0
VERTEX
  8
0
  6
CONTINUOUS
 10
1.712040
 20
5.450720
  0
VERTEX
  8
0
  6
CONTINUOUS
 10
2.339040
 20
5.821200
  0
VERTEX
  8
0
  6
CONTINUOUS
 10
2.380840
 20
5.801840
  0
VERTEX
  8
0
  6
CONTINUOUS
 10
1.753840
 20
5.431360
  0
VERTEX
  8
0
  6
CONTINUOUS
 10
1.712040
 20
5.450720
  0
SEQEND
  8
0
  0
SOLID
  8
0
 62
    15
 10
1.753840
 20
5.431360
 11
2.380840
 21
5.801840
 12
1.800040
 22
5.412000
 13
2.427040
 23
5.782480
  0
POLYLINE
  8
0
  6
CONTINUOUS
 66
     1
 40
0.000000
 41
0.000000
  0
VERTEX
  8
0
  6
CONTINUOUS
 10
1.753840
 20
5.431360
  0
VERTEX
  8
0
  6
CONTINUOUS
 10
2.380840
 20
5.801840
  0
VERTEX
  8
0
  6
CONTINUOUS
 10
2.427040
 20
5.782480
  0
VERTEX
  8
0
  6
CONTINUOUS
 10
1.800040
 20
5.412000
  0
VERTEX
  8
0
  6
CONTINUOUS
 10
1.753840
 20
5.431360
  0
SEQEND
  8
0
  0
SOLID
  8
0
 62
    15
 10
1.800040
 20
5.412000
 11
2.427040
 21
5.782480
 12
1.849760
 22
5.397040
 13
2.476320
 23
5.767520
  0
POLYLINE
  8
0
  6
CONTINUOUS
 66
     1
 40
0.000000
 41
0.000000
  0
VERTEX
  8
0
  6
CONTINUOUS
 10
1.800040
 20
5.412000
  0
VERTEX
  8
0
  6
CONTINUOUS
 10
2.427040
 20
5.782480
  0
VERTEX
  8
0
  6
CONTINUOUS
 10
2.476320
 20
5.767520
  0
VERTEX
  8
0
  6
CONTINUOUS
 10
1.849760
 20
5.397040
  0
VERTEX
  8
0
  6
CONTINUOUS
 10
1.800040
 20
5.412000
  0
SEQEND
  8
0
  0
SOLID
  8
0
 62
    15
 10
1.849760
 20
5.397040
 11
2.476320
 21
5.767520
 12
1.901680
 22
5.387360
 13
2.528680
 23
5.757400
  0
POLYLINE
  8
0
  6
CONTINUOUS
 66
     1
 40
0.000000
 41
0.000000
  0
VERTEX
  8
0
  6
CONTINUOUS
 10
1.849760
 20
5.397040
  0
VERTEX
  8
0
  6
CONTINUOUS
 10
2.476320
 20
5.767520
  0
VERTEX
  8
0
  6
CONTINUOUS
 10
2.528680
 20
5.757400
  0
VERTEX
  8
0
  6
CONTINUOUS
 10
1.901680
 20
5.387360
  0
VERTEX
  8
0
  6
CONTINUOUS
 10
1.849760
 20
5.397040
  0
SEQEND
  8
0
  0
SOLID
  8
0
 62
    15
 10
1.901680
 20
5.387360
 11
2.528680
 21
5.757400
 12
1.956680
 22
5.381200
 13
2.583680
 23
5.751680
  0
POLYLINE
  8
0
  6
CONTINUOUS
 66
     1
 40
0.000000
 41
0.000000
  0
VERTEX
  8
0
  6
CONTINUOUS
 10
1.901680
 20
5.387360
  0
VERTEX
  8
0
  6
CONTINUOUS
 10
2.528680
 20
5.757400
  0
VERTEX
  8
0
  6
CONTINUOUS
 10
2.583680
 20
5.751680
  0
VERTEX
  8
0
  6
CONTINUOUS
 10
1.956680
 20
5.381200
  0
VERTEX
  8
0
  6
CONTINUOUS
 10
1.901680
 20
5.387360
  0
SEQEND
  8
0
  0
SOLID
  8
0
 62
    15
 10
1.956680
 20
5.381200
 11
2.583680
 21
5.751680
 12
2.013880
 22
5.379440
 13
2.640880
 23
5.749920
  0
POLYLINE
  8
0
  6
CONTINUOUS
 66
     1
 40
0.000000
 41
0.000000
  0
VERTEX
  8
0
  6
CONTINUOUS
 10
1.956680
 20
5.381200
  0
VERTEX
  8
0
  6
CONTINUOUS
 10
2.583680
 20
5.751680
  0
VERTEX
  8
0
  6
CONTINUOUS
 10
2.640880
 20
5.749920
  0
VERTEX
  8
0
  6
CONTINUOUS
 10
2.013880
 20
5.379440
  0
VERTEX
  8
0
  6
CONTINUOUS
 10
1.956680
 20
5.381200
  0
SEQEND
  8
0
  0
SOLID
  8
0
 62
    15
 10
2.013880
 20
5.379440
 11
2.640880
 21
5.749920
 12
2.073280
 22
5.381200
 13
2.700280
 23
5.751680
  0
POLYLINE
  8
0
  6
CONTINUOUS
 66
     1
 40
0.000000
 41
0.000000
  0
VERTEX
  8
0
  6
CONTINUOUS
 10
2.013880
 20
5.379440
  0
VERTEX
  8
0
  6
CONTINUOUS
 10
2.640880
 20
5.749920
  0
VERTEX
  8
0
  6
CONTINUOUS
 10
2.700280
 20
5.751680
  0
VERTEX
  8
0
  6
CONTINUOUS
 10
2.073280
 20
5.381200
  0
VERTEX
  8
0
  6
CONTINUOUS
 10
2.013880
 20
5.379440
  0
SEQEND
  8
0
  0
SOLID
  8
0
 62
    15
 10
2.073280
 20
5.381200
 11
2.700280
 21
5.751680
 12
2.134880
 22
5.386040
 13
2.761440
 23
5.756520
  0
POLYLINE
  8
0
  6
CONTINUOUS
 66
     1
 40
0.000000
 41
0.000000
  0
VERTEX
  8
0
  6
CONTINUOUS
 10
2.073280
 20
5.381200
  0
VERTEX
  8
0
  6
CONTINUOUS
 10
2.700280
 20
5.751680
  0
VERTEX
  8
0
  6
CONTINUOUS
 10
2.761440
 20
5.756520
  0
VERTEX
  8
0
  6
CONTINUOUS
 10
2.134880
 20
5.386040
  0
VERTEX
  8
0
  6
CONTINUOUS
 10
2.073280
 20
5.381200
  0
SEQEND
  8
0
  0
SOLID
  8
0
 62
    15
 10
2.134880
 20
5.386040
 11
2.761440
 21
5.756520
 12
2.197800
 22
5.393960
 13
2.824800
 23
5.764440
  0
POLYLINE
  8
0
  6
CONTINUOUS
 66
     1
 40
0.000000
 41
0.000000
  0
VERTEX
  8
0
  6
CONTINUOUS
 10
2.134880
 20
5.386040
  0
VERTEX
  8
0
  6
CONTINUOUS
 10
2.761440
 20
5.756520
  0
VERTEX
  8
0
  6
CONTINUOUS
 10
2.824800
 20
5.764440
  0
VERTEX
  8
0
  6
CONTINUOUS
 10
2.197800
 20
5.393960
  0
VERTEX
  8
0
  6
CONTINUOUS
 10
2.134880
 20
5.386040
  0
SEQEND
  8
0
  0
SOLID
  8
0
 62
    15
 10
2.197800
 20
5.393960
 11
2.824800
 21
5.764440
 12
2.327600
 22
5.416840
 13
2.954600
 23
5.786880
  0
POLYLINE
  8
0
  6
CONTINUOUS
 66
     1
 40
0.000000
 41
0.000000
  0
VERTEX
  8
0
  6
CONTINUOUS
 10
2.197800
 20
5.393960
  0
VERTEX
  8
0
  6
CONTINUOUS
 10
2.824800
 20
5.764440
  0
VERTEX
  8
0
  6
CONTINUOUS
 10
2.954600
 20
5.786880
  0
VERTEX
  8
0
  6
CONTINUOUS
 10
2.327600
 20
5.416840
  0
VERTEX
  8
0
  6
CONTINUOUS
 10
2.197800
 20
5.393960
  0
SEQEND
  8
0
  0
SOLID
  8
0
 62
    15
 10
2.327600
 20
5.416840
 11
2.954600
 21
5.786880
 12
2.460920
 22
5.446760
 13
3.087920
 23
5.816800
  0
POLYLINE
  8
0
  6
CONTINUOUS
 66
     1
 40
0.000000
 41
0.000000
  0
VERTEX
  8
0
  6
CONTINUOUS
 10
2.327600
 20
5.416840
  0
VERTEX
  8
0
  6
CONTINUOUS
 10
2.954600
 20
5.786880
  0
VERTEX
  8
0
  6
CONTINUOUS
 10
3.087920
 20
5.816800
  0
VERTEX
  8
0
  6
CONTINUOUS
 10
2.460920
 20
5.446760
  0
VERTEX
  8
0
  6
CONTINUOUS
 10
2.327600
 20
5.416840
  0
SEQEND
  8
0
  0
SOLID
  8
0
 62
    15
 10
2.460920
 20
5.446760
 11
3.087920
 21
5.816800
 12
2.729760
 22
5.516720
 13
3.356760
 23
5.887200
  0
POLYLINE
  8
0
  6
CONTINUOUS
 66
     1
 40
0.000000
 41
0.000000
  0
VERTEX
  8
0
  6
CONTINUOUS
 10
2.460920
 20
5.446760
  0
VERTEX
  8
0
  6
CONTINUOUS
 10
3.087920
 20
5.816800
  0
VERTEX
  8
0
  6
CONTINUOUS
 10
3.356760
 20
5.887200
  0
VERTEX
  8
0
  6
CONTINUOUS
 10
2.729760
 20
5.516720
  0
VERTEX
  8
0
  6
CONTINUOUS
 10
2.460920
 20
5.446760
  0
SEQEND
  8
0
  0
SOLID
  8
0
 62
    15
 10
2.729760
 20
5.516720
 11
3.356760
 21
5.887200
 12
2.868800
 22
5.554120
 13
3.495800
 23
5.924160
  0
POLYLINE
  8
0
  6
CONTINUOUS
 66
     1
 40
0.000000
 41
0.000000
  0
VERTEX
  8
0
  6
CONTINUOUS
 10
2.729760
 20
5.516720
  0
VERTEX
  8
0
  6
CONTINUOUS
 10
3.356760
 20
5.887200
  0
VERTEX
  8
0
  6
CONTINUOUS
 10
3.495800
 20
5.924160
  0
VERTEX
  8
0
  6
CONTINUOUS
 10
2.868800
 20
5.554120
  0
VERTEX
  8
0
  6
CONTINUOUS
 10
2.729760
 20
5.516720
  0
SEQEND
  8
0
  0
SOLID
  8
0
 62
    15
 10
2.868800
 20
5.554120
 11
3.495800
 21
5.924160
 12
3.017520
 22
5.592840
 13
3.644520
 23
5.963320
  0
POLYLINE
  8
0
  6
CONTINUOUS
 66
     1
 40
0.000000
 41
0.000000
  0
VERTEX
  8
0
  6
CONTINUOUS
 10
2.868800
 20
5.554120
  0
VERTEX
  8
0
  6
CONTINUOUS
 10
3.495800
 20
5.924160
  0
VERTEX
  8
0
  6
CONTINUOUS
 10
3.644520
 20
5.963320
  0
VERTEX
  8
0
  6
CONTINUOUS
 10
3.017520
 20
5.592840
  0
VERTEX
  8
0
  6
CONTINUOUS
 10
2.868800
 20
5.554120
  0
SEQEND
  8
0
  0
SOLID
  8
0
 62
    15
 10
3.017520
 20
5.592840
 11
3.644520
 21
5.963320
 12
3.172840
 22
5.631120
 13
3.799840
 23
6.001600
  0
POLYLINE
  8
0
  6
CONTINUOUS
 66
     1
 40
0.000000
 41
0.000000
  0
VERTEX
  8
0
  6
CONTINUOUS
 10
3.017520
 20
5.592840
  0
VERTEX
  8
0
  6
CONTINUOUS
 10
3.644520
 20
5.963320
  0
VERTEX
  8
0
  6
CONTINUOUS
 10
3.799840
 20
6.001600
  0
VERTEX
  8
0
  6
CONTINUOUS
 10
3.172840
 20
5.631120
  0
VERTEX
  8
0
  6
CONTINUOUS
 10
3.017520
 20
5.592840
  0
SEQEND
  8
0
  0
SOLID
  8
0
 62
    15
 10
3.172840
 20
5.631120
 11
3.799840
 21
6.001600
 12
3.332120
 22
5.667200
 13
3.959120
 23
6.037240
  0
POLYLINE
  8
0
  6
CONTINUOUS
 66
     1
 40
0.000000
 41
0.000000
  0
VERTEX
  8
0
  6
CONTINUOUS
 10
3.172840
 20
5.631120
  0
VERTEX
  8
0
  6
CONTINUOUS
 10
3.799840
 20
6.001600
  0
VERTEX
  8
0
  6
CONTINUOUS
 10
3.959120
 20
6.037240
  0
VERTEX
  8
0
  6
CONTINUOUS
 10
3.332120
 20
5.667200
  0
VERTEX
  8
0
  6
CONTINUOUS
 10
3.172840
 20
5.631120
  0
SEQEND
  8
0
  0
SOLID
  8
0
 62
    15
 10
3.332120
 20
5.667200
 11
3.959120
 21
6.037240
 12
3.492280
 22
5.698440
 13
4.119280
 23
6.068920
  0
POLYLINE
  8
0
  6
CONTINUOUS
 66
     1
 40
0.000000
 41
0.000000
  0
VERTEX
  8
0
  6
CONTINUOUS
 10
3.332120
 20
5.667200
  0
VERTEX
  8
0
  6
CONTINUOUS
 10
3.959120
 20
6.037240
  0
VERTEX
  8
0
  6
CONTINUOUS
 10
4.119280
 20
6.068920
  0
VERTEX
  8
0
  6
CONTINUOUS
 10
3.492280
 20
5.698440
  0
VERTEX
  8
0
  6
CONTINUOUS
 10
3.332120
 20
5.667200
  0
SEQEND
  8
0
  0
SOLID
  8
0
 62
    15
 10
3.492280
 20
5.698440
 11
4.119280
 21
6.068920
 12
3.650680
 22
5.723520
 13
4.277680
 23
6.094000
  0
POLYLINE
  8
0
  6
CONTINUOUS
 66
     1
 40
0.000000
 41
0.000000
  0
VERTEX
  8
0
  6
CONTINUOUS
 10
3.492280
 20
5.698440
  0
VERTEX
  8
0
  6
CONTINUOUS
 10
4.119280
 20
6.068920
  0
VERTEX
  8
0
  6
CONTINUOUS
 10
4.277680
 20
6.094000
  0
VERTEX
  8
0
  6
CONTINUOUS
 10
3.650680
 20
5.723520
  0
VERTEX
  8
0
  6
CONTINUOUS
 10
3.492280
 20
5.698440
  0
SEQEND
  8
0
  0
SOLID
  8
0
 62
    15
 10
3.650680
 20
5.723520
 11
4.277680
 21
6.094000
 12
3.728560
 22
5.732760
 13
4.355120
 23
6.103240
  0
POLYLINE
  8
0
  6
CONTINUOUS
 66
     1
 40
0.000000
 41
0.000000
  0
VERTEX
  8
0
  6
CONTINUOUS
 10
3.650680
 20
5.723520
  0
VERTEX
  8
0
  6
CONTINUOUS
 10
4.277680
 20
6.094000
  0
VERTEX
  8
0
  6
CONTINUOUS
 10
4.355120
 20
6.103240
  0
VERTEX
  8
0
  6
CONTINUOUS
 10
3.728560
 20
5.732760
  0
VERTEX
  8
0
  6
CONTINUOUS
 10
3.650680
 20
5.723520
  0
SEQEND
  8
0
  0
SOLID
  8
0
 62
    15
 10
3.728560
 20
5.732760
 11
4.355120
 21
6.103240
 12
3.804240
 22
5.739800
 13
4.431240
 23
6.110280
  0
POLYLINE
  8
0
  6
CONTINUOUS
 66
     1
 40
0.000000
 41
0.000000
  0
VERTEX
  8
0
  6
CONTINUOUS
 10
3.728560
 20
5.732760
  0
VERTEX
  8
0
  6
CONTINUOUS
 10
4.355120
 20
6.103240
  0
VERTEX
  8
0
  6
CONTINUOUS
 10
4.431240
 20
6.110280
  0
VERTEX
  8
0
  6
CONTINUOUS
 10
3.804240
 20
5.739800
  0
VERTEX
  8
0
  6
CONTINUOUS
 10
3.728560
 20
5.732760
  0
SEQEND
  8
0
  0
SOLID
  8
0
 62
    15
 10
3.804240
 20
5.739800
 11
4.431240
 21
6.110280
 12
3.878600
 22
5.744200
 13
4.505600
 23
6.114680
  0
POLYLINE
  8
0
  6
CONTINUOUS
 66
     1
 40
0.000000
 41
0.000000
  0
VERTEX
  8
0
  6
CONTINUOUS
 10
3.804240
 20
5.739800
  0
VERTEX
  8
0
  6
CONTINUOUS
 10
4.431240
 20
6.110280
  0
VERTEX
  8
0
  6
CONTINUOUS
 10
4.505600
 20
6.114680
  0
VERTEX
  8
0
  6
CONTINUOUS
 10
3.878600
 20
5.744200
  0
VERTEX
  8
0
  6
CONTINUOUS
 10
3.804240
 20
5.739800
  0
SEQEND
  8
0
  0
SOLID
  8
0
 62
    15
 10
3.878600
 20
5.744200
 11
4.505600
 21
6.114680
 12
3.947680
 22
5.745960
 13
4.574680
 23
6.116440
  0
POLYLINE
  8
0
  6
CONTINUOUS
 66
     1
 40
0.000000
 41
0.000000
  0
VERTEX
  8
0
  6
CONTINUOUS
 10
3.878600
 20
5.744200
  0
VERTEX
  8
0
  6
CONTINUOUS
 10
4.505600
 20
6.114680
  0
VERTEX
  8
0
  6
CONTINUOUS
 10
4.574680
 20
6.116440
  0
VERTEX
  8
0
  6
CONTINUOUS
 10
3.947680
 20
5.745960
  0
VERTEX
  8
0
  6
CONTINUOUS
 10
3.878600
 20
5.744200
  0
SEQEND
  8
0
  0
SOLID
  8
0
 62
    15
 10
3.930960
 20
5.746400
 11
4.557960
 21
6.116440
 12
4.002680
 22
5.744640
 13
4.629680
 23
6.115120
  0
POLYLINE
  8
0
  6
CONTINUOUS
 66
     1
 40
0.000000
 41
0.000000
  0
VERTEX
  8
0
  6
CONTINUOUS
 10
3.930960
 20
5.746400
  0
VERTEX
  8
0
  6
CONTINUOUS
 10
4.557960
 20
6.116440
  0
VERTEX
  8
0
  6
CONTINUOUS
 10
4.629680
 20
6.115120
  0
VERTEX
  8
0
  6
CONTINUOUS
 10
4.002680
 20
5.744640
  0
VERTEX
  8
0
  6
CONTINUOUS
 10
3.930960
 20
5.746400
  0
SEQEND
  8
0
  0
SOLID
  8
0
 62
    15
 10
4.574680
 20
6.116440
 11
4.577320
 21
6.116440
 12
3.947680
 22
5.745960
 13
3.950320
 23
5.745960
  0
POLYLINE
  8
0
  6
CONTINUOUS
 66
     1
 40
0.000000
 41
0.000000
  0
VERTEX
  8
0
  6
CONTINUOUS
 10
4.574680
 20
6.116440
  0
VERTEX
  8
0
  6
CONTINUOUS
 10
4.577320
 20
6.116440
  0
VERTEX
  8
0
  6
CONTINUOUS
 10
3.950320
 20
5.745960
  0
VERTEX
  8
0
  6
CONTINUOUS
 10
3.947680
 20
5.745960
  0
VERTEX
  8
0
  6
CONTINUOUS
 10
4.574680
 20
6.116440
  0
SEQEND
  8
0
  0
SOLID
  8
0
 62
    15
 10
4.002680
 20
5.744640
 11
4.629680
 21
6.115120
 12
4.076600
 22
5.740240
 13
4.703600
 23
6.110720
  0
POLYLINE
  8
0
  6
CONTINUOUS
 66
     1
 40
0.000000
 41
0.000000
  0
VERTEX
  8
0
  6
CONTINUOUS
 10
4.002680
 20
5.744640
  0
VERTEX
  8
0
  6
CONTINUOUS
 10
4.629680
 20
6.115120
  0
VERTEX
  8
0
  6
CONTINUOUS
 10
4.703600
 20
6.110720
  0
VERTEX
  8
0
  6
CONTINUOUS
 10
4.076600
 20
5.740240
  0
VERTEX
  8
0
  6
CONTINUOUS
 10
4.002680
 20
5.744640
  0
SEQEND
  8
0
  0
SOLID
  8
0
 62
    15
 10
4.076600
 20
5.740240
 11
4.703600
 21
6.110720
 12
4.152720
 22
5.732760
 13
4.779280
 23
6.103240
  0
POLYLINE
  8
0
  6
CONTINUOUS
 66
     1
 40
0.000000
 41
0.000000
  0
VERTEX
  8
0
  6
CONTINUOUS
 10
4.076600
 20
5.740240
  0
VERTEX
  8
0
  6
CONTINUOUS
 10
4.703600
 20
6.110720
  0
VERTEX
  8
0
  6
CONTINUOUS
 10
4.779280
 20
6.103240
  0
VERTEX
  8
0
  6
CONTINUOUS
 10
4.152720
 20
5.732760
  0
VERTEX
  8
0
  6
CONTINUOUS
 10
4.076600
 20
5.740240
  0
SEQEND
  8
0
  0
SOLID
  8
0
 62
    15
 10
1.571240
 20
5.467440
 11
2.198240
 21
5.837920
 12
1.591480
 22
5.472720
 13
2.218480
 23
5.842760
  0
POLYLINE
  8
0
  6
CONTINUOUS
 66
     1
 40
0.000000
 41
0.000000
  0
VERTEX
  8
0
  6
CONTINUOUS
 10
1.571240
 20
5.467440
  0
VERTEX
  8
0
  6
CONTINUOUS
 10
2.198240
 20
5.837920
  0
VERTEX
  8
0
  6
CONTINUOUS
 10
2.218480
 20
5.842760
  0
VERTEX
  8
0
  6
CONTINUOUS
 10
1.591480
 20
5.472720
  0
VERTEX
  8
0
  6
CONTINUOUS
 10
1.571240
 20
5.467440
  0
SEQEND
  8
0
  0
SOLID
  8
0
 62
    15
 10
4.229720
 20
5.723080
 11
4.856720
 21
6.093560
 12
4.387680
 22
5.697560
 13
5.014240
 23
6.068040
  0
POLYLINE
  8
0
  6
CONTINUOUS
 66
     1
 40
0.000000
 41
0.000000
  0
VERTEX
  8
0
  6
CONTINUOUS
 10
4.229720
 20
5.723080
  0
VERTEX
  8
0
  6
CONTINUOUS
 10
4.856720
 20
6.093560
  0
VERTEX
  8
0
  6
CONTINUOUS
 10
5.014240
 20
6.068040
  0
VERTEX
  8
0
  6
CONTINUOUS
 10
4.387680
 20
5.697560
  0
VERTEX
  8
0
  6
CONTINUOUS
 10
4.229720
 20
5.723080
  0
SEQEND
  8
0
  0
SOLID
  8
0
 62
    15
 10
4.387680
 20
5.697560
 11
5.014240
 21
6.068040
 12
4.546960
 22
5.665440
 13
5.173960
 23
6.035920
  0
POLYLINE
  8
0
  6
CONTINUOUS
 66
     1
 40
0.000000
 41
0.000000
  0
VERTEX
  8
0
  6
CONTINUOUS
 10
4.387680
 20
5.697560
  0
VERTEX
  8
0
  6
CONTINUOUS
 10
5.014240
 20
6.068040
  0
VERTEX
  8
0
  6
CONTINUOUS
 10
5.173960
 20
6.035920
  0
VERTEX
  8
0
  6
CONTINUOUS
 10
4.546960
 20
5.665440
  0
VERTEX
  8
0
  6
CONTINUOUS
 10
4.387680
 20
5.697560
  0
SEQEND
  8
0
  0
SOLID
  8
0
 62
    15
 10
4.546960
 20
5.665440
 11
5.173960
 21
6.035920
 12
4.705360
 22
5.628920
 13
5.332360
 23
5.999400
  0
POLYLINE
  8
0
  6
CONTINUOUS
 66
     1
 40
0.000000
 41
0.000000
  0
VERTEX
  8
0
  6
CONTINUOUS
 10
4.546960
 20
5.665440
  0
VERTEX
  8
0
  6
CONTINUOUS
 10
5.173960
 20
6.035920
  0
VERTEX
  8
0
  6
CONTINUOUS
 10
5.332360
 20
5.999400
  0
VERTEX
  8
0
  6
CONTINUOUS
 10
4.705360
 20
5.628920
  0
VERTEX
  8
0
  6
CONTINUOUS
 10
4.546960
 20
5.665440
  0
SEQEND
  8
0
  0
SOLID
  8
0
 62
    15
 10
4.705360
 20
5.628920
 11
5.332360
 21
5.999400
 12
4.859800
 22
5.590200
 13
5.486800
 23
5.960680
  0
POLYLINE
  8
0
  6
CONTINUOUS
 66
     1
 40
0.000000
 41
0.000000
  0
VERTEX
  8
0
  6
CONTINUOUS
 10
4.705360
 20
5.628920
  0
VERTEX
  8
0
  6
CONTINUOUS
 10
5.332360
 20
5.999400
  0
VERTEX
  8
0
  6
CONTINUOUS
 10
5.486800
 20
5.960680
  0
VERTEX
  8
0
  6
CONTINUOUS
 10
4.859800
 20
5.590200
  0
VERTEX
  8
0
  6
CONTINUOUS
 10
4.705360
 20
5.628920
  0
SEQEND
  8
0
  0
SOLID
  8
0
 62
    15
 10
4.859800
 20
5.590200
 11
5.486800
 21
5.960680
 12
5.008080
 22
5.551040
 13
5.635080
 23
5.921080
  0
POLYLINE
  8
0
  6
CONTINUOUS
 66
     1
 40
0.000000
 41
0.000000
  0
VERTEX
  8
0
  6
CONTINUOUS
 10
4.859800
 20
5.590200
  0
VERTEX
  8
0
  6
CONTINUOUS
 10
5.486800
 20
5.960680
  0
VERTEX
  8
0
  6
CONTINUOUS
 10
5.635080
 20
5.921080
  0
VERTEX
  8
0
  6
CONTINUOUS
 10
5.008080
 20
5.551040
  0
VERTEX
  8
0
  6
CONTINUOUS
 10
4.859800
 20
5.590200
  0
SEQEND
  8
0
  0
SOLID
  8
0
 62
    15
 10
5.008080
 20
5.551040
 11
5.635080
 21
5.921080
 12
5.147120
 22
5.513640
 13
5.773680
 23
5.884120
  0
POLYLINE
  8
0
  6
CONTINUOUS
 66
     1
 40
0.000000
 41
0.000000
  0
VERTEX
  8
0
  6
CONTINUOUS
 10
5.008080
 20
5.551040
  0
VERTEX
  8
0
  6
CONTINUOUS
 10
5.635080
 20
5.921080
  0
VERTEX
  8
0
  6
CONTINUOUS
 10
5.773680
 20
5.884120
  0
VERTEX
  8
0
  6
CONTINUOUS
 10
5.147120
 20
5.513640
  0
VERTEX
  8
0
  6
CONTINUOUS
 10
5.008080
 20
5.551040
  0
SEQEND
  8
0
  0
SOLID
  8
0
 62
    15
 10
5.147120
 20
5.513640
 11
5.773680
 21
5.884120
 12
5.415960
 22
5.443240
 13
6.042960
 23
5.813720
  0
POLYLINE
  8
0
  6
CONTINUOUS
 66
     1
 40
0.000000
 41
0.000000
  0
VERTEX
  8
0
  6
CONTINUOUS
 10
5.147120
 20
5.513640
  0
VERTEX
  8
0
  6
CONTINUOUS
 10
5.773680
 20
5.884120
  0
VERTEX
  8
0
  6
CONTINUOUS
 10
6.042960
 20
5.813720
  0
VERTEX
  8
0
  6
CONTINUOUS
 10
5.415960
 20
5.443240
  0
VERTEX
  8
0
  6
CONTINUOUS
 10
5.147120
 20
5.513640
  0
SEQEND
  8
0
  0
SOLID
  8
0
 62
    15
 10
5.415960
 20
5.443240
 11
6.042960
 21
5.813720
 12
5.549280
 22
5.413320
 13
6.176280
 23
5.783800
  0
POLYLINE
  8
0
  6
CONTINUOUS
 66
     1
 40
0.000000
 41
0.000000
  0
VERTEX
  8
0
  6
CONTINUOUS
 10
5.415960
 20
5.443240
  0
VERTEX
  8
0
  6
CONTINUOUS
 10
6.042960
 20
5.813720
  0
VERTEX
  8
0
  6
CONTINUOUS
 10
6.176280
 20
5.783800
  0
VERTEX
  8
0
  6
CONTINUOUS
 10
5.549280
 20
5.413320
  0
VERTEX
  8
0
  6
CONTINUOUS
 10
5.415960
 20
5.443240
  0
SEQEND
  8
0
  0
SOLID
  8
0
 62
    15
 10
5.549280
 20
5.413320
 11
6.176280
 21
5.783800
 12
5.679080
 22
5.390880
 13
6.306080
 23
5.760920
  0
POLYLINE
  8
0
  6
CONTINUOUS
 66
     1
 40
0.000000
 41
0.000000
  0
VERTEX
  8
0
  6
CONTINUOUS
 10
5.549280
 20
5.413320
  0
VERTEX
  8
0
  6
CONTINUOUS
 10
6.176280
 20
5.783800
  0
VERTEX
  8
0
  6
CONTINUOUS
 10
6.306080
 20
5.760920
  0
VERTEX
  8
0
  6
CONTINUOUS
 10
5.679080
 20
5.390880
  0
VERTEX
  8
0
  6
CONTINUOUS
 10
5.549280
 20
5.413320
  0
SEQEND
  8
0
  0
SOLID
  8
0
 62
    15
 10
5.679080
 20
5.390880
 11
6.306080
 21
5.760920
 12
5.742000
 22
5.382960
 13
6.369000
 23
5.753440
  0
POLYLINE
  8
0
  6
CONTINUOUS
 66
     1
 40
0.000000
 41
0.000000
  0
VERTEX
  8
0
  6
CONTINUOUS
 10
5.679080
 20
5.390880
  0
VERTEX
  8
0
  6
CONTINUOUS
 10
6.306080
 20
5.760920
  0
VERTEX
  8
0
  6
CONTINUOUS
 10
6.369000
 20
5.753440
  0
VERTEX
  8
0
  6
CONTINUOUS
 10
5.742000
 20
5.382960
  0
VERTEX
  8
0
  6
CONTINUOUS
 10
5.679080
 20
5.390880
  0
SEQEND
  8
0
  0
SOLID
  8
0
 62
    15
 10
5.742000
 20
5.382960
 11
6.369000
 21
5.753440
 12
5.803160
 22
5.378120
 13
6.430160
 23
5.748600
  0
POLYLINE
  8
0
  6
CONTINUOUS
 66
     1
 40
0.000000
 41
0.000000
  0
VERTEX
  8
0
  6
CONTINUOUS
 10
5.742000
 20
5.382960
  0
VERTEX
  8
0
  6
CONTINUOUS
 10
6.369000
 20
5.753440
  0
VERTEX
  8
0
  6
CONTINUOUS
 10
6.430160
 20
5.748600
  0
VERTEX
  8
0
  6
CONTINUOUS
 10
5.803160
 20
5.378120
  0
VERTEX
  8
0
  6
CONTINUOUS
 10
5.742000
 20
5.382960
  0
SEQEND
  8
0
  0
SOLID
  8
0
 62
    15
 10
5.803160
 20
5.378120
 11
6.430160
 21
5.748600
 12
5.862560
 22
5.376360
 13
6.489560
 23
5.746840
  0
POLYLINE
  8
0
  6
CONTINUOUS
 66
     1
 40
0.000000
 41
0.000000
  0
VERTEX
  8
0
  6
CONTINUOUS
 10
5.803160
 20
5.378120
  0
VERTEX
  8
0
  6
CONTINUOUS
 10
6.430160
 20
5.748600
  0
VERTEX
  8
0
  6
CONTINUOUS
 10
6.489560
 20
5.746840
  0
VERTEX
  8
0
  6
CONTINUOUS
 10
5.862560
 20
5.376360
  0
VERTEX
  8
0
  6
CONTINUOUS
 10
5.803160
 20
5.378120
  0
SEQEND
  8
0
  0
SOLID
  8
0
 62
    15
 10
5.862560
 20
5.376360
 11
6.489560
 21
5.746840
 12
5.920200
 22
5.378120
 13
6.546760
 23
5.748600
  0
POLYLINE
  8
0
  6
CONTINUOUS
 66
     1
 40
0.000000
 41
0.000000
  0
VERTEX
  8
0
  6
CONTINUOUS
 10
5.862560
 20
5.376360
  0
VERTEX
  8
0
  6
CONTINUOUS
 10
6.489560
 20
5.746840
  0
VERTEX
  8
0
  6
CONTINUOUS
 10
6.546760
 20
5.748600
  0
VERTEX
  8
0
  6
CONTINUOUS
 10
5.920200
 20
5.378120
  0
VERTEX
  8
0
  6
CONTINUOUS
 10
5.862560
 20
5.376360
  0
SEQEND
  8
0
  0
SOLID
  8
0
 62
    15
 10
5.920200
 20
5.378120
 11
6.546760
 21
5.748600
 12
5.974760
 22
5.383840
 13
6.601760
 23
5.754320
  0
POLYLINE
  8
0
  6
CONTINUOUS
 66
     1
 40
0.000000
 41
0.000000
  0
VERTEX
  8
0
  6
CONTINUOUS
 10
5.920200
 20
5.378120
  0
VERTEX
  8
0
  6
CONTINUOUS
 10
6.546760
 20
5.748600
  0
VERTEX
  8
0
  6
CONTINUOUS
 10
6.601760
 20
5.754320
  0
VERTEX
  8
0
  6
CONTINUOUS
 10
5.974760
 20
5.383840
  0
VERTEX
  8
0
  6
CONTINUOUS
 10
5.920200
 20
5.378120
  0
SEQEND
  8
0
  0
SOLID
  8
0
 62
    15
 10
5.974760
 20
5.383840
 11
6.601760
 21
5.754320
 12
6.027120
 22
5.393960
 13
6.654120
 23
5.764440
  0
POLYLINE
  8
0
  6
CONTINUOUS
 66
     1
 40
0.000000
 41
0.000000
  0
VERTEX
  8
0
  6
CONTINUOUS
 10
5.974760
 20
5.383840
  0
VERTEX
  8
0
  6
CONTINUOUS
 10
6.601760
 20
5.754320
  0
VERTEX
  8
0
  6
CONTINUOUS
 10
6.654120
 20
5.764440
  0
VERTEX
  8
0
  6
CONTINUOUS
 10
6.027120
 20
5.393960
  0
VERTEX
  8
0
  6
CONTINUOUS
 10
5.974760
 20
5.383840
  0
SEQEND
  8
0
  0
SOLID
  8
0
 62
    15
 10
6.027120
 20
5.393960
 11
6.654120
 21
5.764440
 12
6.076400
 22
5.408920
 13
6.703400
 23
5.778960
  0
POLYLINE
  8
0
  6
CONTINUOUS
 66
     1
 40
0.000000
 41
0.000000
  0
VERTEX
  8
0
  6
CONTINUOUS
 10
6.027120
 20
5.393960
  0
VERTEX
  8
0
  6
CONTINUOUS
 10
6.654120
 20
5.764440
  0
VERTEX
  8
0
  6
CONTINUOUS
 10
6.703400
 20
5.778960
  0
VERTEX
  8
0
  6
CONTINUOUS
 10
6.076400
 20
5.408920
  0
VERTEX
  8
0
  6
CONTINUOUS
 10
6.027120
 20
5.393960
  0
SEQEND
  8
0
  0
SOLID
  8
0
 62
    15
 10
6.076400
 20
5.408920
 11
6.703400
 21
5.778960
 12
6.122600
 22
5.428280
 13
6.749600
 23
5.798760
  0
POLYLINE
  8
0
  6
CONTINUOUS
 66
     1
 40
0.000000
 41
0.000000
  0
VERTEX
  8
0
  6
CONTINUOUS
 10
6.076400
 20
5.408920
  0
VERTEX
  8
0
  6
CONTINUOUS
 10
6.703400
 20
5.778960
  0
VERTEX
  8
0
  6
CONTINUOUS
 10
6.749600
 20
5.798760
  0
VERTEX
  8
0
  6
CONTINUOUS
 10
6.122600
 20
5.428280
  0
VERTEX
  8
0
  6
CONTINUOUS
 10
6.076400
 20
5.408920
  0
SEQEND
  8
0
  0
SOLID
  8
0
 62
    15
 10
6.122600
 20
5.428280
 11
6.749600
 21
5.798760
 12
6.164840
 22
5.447640
 13
6.791400
 23
5.817680
  0
POLYLINE
  8
0
  6
CONTINUOUS
 66
     1
 40
0.000000
 41
0.000000
  0
VERTEX
  8
0
  6
CONTINUOUS
 10
6.122600
 20
5.428280
  0
VERTEX
  8
0
  6
CONTINUOUS
 10
6.749600
 20
5.798760
  0
VERTEX
  8
0
  6
CONTINUOUS
 10
6.791400
 20
5.817680
  0
VERTEX
  8
0
  6
CONTINUOUS
 10
6.164840
 20
5.447640
  0
VERTEX
  8
0
  6
CONTINUOUS
 10
6.122600
 20
5.428280
  0
SEQEND
  8
0
  0
SOLID
  8
0
 62
    15
 10
6.164840
 20
5.447640
 11
6.791400
 21
5.817680
 12
6.201800
 22
5.460400
 13
6.828360
 23
5.830880
  0
POLYLINE
  8
0
  6
CONTINUOUS
 66
     1
 40
0.000000
 41
0.000000
  0
VERTEX
  8
0
  6
CONTINUOUS
 10
6.164840
 20
5.447640
  0
VERTEX
  8
0
  6
CONTINUOUS
 10
6.791400
 20
5.817680
  0
VERTEX
  8
0
  6
CONTINUOUS
 10
6.828360
 20
5.830880
  0
VERTEX
  8
0
  6
CONTINUOUS
 10
6.201800
 20
5.460400
  0
VERTEX
  8
0
  6
CONTINUOUS
 10
6.164840
 20
5.447640
  0
SEQEND
  8
0
  0
SOLID
  8
0
 62
    15
 10
6.201800
 20
5.460400
 11
6.828360
 21
5.830880
 12
6.233920
 22
5.467880
 13
6.860920
 23
5.838360
  0
POLYLINE
  8
0
  6
CONTINUOUS
 66
     1
 40
0.000000
 41
0.000000
  0
VERTEX
  8
0
  6
CONTINUOUS
 10
6.201800
 20
5.460400
  0
VERTEX
  8
0
  6
CONTINUOUS
 10
6.828360
 20
5.830880
  0
VERTEX
  8
0
  6
CONTINUOUS
 10
6.860920
 20
5.838360
  0
VERTEX
  8
0
  6
CONTINUOUS
 10
6.233920
 20
5.467880
  0
VERTEX
  8
0
  6
CONTINUOUS
 10
6.201800
 20
5.460400
  0
SEQEND
  8
0
  0
SOLID
  8
0
 62
    15
 10
6.233920
 20
5.467880
 11
6.860920
 21
5.838360
 12
6.261640
 22
5.470960
 13
6.888640
 23
5.841000
  0
POLYLINE
  8
0
  6
CONTINUOUS
 66
     1
 40
0.000000
 41
0.000000
  0
VERTEX
  8
0
  6
CONTINUOUS
 10
6.233920
 20
5.467880
  0
VERTEX
  8
0
  6
CONTINUOUS
 10
6.860920
 20
5.838360
  0
VERTEX
  8
0
  6
CONTINUOUS
 10
6.888640
 20
5.841000
  0
VERTEX
  8
0
  6
CONTINUOUS
 10
6.261640
 20
5.470960
  0
VERTEX
  8
0
  6
CONTINUOUS
 10
6.233920
 20
5.467880
  0
SEQEND
  8
0
  0
SOLID
  8
0
 62
    15
 10
6.261640
 20
5.470960
 11
6.888640
 21
5.841000
 12
6.285400
 22
5.469200
 13
6.912400
 23
5.839680
  0
POLYLINE
  8
0
  6
CONTINUOUS
 66
     1
 40
0.000000
 41
0.000000
  0
VERTEX
  8
0
  6
CONTINUOUS
 10
6.261640
 20
5.470960
  0
VERTEX
  8
0
  6
CONTINUOUS
 10
6.888640
 20
5.841000
  0
VERTEX
  8
0
  6
CONTINUOUS
 10
6.912400
 20
5.839680
  0
VERTEX
  8
0
  6
CONTINUOUS
 10
6.285400
 20
5.469200
  0
VERTEX
  8
0
  6
CONTINUOUS
 10
6.261640
 20
5.470960
  0
SEQEND
  8
0
  0
SOLID
  8
0
 62
    15
 10
6.285400
 20
5.469200
 11
6.912400
 21
5.839680
 12
6.305200
 22
5.464360
 13
6.932200
 23
5.834400
  0
POLYLINE
  8
0
  6
CONTINUOUS
 66
     1
 40
0.000000
 41
0.000000
  0
VERTEX
  8
0
  6
CONTINUOUS
 10
6.285400
 20
5.469200
  0
VERTEX
  8
0
  6
CONTINUOUS
 10
6.912400
 20
5.839680
  0
VERTEX
  8
0
  6
CONTINUOUS
 10
6.932200
 20
5.834400
  0
VERTEX
  8
0
  6
CONTINUOUS
 10
6.305200
 20
5.464360
  0
VERTEX
  8
0
  6
CONTINUOUS
 10
6.285400
 20
5.469200
  0
SEQEND
  8
0
  0
SOLID
  8
0
 62
    15
 10
6.305200
 20
5.464360
 11
6.932200
 21
5.834400
 12
6.321920
 22
5.456000
 13
6.948920
 23
5.826480
  0
POLYLINE
  8
0
  6
CONTINUOUS
 66
     1
 40
0.000000
 41
0.000000
  0
VERTEX
  8
0
  6
CONTINUOUS
 10
6.305200
 20
5.464360
  0
VERTEX
  8
0
  6
CONTINUOUS
 10
6.932200
 20
5.834400
  0
VERTEX
  8
0
  6
CONTINUOUS
 10
6.948920
 20
5.826480
  0
VERTEX
  8
0
  6
CONTINUOUS
 10
6.321920
 20
5.456000
  0
VERTEX
  8
0
  6
CONTINUOUS
 10
6.305200
 20
5.464360
  0
SEQEND
  8
0
  0
SOLID
  8
0
 62
    15
 10
6.321920
 20
5.456000
 11
6.948920
 21
5.826480
 12
6.335120
 22
5.445000
 13
6.962120
 23
5.815480
  0
POLYLINE
  8
0
  6
CONTINUOUS
 66
     1
 40
0.000000
 41
0.000000
  0
VERTEX
  8
0
  6
CONTINUOUS
 10
6.321920
 20
5.456000
  0
VERTEX
  8
0
  6
CONTINUOUS
 10
6.948920
 20
5.826480
  0
VERTEX
  8
0
  6
CONTINUOUS
 10
6.962120
 20
5.815480
  0
VERTEX
  8
0
  6
CONTINUOUS
 10
6.335120
 20
5.445000
  0
VERTEX
  8
0
  6
CONTINUOUS
 10
6.321920
 20
5.456000
  0
SEQEND
  8
0
  0
SOLID
  8
0
 62
    15
 10
6.335120
 20
5.445000
 11
6.962120
 21
5.815480
 12
6.345680
 22
5.432680
 13
6.972680
 23
5.802720
  0
POLYLINE
  8
0
  6
CONTINUOUS
 66
     1
 40
0.000000
 41
0.000000
  0
VERTEX
  8
0
  6
CONTINUOUS
 10
6.335120
 20
5.445000
  0
VERTEX
  8
0
  6
CONTINUOUS
 10
6.962120
 20
5.815480
  0
VERTEX
  8
0
  6
CONTINUOUS
 10
6.972680
 20
5.802720
  0
VERTEX
  8
0
  6
CONTINUOUS
 10
6.345680
 20
5.432680
  0
VERTEX
  8
0
  6
CONTINUOUS
 10
6.335120
 20
5.445000
  0
SEQEND
  8
0
  0
SOLID
  8
0
 62
    15
 10
6.345680
 20
5.432680
 11
6.972680
 21
5.802720
 12
6.354040
 22
5.418600
 13
6.980600
 23
5.789080
  0
POLYLINE
  8
0
  6
CONTINUOUS
 66
     1
 40
0.000000
 41
0.000000
  0
VERTEX
  8
0
  6
CONTINUOUS
 10
6.345680
 20
5.432680
  0
VERTEX
  8
0
  6
CONTINUOUS
 10
6.972680
 20
5.802720
  0
VERTEX
  8
0
  6
CONTINUOUS
 10
6.980600
 20
5.789080
  0
VERTEX
  8
0
  6
CONTINUOUS
 10
6.354040
 20
5.418600
  0
VERTEX
  8
0
  6
CONTINUOUS
 10
6.345680
 20
5.432680
  0
SEQEND
  8
0
  0
SOLID
  8
0
 62
    15
 10
6.354040
 20
5.418600
 11
6.980600
 21
5.789080
 12
6.363720
 22
5.389120
 13
6.990720
 23
5.759600
  0
POLYLINE
  8
0
  6
CONTINUOUS
 66
     1
 40
0.000000
 41
0.000000
  0
VERTEX
  8
0
  6
CONTINUOUS
 10
6.354040
 20
5.418600
  0
VERTEX
  8
0
  6
CONTINUOUS
 10
6.980600
 20
5.789080
  0
VERTEX
  8
0
  6
CONTINUOUS
 10
6.990720
 20
5.759600
  0
VERTEX
  8
0
  6
CONTINUOUS
 10
6.363720
 20
5.389120
  0
VERTEX
  8
0
  6
CONTINUOUS
 10
6.354040
 20
5.418600
  0
SEQEND
  8
0
  0
SOLID
  8
0
 62
    15
 10
6.363720
 20
5.389120
 11
6.990720
 21
5.759600
 12
6.367680
 22
5.361400
 13
6.994240
 23
5.731880
  0
POLYLINE
  8
0
  6
CONTINUOUS
 66
     1
 40
0.000000
 41
0.000000
  0
VERTEX
  8
0
  6
CONTINUOUS
 10
6.363720
 20
5.389120
  0
VERTEX
  8
0
  6
CONTINUOUS
 10
6.990720
 20
5.759600
  0
VERTEX
  8
0
  6
CONTINUOUS
 10
6.994240
 20
5.731880
  0
VERTEX
  8
0
  6
CONTINUOUS
 10
6.367680
 20
5.361400
  0
VERTEX
  8
0
  6
CONTINUOUS
 10
6.363720
 20
5.389120
  0
SEQEND
  8
0
  0
SOLID
  8
0
 62
    15
 10
6.367680
 20
5.361400
 11
6.994240
 21
5.731880
 12
6.367680
 22
5.340720
 13
6.994680
 23
5.710760
  0
POLYLINE
  8
0
  6
CONTINUOUS
 66
     1
 40
0.000000
 41
0.000000
  0
VERTEX
  8
0
  6
CONTINUOUS
 10
6.367680
 20
5.361400
  0
VERTEX
  8
0
  6
CONTINUOUS
 10
6.994240
 20
5.731880
  0
VERTEX
  8
0
  6
CONTINUOUS
 10
6.994680
 20
5.710760
  0
VERTEX
  8
0
  6
CONTINUOUS
 10
6.367680
 20
5.340720
  0
VERTEX
  8
0
  6
CONTINUOUS
 10
6.367680
 20
5.361400
  0
SEQEND
  8
0
  0
SOLID
  8
0
 62
    15
 10
6.367680
 20
5.340720
 11
6.994680
 21
5.710760
 12
6.367680
 22
5.223680
 13
6.994680
 23
5.594160
  0
POLYLINE
  8
0
  6
CONTINUOUS
 66
     1
 40
0.000000
 41
0.000000
  0
VERTEX
  8
0
  6
CONTINUOUS
 10
6.367680
 20
5.340720
  0
VERTEX
  8
0
  6
CONTINUOUS
 10
6.994680
 20
5.710760
  0
VERTEX
  8
0
  6
CONTINUOUS
 10
6.994680
 20
5.594160
  0
VERTEX
  8
0
  6
CONTINUOUS
 10
6.367680
 20
5.223680
  0
VERTEX
  8
0
  6
CONTINUOUS
 10
6.367680
 20
5.340720
  0
SEQEND
  8
0
  0
POLYLINE
  8
0
  6
CONTINUOUS
 66
     1
 40
0.000000
 41
0.000000
  0
VERTEX
  8
0
  6
CONTINUOUS
 10
1.509200
 20
5.227200
  0
VERTEX
  8
0
  6
CONTINUOUS
 10
1.509200
 20
5.364920
  0
VERTEX
  8
0
  6
CONTINUOUS
 10
1.512720
 20
5.392200
  0
VERTEX
  8
0
  6
CONTINUOUS
 10
1.522840
 20
5.421680
  0
VERTEX
  8
0
  6
CONTINUOUS
 10
1.530760
 20
5.435760
  0
VERTEX
  8
0
  6
CONTINUOUS
 10
1.541320
 20
5.448520
  0
VERTEX
  8
0
  6
CONTINUOUS
 10
1.554960
 20
5.459080
  0
VERTEX
  8
0
  6
CONTINUOUS
 10
1.571240
 20
5.467440
  0
VERTEX
  8
0
  6
CONTINUOUS
 10
1.591480
 20
5.472720
  0
VERTEX
  8
0
  6
CONTINUOUS
 10
1.615240
 20
5.474040
  0
VERTEX
  8
0
  6
CONTINUOUS
 10
1.642960
 20
5.471400
  0
VERTEX
  8
0
  6
CONTINUOUS
 10
1.675080
 20
5.463480
  0
VERTEX
  8
0
  6
CONTINUOUS
 10
1.712040
 20
5.450720
  0
VERTEX
  8
0
  6
CONTINUOUS
 10
1.753840
 20
5.431360
  0
VERTEX
  8
0
  6
CONTINUOUS
 10
1.800040
 20
5.412000
  0
VERTEX
  8
0
  6
CONTINUOUS
 10
1.849760
 20
5.397040
  0
VERTEX
  8
0
  6
CONTINUOUS
 10
1.901680
 20
5.387360
  0
VERTEX
  8
0
  6
CONTINUOUS
 10
1.956680
 20
5.381200
  0
VERTEX
  8
0
  6
CONTINUOUS
 10
2.013880
 20
5.379440
  0
VERTEX
  8
0
  6
CONTINUOUS
 10
2.073280
 20
5.381200
  0
VERTEX
  8
0
  6
CONTINUOUS
 10
2.134880
 20
5.386040
  0
VERTEX
  8
0
  6
CONTINUOUS
 10
2.197800
 20
5.393960
  0
VERTEX
  8
0
  6
CONTINUOUS
 10
2.327600
 20
5.416840
  0
VERTEX
  8
0
  6
CONTINUOUS
 10
2.460920
 20
5.446760
  0
VERTEX
  8
0
  6
CONTINUOUS
 10
3.017520
 20
5.592840
  0
VERTEX
  8
0
  6
CONTINUOUS
 10
3.172840
 20
5.631120
  0
VERTEX
  8
0
  6
CONTINUOUS
 10
3.332120
 20
5.667200
  0
VERTEX
  8
0
  6
CONTINUOUS
 10
3.492280
 20
5.698440
  0
VERTEX
  8
0
  6
CONTINUOUS
 10
3.650680
 20
5.723520
  0
VERTEX
  8
0
  6
CONTINUOUS
 10
3.728560
 20
5.732760
  0
VERTEX
  8
0
  6
CONTINUOUS
 10
3.804240
 20
5.739800
  0
VERTEX
  8
0
  6
CONTINUOUS
 10
3.878600
 20
5.744200
  0
VERTEX
  8
0
  6
CONTINUOUS
 10
3.950320
 20
5.745960
  0
VERTEX
  8
0
  6
CONTINUOUS
 10
3.930960
 20
5.746400
  0
VERTEX
  8
0
  6
CONTINUOUS
 10
4.002680
 20
5.744640
  0
VERTEX
  8
0
  6
CONTINUOUS
 10
4.076600
 20
5.740240
  0
VERTEX
  8
0
  6
CONTINUOUS
 10
4.152720
 20
5.732760
  0
VERTEX
  8
0
  6
CONTINUOUS
 10
4.229720
 20
5.723080
  0
VERTEX
  8
0
  6
CONTINUOUS
 10
4.387680
 20
5.697560
  0
VERTEX
  8
0
  6
CONTINUOUS
 10
4.546960
 20
5.665440
  0
VERTEX
  8
0
  6
CONTINUOUS
 10
4.705360
 20
5.628920
  0
VERTEX
  8
0
  6
CONTINUOUS
 10
4.859800
 20
5.590200
  0
VERTEX
  8
0
  6
CONTINUOUS
 10
5.415960
 20
5.443240
  0
VERTEX
  8
0
  6
CONTINUOUS
 10
5.549280
 20
5.413320
  0
VERTEX
  8
0
  6
CONTINUOUS
 10
5.679080
 20
5.390880
  0
VERTEX
  8
0
  6
CONTINUOUS
 10
5.742000
 20
5.382960
  0
VERTEX
  8
0
  6
CONTINUOUS
 10
5.803160
 20
5.378120
  0
VERTEX
  8
0
  6
CONTINUOUS
 10
5.862560
 20
5.376360
  0
VERTEX
  8
0
  6
CONTINUOUS
 10
5.920200
 20
5.378120
  0
VERTEX
  8
0
  6
CONTINUOUS
 10
5.974760
 20
5.383840
  0
VERTEX
  8
0
  6
CONTINUOUS
 10
6.027120
 20
5.393960
  0
VERTEX
  8
0
  6
CONTINUOUS
 10
6.076400
 20
5.408920
  0
VERTEX
  8
0
  6
CONTINUOUS
 10
6.164840
 20
5.447640
  0
VERTEX
  8
0
  6
CONTINUOUS
 10
6.201800
 20
5.460400
  0
VERTEX
  8
0
  6
CONTINUOUS
 10
6.233920
 20
5.467880
  0
VERTEX
  8
0
  6
CONTINUOUS
 10
6.261640
 20
5.470960
  0
VERTEX
  8
0
  6
CONTINUOUS
 10
6.285400
 20
5.469200
  0
VERTEX
  8
0
  6
CONTINUOUS
 10
6.305200
 20
5.464360
  0
VERTEX
  8
0
  6
CONTINUOUS
 10
6.321920
 20
5.456000
  0
VERTEX
  8
0
  6
CONTINUOUS
 10
6.335120
 20
5.445000
  0
VERTEX
  8
0
  6
CONTINUOUS
 10
6.345680
 20
5.432680
  0
VERTEX
  8
0
  6
CONTINUOUS
 10
6.354040
 20
5.418600
  0
VERTEX
  8
0
  6
CONTINUOUS
 10
6.363720
 20
5.389120
  0
VERTEX
  8
0
  6
CONTINUOUS
 10
6.367680
 20
5.361400
  0
VERTEX
  8
0
  6
CONTINUOUS
 10
6.367680
 20
5.223680
  0
VERTEX
  8
0
  6
CONTINUOUS
 10
1.508760
 20
5.223240
  0
VERTEX
  8
0
  6
CONTINUOUS
 10
1.509200
 20
5.227200
  0
SEQEND
  8
0
  0
SOLID
  8
0
 62
    15
 10
6.806800
 20
4.131160
 11
7.428080
 21
4.487560
 12
6.781720
 22
4.085400
 13
7.403440
 23
4.441800
  0
POLYLINE
  8
0
  6
CONTINUOUS
 66
     1
 40
0.000000
 41
0.000000
  0
VERTEX
  8
0
  6
CONTINUOUS
 10
6.806800
 20
4.131160
  0
VERTEX
  8
0
  6
CONTINUOUS
 10
7.428080
 20
4.487560
  0
VERTEX
  8
0
  6
CONTINUOUS
 10
7.403440
 20
4.441800
  0
VERTEX
  8
0
  6
CONTINUOUS
 10
6.781720
 20
4.085400
  0
VERTEX
  8
0
  6
CONTINUOUS
 10
6.806800
 20
4.131160
  0
SEQEND
  8
0
  0
SOLID
  8
0
 62
    15
 10
6.447320
 20
5.358320
 11
7.068600
 21
5.714720
 12
6.522560
 22
5.339840
 13
7.143840
 23
5.696240
  0
POLYLINE
  8
0
  6
CONTINUOUS
 66
     1
 40
0.000000
 41
0.000000
  0
VERTEX
  8
0
  6
CONTINUOUS
 10
6.447320
 20
5.358320
  0
VERTEX
  8
0
  6
CONTINUOUS
 10
7.068600
 20
5.714720
  0
VERTEX
  8
0
  6
CONTINUOUS
 10
7.143840
 20
5.696240
  0
VERTEX
  8
0
  6
CONTINUOUS
 10
6.522560
 20
5.339840
  0
VERTEX
  8
0
  6
CONTINUOUS
 10
6.447320
 20
5.358320
  0
SEQEND
  8
0
  0
SOLID
  8
0
 62
    15
 10
6.522560
 20
5.339840
 11
7.143840
 21
5.696240
 12
6.592520
 22
5.318720
 13
7.213800
 23
5.675120
  0
POLYLINE
  8
0
  6
CONTINUOUS
 66
     1
 40
0.000000
 41
0.000000
  0
VERTEX
  8
0
  6
CONTINUOUS
 10
6.522560
 20
5.339840
  0
VERTEX
  8
0
  6
CONTINUOUS
 10
7.143840
 20
5.696240
  0
VERTEX
  8
0
  6
CONTINUOUS
 10
7.213800
 20
5.675120
  0
VERTEX
  8
0
  6
CONTINUOUS
 10
6.592520
 20
5.318720
  0
VERTEX
  8
0
  6
CONTINUOUS
 10
6.522560
 20
5.339840
  0
SEQEND
  8
0
  0
SOLID
  8
0
 62
    15
 10
6.592520
 20
5.318720
 11
7.213800
 21
5.675120
 12
6.658080
 22
5.294960
 13
7.279360
 23
5.651360
  0
POLYLINE
  8
0
  6
CONTINUOUS
 66
     1
 40
0.000000
 41
0.000000
  0
VERTEX
  8
0
  6
CONTINUOUS
 10
6.592520
 20
5.318720
  0
VERTEX
  8
0
  6
CONTINUOUS
 10
7.213800
 20
5.675120
  0
VERTEX
  8
0
  6
CONTINUOUS
 10
7.279360
 20
5.651360
  0
VERTEX
  8
0
  6
CONTINUOUS
 10
6.658080
 20
5.294960
  0
VERTEX
  8
0
  6
CONTINUOUS
 10
6.592520
 20
5.318720
  0
SEQEND
  8
0
  0
SOLID
  8
0
 62
    15
 10
6.658080
 20
5.294960
 11
7.279360
 21
5.651360
 12
6.718800
 22
5.269000
 13
7.340080
 23
5.624960
  0
POLYLINE
  8
0
  6
CONTINUOUS
 66
     1
 40
0.000000
 41
0.000000
  0
VERTEX
  8
0
  6
CONTINUOUS
 10
6.658080
 20
5.294960
  0
VERTEX
  8
0
  6
CONTINUOUS
 10
7.279360
 20
5.651360
  0
VERTEX
  8
0
  6
CONTINUOUS
 10
7.340080
 20
5.624960
  0
VERTEX
  8
0
  6
CONTINUOUS
 10
6.718800
 20
5.269000
  0
VERTEX
  8
0
  6
CONTINUOUS
 10
6.658080
 20
5.294960
  0
SEQEND
  8
0
  0
SOLID
  8
0
 62
    15
 10
6.718800
 20
5.269000
 11
7.340080
 21
5.624960
 12
6.774680
 22
5.240400
 13
7.395960
 23
5.596800
  0
POLYLINE
  8
0
  6
CONTINUOUS
 66
     1
 40
0.000000
 41
0.000000
  0
VERTEX
  8
0
  6
CONTINUOUS
 10
6.718800
 20
5.269000
  0
VERTEX
  8
0
  6
CONTINUOUS
 10
7.340080
 20
5.624960
  0
VERTEX
  8
0
  6
CONTINUOUS
 10
7.395960
 20
5.596800
  0
VERTEX
  8
0
  6
CONTINUOUS
 10
6.774680
 20
5.240400
  0
VERTEX
  8
0
  6
CONTINUOUS
 10
6.718800
 20
5.269000
  0
SEQEND
  8
0
  0
SOLID
  8
0
 62
    15
 10
6.774680
 20
5.240400
 11
7.395960
 21
5.596800
 12
6.872800
 22
5.177480
 13
7.494520
 23
5.533880
  0
POLYLINE
  8
0
  6
CONTINUOUS
 66
     1
 40
0.000000
 41
0.000000
  0
VERTEX
  8
0
  6
CONTINUOUS
 10
6.774680
 20
5.240400
  0
VERTEX
  8
0
  6
CONTINUOUS
 10
7.395960
 20
5.596800
  0
VERTEX
  8
0
  6
CONTINUOUS
 10
7.494520
 20
5.533880
  0
VERTEX
  8
0
  6
CONTINUOUS
 10
6.872800
 20
5.177480
  0
VERTEX
  8
0
  6
CONTINUOUS
 10
6.774680
 20
5.240400
  0
SEQEND
  8
0
  0
SOLID
  8
0
 62
    15
 10
6.872800
 20
5.177480
 11
7.494520
 21
5.533880
 12
6.953320
 22
5.108400
 13
7.575040
 23
5.464800
  0
POLYLINE
  8
0
  6
CONTINUOUS
 66
     1
 40
0.000000
 41
0.000000
  0
VERTEX
  8
0
  6
CONTINUOUS
 10
6.872800
 20
5.177480
  0
VERTEX
  8
0
  6
CONTINUOUS
 10
7.494520
 20
5.533880
  0
VERTEX
  8
0
  6
CONTINUOUS
 10
7.575040
 20
5.464800
  0
VERTEX
  8
0
  6
CONTINUOUS
 10
6.953320
 20
5.108400
  0
VERTEX
  8
0
  6
CONTINUOUS
 10
6.872800
 20
5.177480
  0
SEQEND
  8
0
  0
SOLID
  8
0
 62
    15
 10
6.953320
 20
5.108400
 11
7.575040
 21
5.464800
 12
7.016680
 22
5.035360
 13
7.637960
 23
5.391760
  0
POLYLINE
  8
0
  6
CONTINUOUS
 66
     1
 40
0.000000
 41
0.000000
  0
VERTEX
  8
0
  6
CONTINUOUS
 10
6.953320
 20
5.108400
  0
VERTEX
  8
0
  6
CONTINUOUS
 10
7.575040
 20
5.464800
  0
VERTEX
  8
0
  6
CONTINUOUS
 10
7.637960
 20
5.391760
  0
VERTEX
  8
0
  6
CONTINUOUS
 10
7.016680
 20
5.035360
  0
VERTEX
  8
0
  6
CONTINUOUS
 10
6.953320
 20
5.108400
  0
SEQEND
  8
0
  0
SOLID
  8
0
 62
    15
 10
7.016680
 20
5.035360
 11
7.637960
 21
5.391760
 12
7.063320
 22
4.959680
 13
7.684600
 23
5.315640
  0
POLYLINE
  8
0
  6
CONTINUOUS
 66
     1
 40
0.000000
 41
0.000000
  0
VERTEX
  8
0
  6
CONTINUOUS
 10
7.016680
 20
5.035360
  0
VERTEX
  8
0
  6
CONTINUOUS
 10
7.637960
 20
5.391760
  0
VERTEX
  8
0
  6
CONTINUOUS
 10
7.684600
 20
5.315640
  0
VERTEX
  8
0
  6
CONTINUOUS
 10
7.063320
 20
4.959680
  0
VERTEX
  8
0
  6
CONTINUOUS
 10
7.016680
 20
5.035360
  0
SEQEND
  8
0
  0
SOLID
  8
0
 62
    15
 10
7.063320
 20
4.959680
 11
7.684600
 21
5.315640
 12
7.093680
 22
4.883120
 13
7.714960
 23
5.239520
  0
POLYLINE
  8
0
  6
CONTINUOUS
 66
     1
 40
0.000000
 41
0.000000
  0
VERTEX
  8
0
  6
CONTINUOUS
 10
7.063320
 20
4.959680
  0
VERTEX
  8
0
  6
CONTINUOUS
 10
7.684600
 20
5.315640
  0
VERTEX
  8
0
  6
CONTINUOUS
 10
7.714960
 20
5.239520
  0
VERTEX
  8
0
  6
CONTINUOUS
 10
7.093680
 20
4.883120
  0
VERTEX
  8
0
  6
CONTINUOUS
 10
7.063320
 20
4.959680
  0
SEQEND
  8
0
  0
SOLID
  8
0
 62
    15
 10
7.093680
 20
4.883120
 11
7.714960
 21
5.239520
 12
7.108200
 22
4.807880
 13
7.729480
 23
5.163840
  0
POLYLINE
  8
0
  6
CONTINUOUS
 66
     1
 40
0.000000
 41
0.000000
  0
VERTEX
  8
0
  6
CONTINUOUS
 10
7.093680
 20
4.883120
  0
VERTEX
  8
0
  6
CONTINUOUS
 10
7.714960
 20
5.239520
  0
VERTEX
  8
0
  6
CONTINUOUS
 10
7.729480
 20
5.163840
  0
VERTEX
  8
0
  6
CONTINUOUS
 10
7.108200
 20
4.807880
  0
VERTEX
  8
0
  6
CONTINUOUS
 10
7.093680
 20
4.883120
  0
SEQEND
  8
0
  0
SOLID
  8
0
 62
    15
 10
7.108200
 20
4.807880
 11
7.729480
 21
5.163840
 12
7.107760
 22
4.735280
 13
7.729040
 23
5.091680
  0
POLYLINE
  8
0
  6
CONTINUOUS
 66
     1
 40
0.000000
 41
0.000000
  0
VERTEX
  8
0
  6
CONTINUOUS
 10
7.108200
 20
4.807880
  0
VERTEX
  8
0
  6
CONTINUOUS
 10
7.729480
 20
5.163840
  0
VERTEX
  8
0
  6
CONTINUOUS
 10
7.729040
 20
5.091680
  0
VERTEX
  8
0
  6
CONTINUOUS
 10
7.107760
 20
4.735280
  0
VERTEX
  8
0
  6
CONTINUOUS
 10
7.108200
 20
4.807880
  0
SEQEND
  8
0
  0
SOLID
  8
0
 62
    15
 10
7.107760
 20
4.735280
 11
7.729040
 21
5.091680
 12
7.092800
 22
4.667960
 13
7.714080
 23
5.023920
  0
POLYLINE
  8
0
  6
CONTINUOUS
 66
     1
 40
0.000000
 41
0.000000
  0
VERTEX
  8
0
  6
CONTINUOUS
 10
7.107760
 20
4.735280
  0
VERTEX
  8
0
  6
CONTINUOUS
 10
7.729040
 20
5.091680
  0
VERTEX
  8
0
  6
CONTINUOUS
 10
7.714080
 20
5.023920
  0
VERTEX
  8
0
  6
CONTINUOUS
 10
7.092800
 20
4.667960
  0
VERTEX
  8
0
  6
CONTINUOUS
 10
7.107760
 20
4.735280
  0
SEQEND
  8
0
  0
SOLID
  8
0
 62
    15
 10
6.817360
 20
4.466000
 11
7.439080
 21
4.822400
 12
6.860920
 22
4.450600
 13
7.482200
 23
4.807000
  0
POLYLINE
  8
0
  6
CONTINUOUS
 66
     1
 40
0.000000
 41
0.000000
  0
VERTEX
  8
0
  6
CONTINUOUS
 10
6.817360
 20
4.466000
  0
VERTEX
  8
0
  6
CONTINUOUS
 10
7.439080
 20
4.822400
  0
VERTEX
  8
0
  6
CONTINUOUS
 10
7.482200
 20
4.807000
  0
VERTEX
  8
0
  6
CONTINUOUS
 10
6.860920
 20
4.450600
  0
VERTEX
  8
0
  6
CONTINUOUS
 10
6.817360
 20
4.466000
  0
SEQEND
  8
0
  0
SOLID
  8
0
 62
    15
 10
7.063760
 20
4.606800
 11
7.685040
 21
4.963200
 12
7.021080
 22
4.554440
 13
7.642360
 23
4.910840
  0
POLYLINE
  8
0
  6
CONTINUOUS
 66
     1
 40
0.000000
 41
0.000000
  0
VERTEX
  8
0
  6
CONTINUOUS
 10
7.063760
 20
4.606800
  0
VERTEX
  8
0
  6
CONTINUOUS
 10
7.685040
 20
4.963200
  0
VERTEX
  8
0
  6
CONTINUOUS
 10
7.642360
 20
4.910840
  0
VERTEX
  8
0
  6
CONTINUOUS
 10
7.021080
 20
4.554440
  0
VERTEX
  8
0
  6
CONTINUOUS
 10
7.063760
 20
4.606800
  0
SEQEND
  8
0
  0
SOLID
  8
0
 62
    15
 10
7.021080
 20
4.554440
 11
7.642360
 21
4.910840
 12
6.965640
 22
4.512200
 13
7.586920
 23
4.868600
  0
POLYLINE
  8
0
  6
CONTINUOUS
 66
     1
 40
0.000000
 41
0.000000
  0
VERTEX
  8
0
  6
CONTINUOUS
 10
7.021080
 20
4.554440
  0
VERTEX
  8
0
  6
CONTINUOUS
 10
7.642360
 20
4.910840
  0
VERTEX
  8
0
  6
CONTINUOUS
 10
7.586920
 20
4.868600
  0
VERTEX
  8
0
  6
CONTINUOUS
 10
6.965640
 20
4.512200
  0
VERTEX
  8
0
  6
CONTINUOUS
 10
7.021080
 20
4.554440
  0
SEQEND
  8
0
  0
SOLID
  8
0
 62
    15
 10
7.092800
 20
4.667960
 11
7.714080
 21
5.023920
 12
7.063760
 22
4.606800
 13
7.685040
 23
4.963200
  0
POLYLINE
  8
0
  6
CONTINUOUS
 66
     1
 40
0.000000
 41
0.000000
  0
VERTEX
  8
0
  6
CONTINUOUS
 10
7.092800
 20
4.667960
  0
VERTEX
  8
0
  6
CONTINUOUS
 10
7.714080
 20
5.023920
  0
VERTEX
  8
0
  6
CONTINUOUS
 10
7.685040
 20
4.963200
  0
VERTEX
  8
0
  6
CONTINUOUS
 10
7.063760
 20
4.606800
  0
VERTEX
  8
0
  6
CONTINUOUS
 10
7.092800
 20
4.667960
  0
SEQEND
  8
0
  0
SOLID
  8
0
 62
    15
 10
6.860920
 20
4.450600
 11
7.482200
 21
4.807000
 12
6.900960
 22
4.429040
 13
7.522240
 23
4.785440
  0
POLYLINE
  8
0
  6
CONTINUOUS
 66
     1
 40
0.000000
 41
0.000000
  0
VERTEX
  8
0
  6
CONTINUOUS
 10
6.860920
 20
4.450600
  0
VERTEX
  8
0
  6
CONTINUOUS
 10
7.482200
 20
4.807000
  0
VERTEX
  8
0
  6
CONTINUOUS
 10
7.522240
 20
4.785440
  0
VERTEX
  8
0
  6
CONTINUOUS
 10
6.900960
 20
4.429040
  0
VERTEX
  8
0
  6
CONTINUOUS
 10
6.860920
 20
4.450600
  0
SEQEND
  8
0
  0
SOLID
  8
0
 62
    15
 10
6.900960
 20
4.429040
 11
7.522240
 21
4.785440
 12
6.936160
 22
4.403520
 13
7.557440
 23
4.759480
  0
POLYLINE
  8
0
  6
CONTINUOUS
 66
     1
 40
0.000000
 41
0.000000
  0
VERTEX
  8
0
  6
CONTINUOUS
 10
6.900960
 20
4.429040
  0
VERTEX
  8
0
  6
CONTINUOUS
 10
7.522240
 20
4.785440
  0
VERTEX
  8
0
  6
CONTINUOUS
 10
7.557440
 20
4.759480
  0
VERTEX
  8
0
  6
CONTINUOUS
 10
6.936160
 20
4.403520
  0
VERTEX
  8
0
  6
CONTINUOUS
 10
6.900960
 20
4.429040
  0
SEQEND
  8
0
  0
SOLID
  8
0
 62
    15
 10
6.936160
 20
4.403520
 11
7.557440
 21
4.759480
 12
6.965640
 22
4.374480
 13
7.586920
 23
4.730880
  0
POLYLINE
  8
0
  6
CONTINUOUS
 66
     1
 40
0.000000
 41
0.000000
  0
VERTEX
  8
0
  6
CONTINUOUS
 10
6.936160
 20
4.403520
  0
VERTEX
  8
0
  6
CONTINUOUS
 10
7.557440
 20
4.759480
  0
VERTEX
  8
0
  6
CONTINUOUS
 10
7.586920
 20
4.730880
  0
VERTEX
  8
0
  6
CONTINUOUS
 10
6.965640
 20
4.374480
  0
VERTEX
  8
0
  6
CONTINUOUS
 10
6.936160
 20
4.403520
  0
SEQEND
  8
0
  0
SOLID
  8
0
 62
    15
 10
6.965640
 20
4.374480
 11
7.586920
 21
4.730880
 12
6.988080
 22
4.344560
 13
7.609360
 23
4.700960
  0
POLYLINE
  8
0
  6
CONTINUOUS
 66
     1
 40
0.000000
 41
0.000000
  0
VERTEX
  8
0
  6
CONTINUOUS
 10
6.965640
 20
4.374480
  0
VERTEX
  8
0
  6
CONTINUOUS
 10
7.586920
 20
4.730880
  0
VERTEX
  8
0
  6
CONTINUOUS
 10
7.609360
 20
4.700960
  0
VERTEX
  8
0
  6
CONTINUOUS
 10
6.988080
 20
4.344560
  0
VERTEX
  8
0
  6
CONTINUOUS
 10
6.965640
 20
4.374480
  0
SEQEND
  8
0
  0
SOLID
  8
0
 62
    15
 10
6.988080
 20
4.344560
 11
7.609360
 21
4.700960
 12
7.001720
 22
4.314640
 13
7.623000
 23
4.671040
  0
POLYLINE
  8
0
  6
CONTINUOUS
 66
     1
 40
0.000000
 41
0.000000
  0
VERTEX
  8
0
  6
CONTINUOUS
 10
6.988080
 20
4.344560
  0
VERTEX
  8
0
  6
CONTINUOUS
 10
7.609360
 20
4.700960
  0
VERTEX
  8
0
  6
CONTINUOUS
 10
7.623000
 20
4.671040
  0
VERTEX
  8
0
  6
CONTINUOUS
 10
7.001720
 20
4.314640
  0
VERTEX
  8
0
  6
CONTINUOUS
 10
6.988080
 20
4.344560
  0
SEQEND
  8
0
  0
SOLID
  8
0
 62
    15
 10
6.913720
 20
4.235440
 11
7.535000
 21
4.591400
 12
6.874120
 22
4.207720
 13
7.495400
 23
4.563680
  0
POLYLINE
  8
0
  6
CONTINUOUS
 66
     1
 40
0.000000
 41
0.000000
  0
VERTEX
  8
0
  6
CONTINUOUS
 10
6.913720
 20
4.235440
  0
VERTEX
  8
0
  6
CONTINUOUS
 10
7.535000
 20
4.591400
  0
VERTEX
  8
0
  6
CONTINUOUS
 10
7.495400
 20
4.563680
  0
VERTEX
  8
0
  6
CONTINUOUS
 10
6.874120
 20
4.207720
  0
VERTEX
  8
0
  6
CONTINUOUS
 10
6.913720
 20
4.235440
  0
SEQEND
  8
0
  0
SOLID
  8
0
 62
    15
 10
6.874120
 20
4.207720
 11
7.495400
 21
4.563680
 12
6.838040
 22
4.172520
 13
7.459320
 23
4.528480
  0
POLYLINE
  8
0
  6
CONTINUOUS
 66
     1
 40
0.000000
 41
0.000000
  0
VERTEX
  8
0
  6
CONTINUOUS
 10
6.874120
 20
4.207720
  0
VERTEX
  8
0
  6
CONTINUOUS
 10
7.495400
 20
4.563680
  0
VERTEX
  8
0
  6
CONTINUOUS
 10
7.459320
 20
4.528480
  0
VERTEX
  8
0
  6
CONTINUOUS
 10
6.838040
 20
4.172520
  0
VERTEX
  8
0
  6
CONTINUOUS
 10
6.874120
 20
4.207720
  0
SEQEND
  8
0
  0
SOLID
  8
0
 62
    15
 10
7.001720
 20
4.314640
 11
7.623000
 21
4.671040
 12
7.005680
 22
4.286920
 13
7.627400
 23
4.643320
  0
POLYLINE
  8
0
  6
CONTINUOUS
 66
     1
 40
0.000000
 41
0.000000
  0
VERTEX
  8
0
  6
CONTINUOUS
 10
7.001720
 20
4.314640
  0
VERTEX
  8
0
  6
CONTINUOUS
 10
7.623000
 20
4.671040
  0
VERTEX
  8
0
  6
CONTINUOUS
 10
7.627400
 20
4.643320
  0
VERTEX
  8
0
  6
CONTINUOUS
 10
7.005680
 20
4.286920
  0
VERTEX
  8
0
  6
CONTINUOUS
 10
7.001720
 20
4.314640
  0
SEQEND
  8
0
  0
SOLID
  8
0
 62
    15
 10
6.838040
 20
4.172520
 11
7.459320
 21
4.528480
 12
6.806800
 22
4.131160
 13
7.428080
 23
4.487560
  0
POLYLINE
  8
0
  6
CONTINUOUS
 66
     1
 40
0.000000
 41
0.000000
  0
VERTEX
  8
0
  6
CONTINUOUS
 10
6.838040
 20
4.172520
  0
VERTEX
  8
0
  6
CONTINUOUS
 10
7.459320
 20
4.528480
  0
VERTEX
  8
0
  6
CONTINUOUS
 10
7.428080
 20
4.487560
  0
VERTEX
  8
0
  6
CONTINUOUS
 10
6.806800
 20
4.131160
  0
VERTEX
  8
0
  6
CONTINUOUS
 10
6.838040
 20
4.172520
  0
SEQEND
  8
0
  0
SOLID
  8
0
 62
    15
 10
7.005680
 20
4.286920
 11
7.627400
 21
4.643320
 12
6.999080
 22
4.262280
 13
7.620360
 23
4.618680
  0
POLYLINE
  8
0
  6
CONTINUOUS
 66
     1
 40
0.000000
 41
0.000000
  0
VERTEX
  8
0
  6
CONTINUOUS
 10
7.005680
 20
4.286920
  0
VERTEX
  8
0
  6
CONTINUOUS
 10
7.627400
 20
4.643320
  0
VERTEX
  8
0
  6
CONTINUOUS
 10
7.620360
 20
4.618680
  0
VERTEX
  8
0
  6
CONTINUOUS
 10
6.999080
 20
4.262280
  0
VERTEX
  8
0
  6
CONTINUOUS
 10
7.005680
 20
4.286920
  0
SEQEND
  8
0
  0
SOLID
  8
0
 62
    15
 10
6.367240
 20
5.373280
 11
6.988960
 21
5.729680
 12
6.447320
 22
5.358320
 13
7.068600
 23
5.714720
  0
POLYLINE
  8
0
  6
CONTINUOUS
 66
     1
 40
0.000000
 41
0.000000
  0
VERTEX
  8
0
  6
CONTINUOUS
 10
6.367240
 20
5.373280
  0
VERTEX
  8
0
  6
CONTINUOUS
 10
6.988960
 20
5.729680
  0
VERTEX
  8
0
  6
CONTINUOUS
 10
7.068600
 20
5.714720
  0
VERTEX
  8
0
  6
CONTINUOUS
 10
6.447320
 20
5.358320
  0
VERTEX
  8
0
  6
CONTINUOUS
 10
6.367240
 20
5.373280
  0
SEQEND
  8
0
  0
SOLID
  8
0
 62
    15
 10
6.781720
 20
4.085400
 11
7.403440
 21
4.441800
 12
6.764560
 22
4.037000
 13
7.386280
 23
4.393400
  0
POLYLINE
  8
0
  6
CONTINUOUS
 66
     1
 40
0.000000
 41
0.000000
  0
VERTEX
  8
0
  6
CONTINUOUS
 10
6.781720
 20
4.085400
  0
VERTEX
  8
0
  6
CONTINUOUS
 10
7.403440
 20
4.441800
  0
VERTEX
  8
0
  6
CONTINUOUS
 10
7.386280
 20
4.393400
  0
VERTEX
  8
0
  6
CONTINUOUS
 10
6.764560
 20
4.037000
  0
VERTEX
  8
0
  6
CONTINUOUS
 10
6.781720
 20
4.085400
  0
SEQEND
  8
0
  0
SOLID
  8
0
 62
    15
 10
6.764560
 20
4.037000
 11
7.386280
 21
4.393400
 12
6.756640
 22
3.986840
 13
7.377920
 23
4.343240
  0
POLYLINE
  8
0
  6
CONTINUOUS
 66
     1
 40
0.000000
 41
0.000000
  0
VERTEX
  8
0
  6
CONTINUOUS
 10
6.764560
 20
4.037000
  0
VERTEX
  8
0
  6
CONTINUOUS
 10
7.386280
 20
4.393400
  0
VERTEX
  8
0
  6
CONTINUOUS
 10
7.377920
 20
4.343240
  0
VERTEX
  8
0
  6
CONTINUOUS
 10
6.756640
 20
3.986840
  0
VERTEX
  8
0
  6
CONTINUOUS
 10
6.764560
 20
4.037000
  0
SEQEND
  8
0
  0
SOLID
  8
0
 62
    15
 10
6.756640
 20
3.986840
 11
7.377920
 21
4.343240
 12
6.758400
 22
3.936680
 13
7.380120
 23
4.293080
  0
POLYLINE
  8
0
  6
CONTINUOUS
 66
     1
 40
0.000000
 41
0.000000
  0
VERTEX
  8
0
  6
CONTINUOUS
 10
6.756640
 20
3.986840
  0
VERTEX
  8
0
  6
CONTINUOUS
 10
7.377920
 20
4.343240
  0
VERTEX
  8
0
  6
CONTINUOUS
 10
7.380120
 20
4.293080
  0
VERTEX
  8
0
  6
CONTINUOUS
 10
6.758400
 20
3.936680
  0
VERTEX
  8
0
  6
CONTINUOUS
 10
6.756640
 20
3.986840
  0
SEQEND
  8
0
  0
SOLID
  8
0
 62
    15
 10
6.758400
 20
3.936680
 11
7.380120
 21
4.293080
 12
6.772480
 22
3.887840
 13
7.393760
 23
4.244240
  0
POLYLINE
  8
0
  6
CONTINUOUS
 66
     1
 40
0.000000
 41
0.000000
  0
VERTEX
  8
0
  6
CONTINUOUS
 10
6.758400
 20
3.936680
  0
VERTEX
  8
0
  6
CONTINUOUS
 10
7.380120
 20
4.293080
  0
VERTEX
  8
0
  6
CONTINUOUS
 10
7.393760
 20
4.244240
  0
VERTEX
  8
0
  6
CONTINUOUS
 10
6.772480
 20
3.887840
  0
VERTEX
  8
0
  6
CONTINUOUS
 10
6.758400
 20
3.936680
  0
SEQEND
  8
0
  0
SOLID
  8
0
 62
    15
 10
6.772480
 20
3.887840
 11
7.393760
 21
4.244240
 12
6.798880
 22
3.842520
 13
7.420600
 23
4.198480
  0
POLYLINE
  8
0
  6
CONTINUOUS
 66
     1
 40
0.000000
 41
0.000000
  0
VERTEX
  8
0
  6
CONTINUOUS
 10
6.772480
 20
3.887840
  0
VERTEX
  8
0
  6
CONTINUOUS
 10
7.393760
 20
4.244240
  0
VERTEX
  8
0
  6
CONTINUOUS
 10
7.420600
 20
4.198480
  0
VERTEX
  8
0
  6
CONTINUOUS
 10
6.798880
 20
3.842520
  0
VERTEX
  8
0
  6
CONTINUOUS
 10
6.772480
 20
3.887840
  0
SEQEND
  8
0
  0
SOLID
  8
0
 62
    15
 10
6.798880
 20
3.842520
 11
7.420600
 21
4.198480
 12
6.839800
 22
3.801160
 13
7.461520
 23
4.157560
  0
POLYLINE
  8
0
  6
CONTINUOUS
 66
     1
 40
0.000000
 41
0.000000
  0
VERTEX
  8
0
  6
CONTINUOUS
 10
6.798880
 20
3.842520
  0
VERTEX
  8
0
  6
CONTINUOUS
 10
7.420600
 20
4.198480
  0
VERTEX
  8
0
  6
CONTINUOUS
 10
7.461520
 20
4.157560
  0
VERTEX
  8
0
  6
CONTINUOUS
 10
6.839800
 20
3.801160
  0
VERTEX
  8
0
  6
CONTINUOUS
 10
6.798880
 20
3.842520
  0
SEQEND
  8
0
  0
SOLID
  8
0
 62
    15
 10
6.839800
 20
3.801160
 11
7.461520
 21
4.157560
 12
6.896560
 22
3.765960
 13
7.517840
 23
4.122360
  0
POLYLINE
  8
0
  6
CONTINUOUS
 66
     1
 40
0.000000
 41
0.000000
  0
VERTEX
  8
0
  6
CONTINUOUS
 10
6.839800
 20
3.801160
  0
VERTEX
  8
0
  6
CONTINUOUS
 10
7.461520
 20
4.157560
  0
VERTEX
  8
0
  6
CONTINUOUS
 10
7.517840
 20
4.122360
  0
VERTEX
  8
0
  6
CONTINUOUS
 10
6.896560
 20
3.765960
  0
VERTEX
  8
0
  6
CONTINUOUS
 10
6.839800
 20
3.801160
  0
SEQEND
  8
0
  0
SOLID
  8
0
 62
    15
 10
6.896560
 20
3.765960
 11
7.517840
 21
4.122360
 12
6.970040
 22
3.738240
 13
7.591320
 23
4.094640
  0
POLYLINE
  8
0
  6
CONTINUOUS
 66
     1
 40
0.000000
 41
0.000000
  0
VERTEX
  8
0
  6
CONTINUOUS
 10
6.896560
 20
3.765960
  0
VERTEX
  8
0
  6
CONTINUOUS
 10
7.517840
 20
4.122360
  0
VERTEX
  8
0
  6
CONTINUOUS
 10
7.591320
 20
4.094640
  0
VERTEX
  8
0
  6
CONTINUOUS
 10
6.970040
 20
3.738240
  0
VERTEX
  8
0
  6
CONTINUOUS
 10
6.896560
 20
3.765960
  0
SEQEND
  8
0
  0
SOLID
  8
0
 62
    15
 10
6.970040
 20
3.738240
 11
7.591320
 21
4.094640
 12
7.013600
 22
3.727680
 13
7.634880
 23
4.084080
  0
POLYLINE
  8
0
  6
CONTINUOUS
 66
     1
 40
0.000000
 41
0.000000
  0
VERTEX
  8
0
  6
CONTINUOUS
 10
6.970040
 20
3.738240
  0
VERTEX
  8
0
  6
CONTINUOUS
 10
7.591320
 20
4.094640
  0
VERTEX
  8
0
  6
CONTINUOUS
 10
7.634880
 20
4.084080
  0
VERTEX
  8
0
  6
CONTINUOUS
 10
7.013600
 20
3.727680
  0
VERTEX
  8
0
  6
CONTINUOUS
 10
6.970040
 20
3.738240
  0
SEQEND
  8
0
  0
SOLID
  8
0
 62
    15
 10
7.013600
 20
3.727680
 11
7.634880
 21
4.084080
 12
7.062000
 22
3.719320
 13
7.683280
 23
4.075720
  0
POLYLINE
  8
0
  6
CONTINUOUS
 66
     1
 40
0.000000
 41
0.000000
  0
VERTEX
  8
0
  6
CONTINUOUS
 10
7.013600
 20
3.727680
  0
VERTEX
  8
0
  6
CONTINUOUS
 10
7.634880
 20
4.084080
  0
VERTEX
  8
0
  6
CONTINUOUS
 10
7.683280
 20
4.075720
  0
VERTEX
  8
0
  6
CONTINUOUS
 10
7.062000
 20
3.719320
  0
VERTEX
  8
0
  6
CONTINUOUS
 10
7.013600
 20
3.727680
  0
SEQEND
  8
0
  0
SOLID
  8
0
 62
    15
 10
7.062000
 20
3.719320
 11
7.683280
 21
4.075720
 12
7.115240
 22
3.714040
 13
7.736520
 23
4.070000
  0
POLYLINE
  8
0
  6
CONTINUOUS
 66
     1
 40
0.000000
 41
0.000000
  0
VERTEX
  8
0
  6
CONTINUOUS
 10
7.062000
 20
3.719320
  0
VERTEX
  8
0
  6
CONTINUOUS
 10
7.683280
 20
4.075720
  0
VERTEX
  8
0
  6
CONTINUOUS
 10
7.736520
 20
4.070000
  0
VERTEX
  8
0
  6
CONTINUOUS
 10
7.115240
 20
3.714040
  0
VERTEX
  8
0
  6
CONTINUOUS
 10
7.062000
 20
3.719320
  0
SEQEND
  8
0
  0
SOLID
  8
0
 62
    15
 10
7.115240
 20
3.714040
 11
7.736520
 21
4.070000
 12
7.173320
 22
3.710960
 13
7.794600
 23
4.067360
  0
POLYLINE
  8
0
  6
CONTINUOUS
 66
     1
 40
0.000000
 41
0.000000
  0
VERTEX
  8
0
  6
CONTINUOUS
 10
7.115240
 20
3.714040
  0
VERTEX
  8
0
  6
CONTINUOUS
 10
7.736520
 20
4.070000
  0
VERTEX
  8
0
  6
CONTINUOUS
 10
7.794600
 20
4.067360
  0
VERTEX
  8
0
  6
CONTINUOUS
 10
7.173320
 20
3.710960
  0
VERTEX
  8
0
  6
CONTINUOUS
 10
7.115240
 20
3.714040
  0
SEQEND
  8
0
  0
SOLID
  8
0
 62
    15
 10
7.173320
 20
3.710960
 11
7.794600
 21
4.067360
 12
7.173320
 22
3.599200
 13
7.794600
 23
3.955160
  0
POLYLINE
  8
0
  6
CONTINUOUS
 66
     1
 40
0.000000
 41
0.000000
  0
VERTEX
  8
0
  6
CONTINUOUS
 10
7.173320
 20
3.710960
  0
VERTEX
  8
0
  6
CONTINUOUS
 10
7.794600
 20
4.067360
  0
VERTEX
  8
0
  6
CONTINUOUS
 10
7.794600
 20
3.955160
  0
VERTEX
  8
0
  6
CONTINUOUS
 10
7.173320
 20
3.599200
  0
VERTEX
  8
0
  6
CONTINUOUS
 10
7.173320
 20
3.710960
  0
SEQEND
  8
0
  0
SOLID
  8
0
 62
    15
 10
7.173760
 20
3.601400
 11
7.795040
 21
3.957360
 12
7.186960
 22
3.601400
 13
7.808240
 23
3.957360
  0
POLYLINE
  8
0
  6
CONTINUOUS
 66
     1
 40
0.000000
 41
0.000000
  0
VERTEX
  8
0
  6
CONTINUOUS
 10
7.173760
 20
3.601400
  0
VERTEX
  8
0
  6
CONTINUOUS
 10
7.795040
 20
3.957360
  0
VERTEX
  8
0
  6
CONTINUOUS
 10
7.808240
 20
3.957360
  0
VERTEX
  8
0
  6
CONTINUOUS
 10
7.186960
 20
3.601400
  0
VERTEX
  8
0
  6
CONTINUOUS
 10
7.173760
 20
3.601400
  0
SEQEND
  8
0
  0
SOLID
  8
0
 62
    15
 10
7.186960
 20
3.601400
 11
7.808240
 21
3.957360
 12
7.236680
 22
3.596120
 13
7.858400
 23
3.952520
  0
POLYLINE
  8
0
  6
CONTINUOUS
 66
     1
 40
0.000000
 41
0.000000
  0
VERTEX
  8
0
  6
CONTINUOUS
 10
7.186960
 20
3.601400
  0
VERTEX
  8
0
  6
CONTINUOUS
 10
7.808240
 20
3.957360
  0
VERTEX
  8
0
  6
CONTINUOUS
 10
7.858400
 20
3.952520
  0
VERTEX
  8
0
  6
CONTINUOUS
 10
7.236680
 20
3.596120
  0
VERTEX
  8
0
  6
CONTINUOUS
 10
7.186960
 20
3.601400
  0
SEQEND
  8
0
  0
SOLID
  8
0
 62
    15
 10
7.236680
 20
3.596120
 11
7.858400
 21
3.952520
 12
7.283320
 22
3.581600
 13
7.904600
 23
3.938000
  0
POLYLINE
  8
0
  6
CONTINUOUS
 66
     1
 40
0.000000
 41
0.000000
  0
VERTEX
  8
0
  6
CONTINUOUS
 10
7.236680
 20
3.596120
  0
VERTEX
  8
0
  6
CONTINUOUS
 10
7.858400
 20
3.952520
  0
VERTEX
  8
0
  6
CONTINUOUS
 10
7.904600
 20
3.938000
  0
VERTEX
  8
0
  6
CONTINUOUS
 10
7.283320
 20
3.581600
  0
VERTEX
  8
0
  6
CONTINUOUS
 10
7.236680
 20
3.596120
  0
SEQEND
  8
0
  0
SOLID
  8
0
 62
    15
 10
7.283320
 20
3.581600
 11
7.904600
 21
3.938000
 12
7.325560
 22
3.559160
 13
7.946840
 23
3.915120
  0
POLYLINE
  8
0
  6
CONTINUOUS
 66
     1
 40
0.000000
 41
0.000000
  0
VERTEX
  8
0
  6
CONTINUOUS
 10
7.283320
 20
3.581600
  0
VERTEX
  8
0
  6
CONTINUOUS
 10
7.904600
 20
3.938000
  0
VERTEX
  8
0
  6
CONTINUOUS
 10
7.946840
 20
3.915120
  0
VERTEX
  8
0
  6
CONTINUOUS
 10
7.325560
 20
3.559160
  0
VERTEX
  8
0
  6
CONTINUOUS
 10
7.283320
 20
3.581600
  0
SEQEND
  8
0
  0
SOLID
  8
0
 62
    15
 10
7.325560
 20
3.559160
 11
7.946840
 21
3.915120
 12
7.362080
 22
3.528800
 13
7.983800
 23
3.884760
  0
POLYLINE
  8
0
  6
CONTINUOUS
 66
     1
 40
0.000000
 41
0.000000
  0
VERTEX
  8
0
  6
CONTINUOUS
 10
7.325560
 20
3.559160
  0
VERTEX
  8
0
  6
CONTINUOUS
 10
7.946840
 20
3.915120
  0
VERTEX
  8
0
  6
CONTINUOUS
 10
7.983800
 20
3.884760
  0
VERTEX
  8
0
  6
CONTINUOUS
 10
7.362080
 20
3.528800
  0
VERTEX
  8
0
  6
CONTINUOUS
 10
7.325560
 20
3.559160
  0
SEQEND
  8
0
  0
SOLID
  8
0
 62
    15
 10
7.362080
 20
3.528800
 11
7.983800
 21
3.884760
 12
7.392440
 22
3.491840
 13
8.013720
 23
3.848240
  0
POLYLINE
  8
0
  6
CONTINUOUS
 66
     1
 40
0.000000
 41
0.000000
  0
VERTEX
  8
0
  6
CONTINUOUS
 10
7.362080
 20
3.528800
  0
VERTEX
  8
0
  6
CONTINUOUS
 10
7.983800
 20
3.884760
  0
VERTEX
  8
0
  6
CONTINUOUS
 10
8.013720
 20
3.848240
  0
VERTEX
  8
0
  6
CONTINUOUS
 10
7.392440
 20
3.491840
  0
VERTEX
  8
0
  6
CONTINUOUS
 10
7.362080
 20
3.528800
  0
SEQEND
  8
0
  0
SOLID
  8
0
 62
    15
 10
7.392440
 20
3.491840
 11
8.013720
 21
3.848240
 12
7.415320
 22
3.450040
 13
8.036600
 23
3.806440
  0
POLYLINE
  8
0
  6
CONTINUOUS
 66
     1
 40
0.000000
 41
0.000000
  0
VERTEX
  8
0
  6
CONTINUOUS
 10
7.392440
 20
3.491840
  0
VERTEX
  8
0
  6
CONTINUOUS
 10
8.013720
 20
3.848240
  0
VERTEX
  8
0
  6
CONTINUOUS
 10
8.036600
 20
3.806440
  0
VERTEX
  8
0
  6
CONTINUOUS
 10
7.415320
 20
3.450040
  0
VERTEX
  8
0
  6
CONTINUOUS
 10
7.392440
 20
3.491840
  0
SEQEND
  8
0
  0
SOLID
  8
0
 62
    15
 10
7.415320
 20
3.450040
 11
8.036600
 21
3.806440
 12
7.429840
 22
3.403400
 13
8.051120
 23
3.759800
  0
POLYLINE
  8
0
  6
CONTINUOUS
 66
     1
 40
0.000000
 41
0.000000
  0
VERTEX
  8
0
  6
CONTINUOUS
 10
7.415320
 20
3.450040
  0
VERTEX
  8
0
  6
CONTINUOUS
 10
8.036600
 20
3.806440
  0
VERTEX
  8
0
  6
CONTINUOUS
 10
8.051120
 20
3.759800
  0
VERTEX
  8
0
  6
CONTINUOUS
 10
7.429840
 20
3.403400
  0
VERTEX
  8
0
  6
CONTINUOUS
 10
7.415320
 20
3.450040
  0
SEQEND
  8
0
  0
SOLID
  8
0
 62
    15
 10
7.429840
 20
3.403400
 11
8.051120
 21
3.759800
 12
7.434680
 22
3.353680
 13
8.055960
 23
3.709640
  0
POLYLINE
  8
0
  6
CONTINUOUS
 66
     1
 40
0.000000
 41
0.000000
  0
VERTEX
  8
0
  6
CONTINUOUS
 10
7.429840
 20
3.403400
  0
VERTEX
  8
0
  6
CONTINUOUS
 10
8.051120
 20
3.759800
  0
VERTEX
  8
0
  6
CONTINUOUS
 10
8.055960
 20
3.709640
  0
VERTEX
  8
0
  6
CONTINUOUS
 10
7.434680
 20
3.353680
  0
VERTEX
  8
0
  6
CONTINUOUS
 10
7.429840
 20
3.403400
  0
SEQEND
  8
0
  0
SOLID
  8
0
 62
    15
 10
7.434680
 20
3.353680
 11
8.055960
 21
3.709640
 12
7.429840
 22
3.303520
 13
8.051120
 23
3.659920
  0
POLYLINE
  8
0
  6
CONTINUOUS
 66
     1
 40
0.000000
 41
0.000000
  0
VERTEX
  8
0
  6
CONTINUOUS
 10
7.434680
 20
3.353680
  0
VERTEX
  8
0
  6
CONTINUOUS
 10
8.055960
 20
3.709640
  0
VERTEX
  8
0
  6
CONTINUOUS
 10
8.051120
 20
3.659920
  0
VERTEX
  8
0
  6
CONTINUOUS
 10
7.429840
 20
3.303520
  0
VERTEX
  8
0
  6
CONTINUOUS
 10
7.434680
 20
3.353680
  0
SEQEND
  8
0
  0
SOLID
  8
0
 62
    15
 10
7.429840
 20
3.303520
 11
8.051120
 21
3.659920
 12
7.415320
 22
3.256880
 13
8.036600
 23
3.613280
  0
POLYLINE
  8
0
  6
CONTINUOUS
 66
     1
 40
0.000000
 41
0.000000
  0
VERTEX
  8
0
  6
CONTINUOUS
 10
7.429840
 20
3.303520
  0
VERTEX
  8
0
  6
CONTINUOUS
 10
8.051120
 20
3.659920
  0
VERTEX
  8
0
  6
CONTINUOUS
 10
8.036600
 20
3.613280
  0
VERTEX
  8
0
  6
CONTINUOUS
 10
7.415320
 20
3.256880
  0
VERTEX
  8
0
  6
CONTINUOUS
 10
7.429840
 20
3.303520
  0
SEQEND
  8
0
  0
SOLID
  8
0
 62
    15
 10
7.415320
 20
3.256880
 11
8.036600
 21
3.613280
 12
7.392440
 22
3.215080
 13
8.013720
 23
3.571040
  0
POLYLINE
  8
0
  6
CONTINUOUS
 66
     1
 40
0.000000
 41
0.000000
  0
VERTEX
  8
0
  6
CONTINUOUS
 10
7.415320
 20
3.256880
  0
VERTEX
  8
0
  6
CONTINUOUS
 10
8.036600
 20
3.613280
  0
VERTEX
  8
0
  6
CONTINUOUS
 10
8.013720
 20
3.571040
  0
VERTEX
  8
0
  6
CONTINUOUS
 10
7.392440
 20
3.215080
  0
VERTEX
  8
0
  6
CONTINUOUS
 10
7.415320
 20
3.256880
  0
SEQEND
  8
0
  0
SOLID
  8
0
 62
    15
 10
7.392440
 20
3.215080
 11
8.013720
 21
3.571040
 12
7.362080
 22
3.178120
 13
7.983800
 23
3.534520
  0
POLYLINE
  8
0
  6
CONTINUOUS
 66
     1
 40
0.000000
 41
0.000000
  0
VERTEX
  8
0
  6
CONTINUOUS
 10
7.392440
 20
3.215080
  0
VERTEX
  8
0
  6
CONTINUOUS
 10
8.013720
 20
3.571040
  0
VERTEX
  8
0
  6
CONTINUOUS
 10
7.983800
 20
3.534520
  0
VERTEX
  8
0
  6
CONTINUOUS
 10
7.362080
 20
3.178120
  0
VERTEX
  8
0
  6
CONTINUOUS
 10
7.392440
 20
3.215080
  0
SEQEND
  8
0
  0
SOLID
  8
0
 62
    15
 10
7.362080
 20
3.178120
 11
7.983800
 21
3.534520
 12
7.325560
 22
3.148200
 13
7.946840
 23
3.504160
  0
POLYLINE
  8
0
  6
CONTINUOUS
 66
     1
 40
0.000000
 41
0.000000
  0
VERTEX
  8
0
  6
CONTINUOUS
 10
7.362080
 20
3.178120
  0
VERTEX
  8
0
  6
CONTINUOUS
 10
7.983800
 20
3.534520
  0
VERTEX
  8
0
  6
CONTINUOUS
 10
7.946840
 20
3.504160
  0
VERTEX
  8
0
  6
CONTINUOUS
 10
7.325560
 20
3.148200
  0
VERTEX
  8
0
  6
CONTINUOUS
 10
7.362080
 20
3.178120
  0
SEQEND
  8
0
  0
SOLID
  8
0
 62
    15
 10
6.369440
 20
3.105520
 11
6.990720
 21
3.461920
 12
6.367240
 22
3.104200
 13
6.988960
 23
3.460600
  0
POLYLINE
  8
0
  6
CONTINUOUS
 66
     1
 40
0.000000
 41
0.000000
  0
VERTEX
  8
0
  6
CONTINUOUS
 10
6.369440
 20
3.105520
  0
VERTEX
  8
0
  6
CONTINUOUS
 10
6.990720
 20
3.461920
  0
VERTEX
  8
0
  6
CONTINUOUS
 10
6.988960
 20
3.460600
  0
VERTEX
  8
0
  6
CONTINUOUS
 10
6.367240
 20
3.104200
  0
VERTEX
  8
0
  6
CONTINUOUS
 10
6.369440
 20
3.105520
  0
SEQEND
  8
0
  0
POLYLINE
  8
0
  6
CONTINUOUS
 66
     1
 40
0.000000
 41
0.000000
  0
VERTEX
  8
0
  6
CONTINUOUS
 10
6.367240
 20
3.104200
  0
VERTEX
  8
0
  6
CONTINUOUS
 10
6.367240
 20
5.373280
  0
VERTEX
  8
0
  6
CONTINUOUS
 10
6.447320
 20
5.358320
  0
VERTEX
  8
0
  6
CONTINUOUS
 10
6.522560
 20
5.339840
  0
VERTEX
  8
0
  6
CONTINUOUS
 10
6.592520
 20
5.318720
  0
VERTEX
  8
0
  6
CONTINUOUS
 10
6.658080
 20
5.294960
  0
VERTEX
  8
0
  6
CONTINUOUS
 10
6.718800
 20
5.269000
  0
VERTEX
  8
0
  6
CONTINUOUS
 10
6.774680
 20
5.240400
  0
VERTEX
  8
0
  6
CONTINUOUS
 10
6.872800
 20
5.177480
  0
VERTEX
  8
0
  6
CONTINUOUS
 10
6.953320
 20
5.108400
  0
VERTEX
  8
0
  6
CONTINUOUS
 10
7.016680
 20
5.035360
  0
VERTEX
  8
0
  6
CONTINUOUS
 10
7.063320
 20
4.959680
  0
VERTEX
  8
0
  6
CONTINUOUS
 10
7.093680
 20
4.883120
  0
VERTEX
  8
0
  6
CONTINUOUS
 10
7.108200
 20
4.807880
  0
VERTEX
  8
0
  6
CONTINUOUS
 10
7.107760
 20
4.735280
  0
VERTEX
  8
0
  6
CONTINUOUS
 10
7.092800
 20
4.667960
  0
VERTEX
  8
0
  6
CONTINUOUS
 10
7.063760
 20
4.606800
  0
VERTEX
  8
0
  6
CONTINUOUS
 10
7.021080
 20
4.554440
  0
VERTEX
  8
0
  6
CONTINUOUS
 10
6.965640
 20
4.512200
  0
VERTEX
  8
0
  6
CONTINUOUS
 10
6.897440
 20
4.482280
  0
VERTEX
  8
0
  6
CONTINUOUS
 10
6.817360
 20
4.466000
  0
VERTEX
  8
0
  6
CONTINUOUS
 10
6.860920
 20
4.450600
  0
VERTEX
  8
0
  6
CONTINUOUS
 10
6.900960
 20
4.429040
  0
VERTEX
  8
0
  6
CONTINUOUS
 10
6.936160
 20
4.403520
  0
VERTEX
  8
0
  6
CONTINUOUS
 10
6.965640
 20
4.374480
  0
VERTEX
  8
0
  6
CONTINUOUS
 10
6.988080
 20
4.344560
  0
VERTEX
  8
0
  6
CONTINUOUS
 10
7.001720
 20
4.314640
  0
VERTEX
  8
0
  6
CONTINUOUS
 10
7.005680
 20
4.286920
  0
VERTEX
  8
0
  6
CONTINUOUS
 10
6.999080
 20
4.262280
  0
VERTEX
  8
0
  6
CONTINUOUS
 10
6.955960
 20
4.253920
  0
VERTEX
  8
0
  6
CONTINUOUS
 10
6.913720
 20
4.235440
  0
VERTEX
  8
0
  6
CONTINUOUS
 10
6.874120
 20
4.207720
  0
VERTEX
  8
0
  6
CONTINUOUS
 10
6.838040
 20
4.172520
  0
VERTEX
  8
0
  6
CONTINUOUS
 10
6.806800
 20
4.131160
  0
VERTEX
  8
0
  6
CONTINUOUS
 10
6.781720
 20
4.085400
  0
VERTEX
  8
0
  6
CONTINUOUS
 10
6.764560
 20
4.037000
  0
VERTEX
  8
0
  6
CONTINUOUS
 10
6.756640
 20
3.986840
  0
VERTEX
  8
0
  6
CONTINUOUS
 10
6.758400
 20
3.936680
  0
VERTEX
  8
0
  6
CONTINUOUS
 10
6.772480
 20
3.887840
  0
VERTEX
  8
0
  6
CONTINUOUS
 10
6.798880
 20
3.842520
  0
VERTEX
  8
0
  6
CONTINUOUS
 10
6.839800
 20
3.801160
  0
VERTEX
  8
0
  6
CONTINUOUS
 10
6.896560
 20
3.765960
  0
VERTEX
  8
0
  6
CONTINUOUS
 10
6.970040
 20
3.738240
  0
VERTEX
  8
0
  6
CONTINUOUS
 10
7.013600
 20
3.727680
  0
VERTEX
  8
0
  6
CONTINUOUS
 10
7.062000
 20
3.719320
  0
VERTEX
  8
0
  6
CONTINUOUS
 10
7.115240
 20
3.714040
  0
VERTEX
  8
0
  6
CONTINUOUS
 10
7.173320
 20
3.710960
  0
VERTEX
  8
0
  6
CONTINUOUS
 10
7.173320
 20
3.599200
  0
VERTEX
  8
0
  6
CONTINUOUS
 10
7.173760
 20
3.601400
  0
VERTEX
  8
0
  6
CONTINUOUS
 10
7.186960
 20
3.601400
  0
VERTEX
  8
0
  6
CONTINUOUS
 10
7.236680
 20
3.596120
  0
VERTEX
  8
0
  6
CONTINUOUS
 10
7.283320
 20
3.581600
  0
VERTEX
  8
0
  6
CONTINUOUS
 10
7.325560
 20
3.559160
  0
VERTEX
  8
0
  6
CONTINUOUS
 10
7.362080
 20
3.528800
  0
VERTEX
  8
0
  6
CONTINUOUS
 10
7.392440
 20
3.491840
  0
VERTEX
  8
0
  6
CONTINUOUS
 10
7.415320
 20
3.450040
  0
VERTEX
  8
0
  6
CONTINUOUS
 10
7.429840
 20
3.403400
  0
VERTEX
  8
0
  6
CONTINUOUS
 10
7.434680
 20
3.353680
  0
VERTEX
  8
0
  6
CONTINUOUS
 10
7.429840
 20
3.303520
  0
VERTEX
  8
0
  6
CONTINUOUS
 10
7.415320
 20
3.256880
  0
VERTEX
  8
0
  6
CONTINUOUS
 10
7.392440
 20
3.215080
  0
VERTEX
  8
0
  6
CONTINUOUS
 10
7.362080
 20
3.178120
  0
VERTEX
  8
0
  6
CONTINUOUS
 10
7.325560
 20
3.148200
  0
VERTEX
  8
0
  6
CONTINUOUS
 10
7.283320
 20
3.125320
  0
VERTEX
  8
0
  6
CONTINUOUS
 10
7.236680
 20
3.110800
  0
VERTEX
  8
0
  6
CONTINUOUS
 10
7.186960
 20
3.105520
  0
VERTEX
  8
0
  6
CONTINUOUS
 10
6.369440
 20
3.105520
  0
VERTEX
  8
0
  6
CONTINUOUS
 10
6.367240
 20
3.104200
  0
SEQEND
  8
0
  0
TEXT
  8
0
 10
3.637040
 20
4.939440
 40
0.138179
  1
BA  787
 41
1.000000
  7
SN0
 71
     0
 72
     5
 11
4.225896
 21
4.939440
  0
TEXT
  8
0
 10
3.481280
 20
4.747600
 40
0.138179
  1
1/2" x 4-7/8"
 41
1.000000
  7
SN0
 71
     0
 72
     5
 11
4.380361
 21
4.747600
  0
TEXT
  8
0
 10
5.266800
 20
3.311000
 40
0.138179
  1
BA  786
 41
1.000000
  7
SN0
 71
     0
 72
     5
 11
5.855656
 21
3.311000
  0
TEXT
  8
0
 10
4.991360
 20
3.119160
 40
0.138179
  1
1-1/16" x 2-1/4"
 41
1.000000
  7
SN0
 71
     0
 72
     5
 11
6.129866
 21
3.119160
  0
ENDSEC
  0
EOF
