  0
SECTION
  2
HEADER
  9
$ACADVER
  1
AC1006
  9
$EXTMIN
 10
0.550880
 20
0.863720
  9
$EXTMAX
 10
8.163760
 20
6.526960
  9
$LTSCALE
 40
0.044000
  9
$PDMODE
 70
    35
  9
$PDSIZE
 40
0.035200
  0
ENDSEC
  0
SECTION
  2
TABLES
  0
TABLE
  2
LTYPE
 70
     9
  0
LTYPE
  2
CONTINUOUS
 70
    64
  3
Solid line
 72
    65
 73
     0
 40
0.000000
  0
LTYPE
  2
DASHED
 70
    64
  3
__ __ __ __ __ __ __ __ __ __ __ __ __ __ __
 72
    65
 73
     2
 40
0.000330
 49
0.000220
 49
-0.000110
  0
LTYPE
  2
HIDDEN
 70
    64
  3
 _ _ _ _ _ _ _ _ _ _ _ _ _ _ _ _ _ _ _ _ _ _
 72
    65
 73
     2
 40
0.000165
 49
0.000110
 49
-0.000055
  0
LTYPE
  2
CENTER
 70
    64
  3
____ _ ____ _ ____ _ ____ _ ____ _ ____ _ ____
 72
    65
 73
     4
 40
0.000880
 49
0.000550
 49
-0.000110
 49
0.000110
 49
-0.000110
  0
LTYPE
  2
PHANTOM
 70
    64
  3
_____ _ _ _____ _ _ _____ _ _ _____ _ _ ____
 72
    65
 73
     6
 40
0.001100
 49
0.000550
 49
-0.000110
 49
0.000110
 49
-0.000110
 49
0.000110
 49
-0.000110
  0
LTYPE
  2
DOT
 70
    64
  3
...............................................
 72
    65
 73
     2
 40
0.000110
 49
0.000000
 49
-0.000110
  0
LTYPE
  2
DASHDOT
 70
    64
  3
__ . __ . __ . __ . __ . __ . __ . __ . __ . __
 72
    65
 73
     4
 40
0.000440
 49
0.000220
 49
-0.000110
 49
0.000000
 49
-0.000110
  0
LTYPE
  2
BORDER
 70
    64
  3
__ __ . __ __ . __ __ . __ __ . __ __ . __ __
 72
    65
 73
     6
 40
0.000770
 49
0.000220
 49
-0.000110
 49
0.000220
 49
-0.000110
 49
0.000000
 49
-0.000110
  0
LTYPE
  2
DIVIDE
 70
    64
  3
__ . . __ . . __ . . __ . . __ . . __ . . __
 72
    65
 73
     6
 40
0.000550
 49
0.000220
 49
-0.000110
 49
0.000000
 49
-0.000110
 49
0.000000
 49
-0.000110
  0
LTYPE
  2
DOTDOT
 70
    64
  3
 . .  . .  . .  . .  . .  . . 
 72
    65
 73
     5
 40
0.000242
 49
-0.000110
 49
0.000000
 49
-0.000110
 49
0.000000
 49
-0.000110
  0
ENDTAB
  0
TABLE
  2
STYLE
 70
     2
  0
STYLE
 70
     0
  2
SN0
 40
0.000000
 41
0.000440
 50
0.000000
 71
     0
 42
0.000000
  3
ROMAND
  0
STYLE
 70
    68
  2
SV0
 40
0.000000
 41
0.000440
 50
0.000000
 71
     0
 42
0.000000
  3
ROMAND
  0
ENDTAB
  0
TABLE
  2
LAYER
 70
     3
  0
LAYER
  2
FOREGROUND
 70
    64
 62
     7
  6
CONTINUOUS
  0
LAYER
  2
BACKGROUND
 70
    65
 62
    -7
  6
CONTINUOUS
  0
LAYER
  2
0
 70
    64
 62
     7
  6
CONTINUOUS
  0
ENDTAB
  0
ENDSEC
  0
SECTION
  2
ENTITIES
  0
POLYLINE
  8
FOREGROUND
  6
CONTINUOUS
 66
     1
 40
0.000000
 41
0.000000
  0
VERTEX
  8
FOREGROUND
  6
CONTINUOUS
 10
0.000000
 20
7.390680
  0
VERTEX
  8
FOREGROUND
  6
CONTINUOUS
 10
8.499920
 20
7.390680
  0
VERTEX
  8
FOREGROUND
  6
CONTINUOUS
 10
8.499920
 20
-3.609320
  0
VERTEX
  8
FOREGROUND
  6
CONTINUOUS
 10
0.000000
 20
-3.609320
  0
VERTEX
  8
FOREGROUND
  6
CONTINUOUS
 10
0.000000
 20
7.390680
  0
SEQEND
  8
0
  0
POLYLINE
  8
FOREGROUND
  6
CONTINUOUS
 66
     1
 40
0.000000
 41
0.000000
  0
VERTEX
  8
FOREGROUND
  6
CONTINUOUS
 10
0.000000
 20
7.390680
  0
VERTEX
  8
FOREGROUND
  6
CONTINUOUS
 10
8.499920
 20
7.390680
  0
VERTEX
  8
FOREGROUND
  6
CONTINUOUS
 10
8.499920
 20
-3.609320
  0
VERTEX
  8
FOREGROUND
  6
CONTINUOUS
 10
0.000000
 20
-3.609320
  0
VERTEX
  8
FOREGROUND
  6
CONTINUOUS
 10
0.000000
 20
7.390680
  0
SEQEND
  8
0
  0
POLYLINE
  8
0
  6
CONTINUOUS
 66
     1
 40
0.000000
 41
0.000000
  0
VERTEX
  8
0
  6
CONTINUOUS
 10
2.025320
 20
3.880800
  0
VERTEX
  8
0
  6
CONTINUOUS
 10
2.025320
 20
6.149440
  0
VERTEX
  8
0
  6
CONTINUOUS
 10
1.945240
 20
6.134480
  0
VERTEX
  8
0
  6
CONTINUOUS
 10
1.870440
 20
6.116000
  0
VERTEX
  8
0
  6
CONTINUOUS
 10
1.800040
 20
6.094880
  0
VERTEX
  8
0
  6
CONTINUOUS
 10
1.734920
 20
6.071120
  0
VERTEX
  8
0
  6
CONTINUOUS
 10
1.674200
 20
6.045160
  0
VERTEX
  8
0
  6
CONTINUOUS
 10
1.618320
 20
6.016560
  0
VERTEX
  8
0
  6
CONTINUOUS
 10
1.566840
 20
5.986200
  0
VERTEX
  8
0
  6
CONTINUOUS
 10
1.519760
 20
5.953640
  0
VERTEX
  8
0
  6
CONTINUOUS
 10
1.477520
 20
5.920200
  0
VERTEX
  8
0
  6
CONTINUOUS
 10
1.439240
 20
5.885000
  0
VERTEX
  8
0
  6
CONTINUOUS
 10
1.390400
 20
5.830440
  0
VERTEX
  8
0
  6
CONTINUOUS
 10
1.350800
 20
5.774120
  0
VERTEX
  8
0
  6
CONTINUOUS
 10
1.320440
 20
5.716920
  0
VERTEX
  8
0
  6
CONTINUOUS
 10
1.305480
 20
5.678640
  0
VERTEX
  8
0
  6
CONTINUOUS
 10
1.294040
 20
5.640360
  0
VERTEX
  8
0
  6
CONTINUOUS
 10
1.287000
 20
5.602520
  0
VERTEX
  8
0
  6
CONTINUOUS
 10
1.283480
 20
5.565560
  0
VERTEX
  8
0
  6
CONTINUOUS
 10
1.283480
 20
5.529480
  0
VERTEX
  8
0
  6
CONTINUOUS
 10
1.287440
 20
5.494280
  0
VERTEX
  8
0
  6
CONTINUOUS
 10
1.294920
 20
5.460400
  0
VERTEX
  8
0
  6
CONTINUOUS
 10
1.305920
 20
5.428280
  0
VERTEX
  8
0
  6
CONTINUOUS
 10
1.329240
 20
5.383400
  0
VERTEX
  8
0
  6
CONTINUOUS
 10
1.349040
 20
5.356120
  0
VERTEX
  8
0
  6
CONTINUOUS
 10
1.371920
 20
5.331040
  0
VERTEX
  8
0
  6
CONTINUOUS
 10
1.397880
 20
5.308600
  0
VERTEX
  8
0
  6
CONTINUOUS
 10
1.427360
 20
5.288800
  0
VERTEX
  8
0
  6
CONTINUOUS
 10
1.459920
 20
5.272080
  0
VERTEX
  8
0
  6
CONTINUOUS
 10
1.495120
 20
5.258880
  0
VERTEX
  8
0
  6
CONTINUOUS
 10
1.533840
 20
5.248760
  0
VERTEX
  8
0
  6
CONTINUOUS
 10
1.575200
 20
5.242600
  0
VERTEX
  8
0
  6
CONTINUOUS
 10
1.532080
 20
5.227200
  0
VERTEX
  8
0
  6
CONTINUOUS
 10
1.492040
 20
5.205640
  0
VERTEX
  8
0
  6
CONTINUOUS
 10
1.456840
 20
5.179680
  0
VERTEX
  8
0
  6
CONTINUOUS
 10
1.427360
 20
5.151080
  0
VERTEX
  8
0
  6
CONTINUOUS
 10
1.404920
 20
5.121160
  0
VERTEX
  8
0
  6
CONTINUOUS
 10
1.397000
 20
5.106200
  0
VERTEX
  8
0
  6
CONTINUOUS
 10
1.389080
 20
5.084200
  0
VERTEX
  8
0
  6
CONTINUOUS
 10
1.386880
 20
5.063520
  0
VERTEX
  8
0
  6
CONTINUOUS
 10
1.391280
 20
5.044600
  0
VERTEX
  8
0
  6
CONTINUOUS
 10
1.393920
 20
5.038880
  0
VERTEX
  8
0
  6
CONTINUOUS
 10
1.415480
 20
5.036240
  0
VERTEX
  8
0
  6
CONTINUOUS
 10
1.447600
 20
5.026560
  0
VERTEX
  8
0
  6
CONTINUOUS
 10
1.479280
 20
5.011600
  0
VERTEX
  8
0
  6
CONTINUOUS
 10
1.499520
 20
4.998840
  0
VERTEX
  8
0
  6
CONTINUOUS
 10
1.518880
 20
4.983880
  0
VERTEX
  8
0
  6
CONTINUOUS
 10
1.537360
 20
4.967160
  0
VERTEX
  8
0
  6
CONTINUOUS
 10
1.554960
 20
4.948680
  0
VERTEX
  8
0
  6
CONTINUOUS
 10
1.571240
 20
4.928880
  0
VERTEX
  8
0
  6
CONTINUOUS
 10
1.586200
 20
4.907760
  0
VERTEX
  8
0
  6
CONTINUOUS
 10
1.599400
 20
4.885320
  0
VERTEX
  8
0
  6
CONTINUOUS
 10
1.610840
 20
4.862000
  0
VERTEX
  8
0
  6
CONTINUOUS
 10
1.620520
 20
4.837800
  0
VERTEX
  8
0
  6
CONTINUOUS
 10
1.628440
 20
4.813160
  0
VERTEX
  8
0
  6
CONTINUOUS
 10
1.633720
 20
4.788520
  0
VERTEX
  8
0
  6
CONTINUOUS
 10
1.636800
 20
4.750680
  0
VERTEX
  8
0
  6
CONTINUOUS
 10
1.635920
 20
4.725600
  0
VERTEX
  8
0
  6
CONTINUOUS
 10
1.631960
 20
4.700960
  0
VERTEX
  8
0
  6
CONTINUOUS
 10
1.625360
 20
4.676320
  0
VERTEX
  8
0
  6
CONTINUOUS
 10
1.609080
 20
4.641120
  0
VERTEX
  8
0
  6
CONTINUOUS
 10
1.594120
 20
4.618680
  0
VERTEX
  8
0
  6
CONTINUOUS
 10
1.564640
 20
4.587440
  0
VERTEX
  8
0
  6
CONTINUOUS
 10
1.540440
 20
4.568080
  0
VERTEX
  8
0
  6
CONTINUOUS
 10
1.512280
 20
4.550480
  0
VERTEX
  8
0
  6
CONTINUOUS
 10
1.479720
 20
4.534640
  0
VERTEX
  8
0
  6
CONTINUOUS
 10
1.443200
 20
4.521000
  0
VERTEX
  8
0
  6
CONTINUOUS
 10
1.401840
 20
4.509120
  0
VERTEX
  8
0
  6
CONTINUOUS
 10
1.331000
 20
4.495920
  0
VERTEX
  8
0
  6
CONTINUOUS
 10
1.277760
 20
4.490200
  0
VERTEX
  8
0
  6
CONTINUOUS
 10
1.219680
 20
4.487560
  0
VERTEX
  8
0
  6
CONTINUOUS
 10
1.219680
 20
4.375360
  0
VERTEX
  8
0
  6
CONTINUOUS
 10
1.219240
 20
4.377560
  0
VERTEX
  8
0
  6
CONTINUOUS
 10
1.180520
 20
4.376240
  0
VERTEX
  8
0
  6
CONTINUOUS
 10
1.156320
 20
4.372720
  0
VERTEX
  8
0
  6
CONTINUOUS
 10
1.132560
 20
4.366560
  0
VERTEX
  8
0
  6
CONTINUOUS
 10
1.109680
 20
4.358200
  0
VERTEX
  8
0
  6
CONTINUOUS
 10
1.088120
 20
4.347640
  0
VERTEX
  8
0
  6
CONTINUOUS
 10
1.067440
 20
4.335320
  0
VERTEX
  8
0
  6
CONTINUOUS
 10
1.030920
 20
4.304960
  0
VERTEX
  8
0
  6
CONTINUOUS
 10
1.000560
 20
4.268440
  0
VERTEX
  8
0
  6
CONTINUOUS
 10
0.988240
 20
4.247760
  0
VERTEX
  8
0
  6
CONTINUOUS
 10
0.977680
 20
4.226200
  0
VERTEX
  8
0
  6
CONTINUOUS
 10
0.966240
 20
4.191880
  0
VERTEX
  8
0
  6
CONTINUOUS
 10
0.960960
 20
4.167680
  0
VERTEX
  8
0
  6
CONTINUOUS
 10
0.958320
 20
4.129840
  0
VERTEX
  8
0
  6
CONTINUOUS
 10
0.960960
 20
4.092000
  0
VERTEX
  8
0
  6
CONTINUOUS
 10
0.969320
 20
4.056360
  0
VERTEX
  8
0
  6
CONTINUOUS
 10
0.977680
 20
4.033480
  0
VERTEX
  8
0
  6
CONTINUOUS
 10
0.988240
 20
4.011920
  0
VERTEX
  8
0
  6
CONTINUOUS
 10
1.000560
 20
3.991240
  0
VERTEX
  8
0
  6
CONTINUOUS
 10
1.030920
 20
3.954720
  0
VERTEX
  8
0
  6
CONTINUOUS
 10
1.067440
 20
3.924360
  0
VERTEX
  8
0
  6
CONTINUOUS
 10
1.088120
 20
3.912040
  0
VERTEX
  8
0
  6
CONTINUOUS
 10
1.109680
 20
3.901480
  0
VERTEX
  8
0
  6
CONTINUOUS
 10
1.144000
 20
3.890040
  0
VERTEX
  8
0
  6
CONTINUOUS
 10
1.168200
 20
3.884760
  0
VERTEX
  8
0
  6
CONTINUOUS
 10
1.206040
 20
3.882120
  0
VERTEX
  8
0
  6
CONTINUOUS
 10
2.023560
 20
3.882120
  0
VERTEX
  8
0
  6
CONTINUOUS
 10
2.025320
 20
3.880800
  0
SEQEND
  8
0
  0
POLYLINE
  8
0
  6
CONTINUOUS
 66
     1
 40
0.000000
 41
0.000000
  0
VERTEX
  8
0
  6
CONTINUOUS
 10
2.022680
 20
6.003360
  0
VERTEX
  8
0
  6
CONTINUOUS
 10
6.881600
 20
6.003800
  0
VERTEX
  8
0
  6
CONTINUOUS
 10
6.881600
 20
6.141520
  0
VERTEX
  8
0
  6
CONTINUOUS
 10
6.878080
 20
6.169240
  0
VERTEX
  8
0
  6
CONTINUOUS
 10
6.867960
 20
6.198720
  0
VERTEX
  8
0
  6
CONTINUOUS
 10
6.855200
 20
6.218960
  0
VERTEX
  8
0
  6
CONTINUOUS
 10
6.842880
 20
6.230840
  0
VERTEX
  8
0
  6
CONTINUOUS
 10
6.828360
 20
6.240520
  0
VERTEX
  8
0
  6
CONTINUOUS
 10
6.809880
 20
6.247120
  0
VERTEX
  8
0
  6
CONTINUOUS
 10
6.788320
 20
6.250640
  0
VERTEX
  8
0
  6
CONTINUOUS
 10
6.762360
 20
6.250200
  0
VERTEX
  8
0
  6
CONTINUOUS
 10
6.732440
 20
6.244920
  0
VERTEX
  8
0
  6
CONTINUOUS
 10
6.698120
 20
6.234800
  0
VERTEX
  8
0
  6
CONTINUOUS
 10
6.590760
 20
6.188600
  0
VERTEX
  8
0
  6
CONTINUOUS
 10
6.541480
 20
6.174080
  0
VERTEX
  8
0
  6
CONTINUOUS
 10
6.489120
 20
6.163960
  0
VERTEX
  8
0
  6
CONTINUOUS
 10
6.434120
 20
6.158240
  0
VERTEX
  8
0
  6
CONTINUOUS
 10
6.376920
 20
6.156480
  0
VERTEX
  8
0
  6
CONTINUOUS
 10
6.317520
 20
6.158240
  0
VERTEX
  8
0
  6
CONTINUOUS
 10
6.256360
 20
6.163080
  0
VERTEX
  8
0
  6
CONTINUOUS
 10
6.161320
 20
6.175400
  0
VERTEX
  8
0
  6
CONTINUOUS
 10
6.063200
 20
6.193440
  0
VERTEX
  8
0
  6
CONTINUOUS
 10
5.930320
 20
6.223360
  0
VERTEX
  8
0
  6
CONTINUOUS
 10
5.727920
 20
6.275720
  0
VERTEX
  8
0
  6
CONTINUOUS
 10
5.374160
 20
6.370320
  0
VERTEX
  8
0
  6
CONTINUOUS
 10
5.140520
 20
6.427520
  0
VERTEX
  8
0
  6
CONTINUOUS
 10
4.981240
 20
6.462280
  0
VERTEX
  8
0
  6
CONTINUOUS
 10
4.901600
 20
6.477680
  0
VERTEX
  8
0
  6
CONTINUOUS
 10
4.822400
 20
6.491320
  0
VERTEX
  8
0
  6
CONTINUOUS
 10
4.744080
 20
6.503200
  0
VERTEX
  8
0
  6
CONTINUOUS
 10
4.628360
 20
6.516840
  0
VERTEX
  8
0
  6
CONTINUOUS
 10
4.553560
 20
6.522560
  0
VERTEX
  8
0
  6
CONTINUOUS
 10
4.480520
 20
6.525640
  0
VERTEX
  8
0
  6
CONTINUOUS
 10
4.444880
 20
6.526080
  0
VERTEX
  8
0
  6
CONTINUOUS
 10
4.464680
 20
6.526080
  0
VERTEX
  8
0
  6
CONTINUOUS
 10
4.392520
 20
6.524760
  0
VERTEX
  8
0
  6
CONTINUOUS
 10
4.280760
 20
6.516840
  0
VERTEX
  8
0
  6
CONTINUOUS
 10
4.165040
 20
6.503640
  0
VERTEX
  8
0
  6
CONTINUOUS
 10
4.085840
 20
6.492200
  0
VERTEX
  8
0
  6
CONTINUOUS
 10
3.926120
 20
6.463600
  0
VERTEX
  8
0
  6
CONTINUOUS
 10
3.766400
 20
6.429720
  0
VERTEX
  8
0
  6
CONTINUOUS
 10
3.531440
 20
6.372960
  0
VERTEX
  8
0
  6
CONTINUOUS
 10
3.042600
 20
6.243160
  0
VERTEX
  8
0
  6
CONTINUOUS
 10
2.907960
 20
6.210600
  0
VERTEX
  8
0
  6
CONTINUOUS
 10
2.841960
 20
6.196520
  0
VERTEX
  8
0
  6
CONTINUOUS
 10
2.712160
 20
6.173640
  0
VERTEX
  8
0
  6
CONTINUOUS
 10
2.618000
 20
6.163080
  0
VERTEX
  8
0
  6
CONTINUOUS
 10
2.557720
 20
6.160000
  0
VERTEX
  8
0
  6
CONTINUOUS
 10
2.499200
 20
6.160000
  0
VERTEX
  8
0
  6
CONTINUOUS
 10
2.443320
 20
6.163520
  0
VERTEX
  8
0
  6
CONTINUOUS
 10
2.389640
 20
6.171440
  0
VERTEX
  8
0
  6
CONTINUOUS
 10
2.338600
 20
6.183760
  0
VERTEX
  8
0
  6
CONTINUOUS
 10
2.291080
 20
6.200920
  0
VERTEX
  8
0
  6
CONTINUOUS
 10
2.226400
 20
6.230400
  0
VERTEX
  8
0
  6
CONTINUOUS
 10
2.189440
 20
6.243600
  0
VERTEX
  8
0
  6
CONTINUOUS
 10
2.157320
 20
6.251080
  0
VERTEX
  8
0
  6
CONTINUOUS
 10
2.142800
 20
6.253280
  0
VERTEX
  8
0
  6
CONTINUOUS
 10
2.116840
 20
6.253720
  0
VERTEX
  8
0
  6
CONTINUOUS
 10
2.095280
 20
6.250200
  0
VERTEX
  8
0
  6
CONTINUOUS
 10
2.076800
 20
6.243600
  0
VERTEX
  8
0
  6
CONTINUOUS
 10
2.055680
 20
6.228200
  0
VERTEX
  8
0
  6
CONTINUOUS
 10
2.040720
 20
6.208840
  0
VERTEX
  8
0
  6
CONTINUOUS
 10
2.031040
 20
6.187280
  0
VERTEX
  8
0
  6
CONTINUOUS
 10
2.024440
 20
6.158240
  0
VERTEX
  8
0
  6
CONTINUOUS
 10
2.022680
 20
6.133160
  0
VERTEX
  8
0
  6
CONTINUOUS
 10
2.022680
 20
6.003360
  0
SEQEND
  8
0
  0
POLYLINE
  8
0
  6
CONTINUOUS
 66
     1
 40
0.000000
 41
0.000000
  0
VERTEX
  8
0
  6
CONTINUOUS
 10
6.881600
 20
3.884320
  0
VERTEX
  8
0
  6
CONTINUOUS
 10
6.881600
 20
6.153400
  0
VERTEX
  8
0
  6
CONTINUOUS
 10
6.961680
 20
6.138440
  0
VERTEX
  8
0
  6
CONTINUOUS
 10
7.036480
 20
6.119960
  0
VERTEX
  8
0
  6
CONTINUOUS
 10
7.106880
 20
6.098840
  0
VERTEX
  8
0
  6
CONTINUOUS
 10
7.172000
 20
6.075080
  0
VERTEX
  8
0
  6
CONTINUOUS
 10
7.232720
 20
6.049120
  0
VERTEX
  8
0
  6
CONTINUOUS
 10
7.288600
 20
6.020520
  0
VERTEX
  8
0
  6
CONTINUOUS
 10
7.340080
 20
5.990160
  0
VERTEX
  8
0
  6
CONTINUOUS
 10
7.387160
 20
5.957600
  0
VERTEX
  8
0
  6
CONTINUOUS
 10
7.449200
 20
5.906560
  0
VERTEX
  8
0
  6
CONTINUOUS
 10
7.501560
 20
5.852440
  0
VERTEX
  8
0
  6
CONTINUOUS
 10
7.531040
 20
5.815480
  0
VERTEX
  8
0
  6
CONTINUOUS
 10
7.556120
 20
5.777640
  0
VERTEX
  8
0
  6
CONTINUOUS
 10
7.577240
 20
5.739800
  0
VERTEX
  8
0
  6
CONTINUOUS
 10
7.594400
 20
5.701520
  0
VERTEX
  8
0
  6
CONTINUOUS
 10
7.607600
 20
5.663240
  0
VERTEX
  8
0
  6
CONTINUOUS
 10
7.616840
 20
5.625400
  0
VERTEX
  8
0
  6
CONTINUOUS
 10
7.622560
 20
5.587560
  0
VERTEX
  8
0
  6
CONTINUOUS
 10
7.623880
 20
5.551040
  0
VERTEX
  8
0
  6
CONTINUOUS
 10
7.622120
 20
5.515400
  0
VERTEX
  8
0
  6
CONTINUOUS
 10
7.616400
 20
5.481080
  0
VERTEX
  8
0
  6
CONTINUOUS
 10
7.607160
 20
5.447640
  0
VERTEX
  8
0
  6
CONTINUOUS
 10
7.586480
 20
5.401440
  0
VERTEX
  8
0
  6
CONTINUOUS
 10
7.568440
 20
5.372840
  0
VERTEX
  8
0
  6
CONTINUOUS
 10
7.547320
 20
5.346440
  0
VERTEX
  8
0
  6
CONTINUOUS
 10
7.522680
 20
5.322680
  0
VERTEX
  8
0
  6
CONTINUOUS
 10
7.494960
 20
5.301560
  0
VERTEX
  8
0
  6
CONTINUOUS
 10
7.463720
 20
5.283520
  0
VERTEX
  8
0
  6
CONTINUOUS
 10
7.429840
 20
5.268560
  0
VERTEX
  8
0
  6
CONTINUOUS
 10
7.392880
 20
5.256680
  0
VERTEX
  8
0
  6
CONTINUOUS
 10
7.352840
 20
5.248760
  0
VERTEX
  8
0
  6
CONTINUOUS
 10
7.331720
 20
5.246120
  0
VERTEX
  8
0
  6
CONTINUOUS
 10
7.374840
 20
5.230720
  0
VERTEX
  8
0
  6
CONTINUOUS
 10
7.395520
 20
5.220600
  0
VERTEX
  8
0
  6
CONTINUOUS
 10
7.432920
 20
5.196840
  0
VERTEX
  8
0
  6
CONTINUOUS
 10
7.465480
 20
5.169120
  0
VERTEX
  8
0
  6
CONTINUOUS
 10
7.491880
 20
5.139640
  0
VERTEX
  8
0
  6
CONTINUOUS
 10
7.502000
 20
5.124680
  0
VERTEX
  8
0
  6
CONTINUOUS
 10
7.509920
 20
5.109720
  0
VERTEX
  8
0
  6
CONTINUOUS
 10
7.517840
 20
5.087720
  0
VERTEX
  8
0
  6
CONTINUOUS
 10
7.520040
 20
5.067040
  0
VERTEX
  8
0
  6
CONTINUOUS
 10
7.515640
 20
5.048120
  0
VERTEX
  8
0
  6
CONTINUOUS
 10
7.513000
 20
5.042400
  0
VERTEX
  8
0
  6
CONTINUOUS
 10
7.491440
 20
5.039760
  0
VERTEX
  8
0
  6
CONTINUOUS
 10
7.459320
 20
5.030080
  0
VERTEX
  8
0
  6
CONTINUOUS
 10
7.427640
 20
5.015120
  0
VERTEX
  8
0
  6
CONTINUOUS
 10
7.407400
 20
5.002360
  0
VERTEX
  8
0
  6
CONTINUOUS
 10
7.388040
 20
4.987400
  0
VERTEX
  8
0
  6
CONTINUOUS
 10
7.369560
 20
4.970680
  0
VERTEX
  8
0
  6
CONTINUOUS
 10
7.335680
 20
4.932400
  0
VERTEX
  8
0
  6
CONTINUOUS
 10
7.320720
 20
4.911280
  0
VERTEX
  8
0
  6
CONTINUOUS
 10
7.307520
 20
4.888840
  0
VERTEX
  8
0
  6
CONTINUOUS
 10
7.296080
 20
4.865520
  0
VERTEX
  8
0
  6
CONTINUOUS
 10
7.286400
 20
4.841320
  0
VERTEX
  8
0
  6
CONTINUOUS
 10
7.278920
 20
4.816680
  0
VERTEX
  8
0
  6
CONTINUOUS
 10
7.273640
 20
4.792040
  0
VERTEX
  8
0
  6
CONTINUOUS
 10
7.270120
 20
4.754200
  0
VERTEX
  8
0
  6
CONTINUOUS
 10
7.271000
 20
4.729120
  0
VERTEX
  8
0
  6
CONTINUOUS
 10
7.278040
 20
4.692160
  0
VERTEX
  8
0
  6
CONTINUOUS
 10
7.286400
 20
4.667960
  0
VERTEX
  8
0
  6
CONTINUOUS
 10
7.305320
 20
4.633200
  0
VERTEX
  8
0
  6
CONTINUOUS
 10
7.331720
 20
4.601080
  0
VERTEX
  8
0
  6
CONTINUOUS
 10
7.366920
 20
4.571600
  0
VERTEX
  8
0
  6
CONTINUOUS
 10
7.395080
 20
4.554000
  0
VERTEX
  8
0
  6
CONTINUOUS
 10
7.427640
 20
4.538160
  0
VERTEX
  8
0
  6
CONTINUOUS
 10
7.464160
 20
4.524520
  0
VERTEX
  8
0
  6
CONTINUOUS
 10
7.505520
 20
4.512640
  0
VERTEX
  8
0
  6
CONTINUOUS
 10
7.576360
 20
4.499440
  0
VERTEX
  8
0
  6
CONTINUOUS
 10
7.629600
 20
4.493720
  0
VERTEX
  8
0
  6
CONTINUOUS
 10
7.687680
 20
4.491080
  0
VERTEX
  8
0
  6
CONTINUOUS
 10
7.687680
 20
4.378880
  0
VERTEX
  8
0
  6
CONTINUOUS
 10
7.687680
 20
4.381520
  0
VERTEX
  8
0
  6
CONTINUOUS
 10
7.726840
 20
4.380200
  0
VERTEX
  8
0
  6
CONTINUOUS
 10
7.751040
 20
4.376680
  0
VERTEX
  8
0
  6
CONTINUOUS
 10
7.774800
 20
4.370520
  0
VERTEX
  8
0
  6
CONTINUOUS
 10
7.797680
 20
4.362160
  0
VERTEX
  8
0
  6
CONTINUOUS
 10
7.819240
 20
4.351600
  0
VERTEX
  8
0
  6
CONTINUOUS
 10
7.839920
 20
4.339280
  0
VERTEX
  8
0
  6
CONTINUOUS
 10
7.858840
 20
4.324760
  0
VERTEX
  8
0
  6
CONTINUOUS
 10
7.876440
 20
4.308920
  0
VERTEX
  8
0
  6
CONTINUOUS
 10
7.892280
 20
4.291320
  0
VERTEX
  8
0
  6
CONTINUOUS
 10
7.906800
 20
4.271960
  0
VERTEX
  8
0
  6
CONTINUOUS
 10
7.919120
 20
4.251720
  0
VERTEX
  8
0
  6
CONTINUOUS
 10
7.929680
 20
4.229720
  0
VERTEX
  8
0
  6
CONTINUOUS
 10
7.938040
 20
4.207280
  0
VERTEX
  8
0
  6
CONTINUOUS
 10
7.946400
 20
4.171200
  0
VERTEX
  8
0
  6
CONTINUOUS
 10
7.949040
 20
4.133360
  0
VERTEX
  8
0
  6
CONTINUOUS
 10
7.946400
 20
4.095520
  0
VERTEX
  8
0
  6
CONTINUOUS
 10
7.938040
 20
4.059880
  0
VERTEX
  8
0
  6
CONTINUOUS
 10
7.929680
 20
4.037000
  0
VERTEX
  8
0
  6
CONTINUOUS
 10
7.919120
 20
4.015440
  0
VERTEX
  8
0
  6
CONTINUOUS
 10
7.906800
 20
3.994760
  0
VERTEX
  8
0
  6
CONTINUOUS
 10
7.892280
 20
3.975840
  0
VERTEX
  8
0
  6
CONTINUOUS
 10
7.876440
 20
3.958240
  0
VERTEX
  8
0
  6
CONTINUOUS
 10
7.858840
 20
3.942400
  0
VERTEX
  8
0
  6
CONTINUOUS
 10
7.839920
 20
3.927880
  0
VERTEX
  8
0
  6
CONTINUOUS
 10
7.819240
 20
3.915560
  0
VERTEX
  8
0
  6
CONTINUOUS
 10
7.797680
 20
3.905000
  0
VERTEX
  8
0
  6
CONTINUOUS
 10
7.763360
 20
3.893560
  0
VERTEX
  8
0
  6
CONTINUOUS
 10
7.739160
 20
3.888280
  0
VERTEX
  8
0
  6
CONTINUOUS
 10
7.701320
 20
3.885640
  0
VERTEX
  8
0
  6
CONTINUOUS
 10
6.883360
 20
3.885640
  0
VERTEX
  8
0
  6
CONTINUOUS
 10
6.881600
 20
3.884320
  0
SEQEND
  8
0
  0
SOLID
  8
0
 62
    15
 10
0.749320
 20
1.380720
 11
1.363120
 21
1.741080
 12
0.799040
 22
1.386000
 13
1.413280
 23
1.745920
  0
POLYLINE
  8
0
  6
CONTINUOUS
 66
     1
 40
0.000000
 41
0.000000
  0
VERTEX
  8
0
  6
CONTINUOUS
 10
0.749320
 20
1.380720
  0
VERTEX
  8
0
  6
CONTINUOUS
 10
1.363120
 20
1.741080
  0
VERTEX
  8
0
  6
CONTINUOUS
 10
1.413280
 20
1.745920
  0
VERTEX
  8
0
  6
CONTINUOUS
 10
0.799040
 20
1.386000
  0
VERTEX
  8
0
  6
CONTINUOUS
 10
0.749320
 20
1.380720
  0
SEQEND
  8
0
  0
SOLID
  8
0
 62
    15
 10
0.702680
 20
1.366640
 11
1.316920
 21
1.726560
 12
0.749320
 22
1.380720
 13
1.363120
 23
1.741080
  0
POLYLINE
  8
0
  6
CONTINUOUS
 66
     1
 40
0.000000
 41
0.000000
  0
VERTEX
  8
0
  6
CONTINUOUS
 10
0.702680
 20
1.366640
  0
VERTEX
  8
0
  6
CONTINUOUS
 10
1.316920
 20
1.726560
  0
VERTEX
  8
0
  6
CONTINUOUS
 10
1.363120
 20
1.741080
  0
VERTEX
  8
0
  6
CONTINUOUS
 10
0.749320
 20
1.380720
  0
VERTEX
  8
0
  6
CONTINUOUS
 10
0.702680
 20
1.366640
  0
SEQEND
  8
0
  0
SOLID
  8
0
 62
    15
 10
0.799040
 20
1.386000
 11
1.413280
 21
1.745920
 12
0.812680
 22
1.386000
 13
1.426480
 23
1.745920
  0
POLYLINE
  8
0
  6
CONTINUOUS
 66
     1
 40
0.000000
 41
0.000000
  0
VERTEX
  8
0
  6
CONTINUOUS
 10
0.799040
 20
1.386000
  0
VERTEX
  8
0
  6
CONTINUOUS
 10
1.413280
 20
1.745920
  0
VERTEX
  8
0
  6
CONTINUOUS
 10
1.426480
 20
1.745920
  0
VERTEX
  8
0
  6
CONTINUOUS
 10
0.812680
 20
1.386000
  0
VERTEX
  8
0
  6
CONTINUOUS
 10
0.799040
 20
1.386000
  0
SEQEND
  8
0
  0
SOLID
  8
0
 62
    15
 10
1.015960
 20
1.522840
 11
1.630200
 21
1.882760
 12
1.089440
 22
1.550560
 13
1.703680
 23
1.910480
  0
POLYLINE
  8
0
  6
CONTINUOUS
 66
     1
 40
0.000000
 41
0.000000
  0
VERTEX
  8
0
  6
CONTINUOUS
 10
1.015960
 20
1.522840
  0
VERTEX
  8
0
  6
CONTINUOUS
 10
1.630200
 20
1.882760
  0
VERTEX
  8
0
  6
CONTINUOUS
 10
1.703680
 20
1.910480
  0
VERTEX
  8
0
  6
CONTINUOUS
 10
1.089440
 20
1.550560
  0
VERTEX
  8
0
  6
CONTINUOUS
 10
1.015960
 20
1.522840
  0
SEQEND
  8
0
  0
SOLID
  8
0
 62
    15
 10
0.812680
 20
1.386000
 11
1.426480
 21
1.745920
 12
0.812680
 22
1.383800
 13
1.426920
 23
1.743720
  0
POLYLINE
  8
0
  6
CONTINUOUS
 66
     1
 40
0.000000
 41
0.000000
  0
VERTEX
  8
0
  6
CONTINUOUS
 10
0.812680
 20
1.386000
  0
VERTEX
  8
0
  6
CONTINUOUS
 10
1.426480
 20
1.745920
  0
VERTEX
  8
0
  6
CONTINUOUS
 10
1.426920
 20
1.743720
  0
VERTEX
  8
0
  6
CONTINUOUS
 10
0.812680
 20
1.383800
  0
VERTEX
  8
0
  6
CONTINUOUS
 10
0.812680
 20
1.386000
  0
SEQEND
  8
0
  0
SOLID
  8
0
 62
    15
 10
0.812680
 20
1.496000
 11
1.426920
 21
1.855920
 12
0.870760
 22
1.498640
 13
1.485000
 23
1.858560
  0
POLYLINE
  8
0
  6
CONTINUOUS
 66
     1
 40
0.000000
 41
0.000000
  0
VERTEX
  8
0
  6
CONTINUOUS
 10
0.812680
 20
1.496000
  0
VERTEX
  8
0
  6
CONTINUOUS
 10
1.426920
 20
1.855920
  0
VERTEX
  8
0
  6
CONTINUOUS
 10
1.485000
 20
1.858560
  0
VERTEX
  8
0
  6
CONTINUOUS
 10
0.870760
 20
1.498640
  0
VERTEX
  8
0
  6
CONTINUOUS
 10
0.812680
 20
1.496000
  0
SEQEND
  8
0
  0
SOLID
  8
0
 62
    15
 10
0.870760
 20
1.498640
 11
1.485000
 21
1.858560
 12
0.924000
 22
1.504360
 13
1.538240
 23
1.864280
  0
POLYLINE
  8
0
  6
CONTINUOUS
 66
     1
 40
0.000000
 41
0.000000
  0
VERTEX
  8
0
  6
CONTINUOUS
 10
0.870760
 20
1.498640
  0
VERTEX
  8
0
  6
CONTINUOUS
 10
1.485000
 20
1.858560
  0
VERTEX
  8
0
  6
CONTINUOUS
 10
1.538240
 20
1.864280
  0
VERTEX
  8
0
  6
CONTINUOUS
 10
0.924000
 20
1.504360
  0
VERTEX
  8
0
  6
CONTINUOUS
 10
0.870760
 20
1.498640
  0
SEQEND
  8
0
  0
SOLID
  8
0
 62
    15
 10
0.660440
 20
1.343760
 11
1.274680
 21
1.703680
 12
0.702680
 22
1.366640
 13
1.316920
 23
1.726560
  0
POLYLINE
  8
0
  6
CONTINUOUS
 66
     1
 40
0.000000
 41
0.000000
  0
VERTEX
  8
0
  6
CONTINUOUS
 10
0.660440
 20
1.343760
  0
VERTEX
  8
0
  6
CONTINUOUS
 10
1.274680
 20
1.703680
  0
VERTEX
  8
0
  6
CONTINUOUS
 10
1.316920
 20
1.726560
  0
VERTEX
  8
0
  6
CONTINUOUS
 10
0.702680
 20
1.366640
  0
VERTEX
  8
0
  6
CONTINUOUS
 10
0.660440
 20
1.343760
  0
SEQEND
  8
0
  0
SOLID
  8
0
 62
    15
 10
0.972400
 20
1.512280
 11
1.586640
 21
1.872200
 12
1.015960
 22
1.522840
 13
1.630200
 23
1.882760
  0
POLYLINE
  8
0
  6
CONTINUOUS
 66
     1
 40
0.000000
 41
0.000000
  0
VERTEX
  8
0
  6
CONTINUOUS
 10
0.972400
 20
1.512280
  0
VERTEX
  8
0
  6
CONTINUOUS
 10
1.586640
 20
1.872200
  0
VERTEX
  8
0
  6
CONTINUOUS
 10
1.630200
 20
1.882760
  0
VERTEX
  8
0
  6
CONTINUOUS
 10
1.015960
 20
1.522840
  0
VERTEX
  8
0
  6
CONTINUOUS
 10
0.972400
 20
1.512280
  0
SEQEND
  8
0
  0
SOLID
  8
0
 62
    15
 10
0.924000
 20
1.504360
 11
1.538240
 21
1.864280
 12
0.972400
 22
1.512280
 13
1.586640
 23
1.872200
  0
POLYLINE
  8
0
  6
CONTINUOUS
 66
     1
 40
0.000000
 41
0.000000
  0
VERTEX
  8
0
  6
CONTINUOUS
 10
0.924000
 20
1.504360
  0
VERTEX
  8
0
  6
CONTINUOUS
 10
1.538240
 20
1.864280
  0
VERTEX
  8
0
  6
CONTINUOUS
 10
1.586640
 20
1.872200
  0
VERTEX
  8
0
  6
CONTINUOUS
 10
0.972400
 20
1.512280
  0
VERTEX
  8
0
  6
CONTINUOUS
 10
0.924000
 20
1.504360
  0
SEQEND
  8
0
  0
SOLID
  8
0
 62
    15
 10
1.085480
 20
2.214080
 11
1.699280
 21
2.574000
 12
1.125520
 22
2.235200
 13
1.739320
 23
2.595120
  0
POLYLINE
  8
0
  6
CONTINUOUS
 66
     1
 40
0.000000
 41
0.000000
  0
VERTEX
  8
0
  6
CONTINUOUS
 10
1.085480
 20
2.214080
  0
VERTEX
  8
0
  6
CONTINUOUS
 10
1.699280
 20
2.574000
  0
VERTEX
  8
0
  6
CONTINUOUS
 10
1.739320
 20
2.595120
  0
VERTEX
  8
0
  6
CONTINUOUS
 10
1.125520
 20
2.235200
  0
VERTEX
  8
0
  6
CONTINUOUS
 10
1.085480
 20
2.214080
  0
SEQEND
  8
0
  0
SOLID
  8
0
 62
    15
 10
1.125520
 20
2.235200
 11
1.739320
 21
2.595120
 12
1.168640
 22
2.250600
 13
1.782440
 23
2.610520
  0
POLYLINE
  8
0
  6
CONTINUOUS
 66
     1
 40
0.000000
 41
0.000000
  0
VERTEX
  8
0
  6
CONTINUOUS
 10
1.125520
 20
2.235200
  0
VERTEX
  8
0
  6
CONTINUOUS
 10
1.739320
 20
2.595120
  0
VERTEX
  8
0
  6
CONTINUOUS
 10
1.782440
 20
2.610520
  0
VERTEX
  8
0
  6
CONTINUOUS
 10
1.168640
 20
2.250600
  0
VERTEX
  8
0
  6
CONTINUOUS
 10
1.125520
 20
2.235200
  0
SEQEND
  8
0
  0
SOLID
  8
0
 62
    15
 10
1.211320
 20
3.025000
 11
1.825560
 21
3.384920
 12
1.267640
 22
3.053600
 13
1.881440
 23
3.413520
  0
POLYLINE
  8
0
  6
CONTINUOUS
 66
     1
 40
0.000000
 41
0.000000
  0
VERTEX
  8
0
  6
CONTINUOUS
 10
1.211320
 20
3.025000
  0
VERTEX
  8
0
  6
CONTINUOUS
 10
1.825560
 20
3.384920
  0
VERTEX
  8
0
  6
CONTINUOUS
 10
1.881440
 20
3.413520
  0
VERTEX
  8
0
  6
CONTINUOUS
 10
1.267640
 20
3.053600
  0
VERTEX
  8
0
  6
CONTINUOUS
 10
1.211320
 20
3.025000
  0
SEQEND
  8
0
  0
SOLID
  8
0
 62
    15
 10
1.267640
 20
3.053600
 11
1.881440
 21
3.413520
 12
1.328360
 22
3.079560
 13
1.942160
 23
3.439480
  0
POLYLINE
  8
0
  6
CONTINUOUS
 66
     1
 40
0.000000
 41
0.000000
  0
VERTEX
  8
0
  6
CONTINUOUS
 10
1.267640
 20
3.053600
  0
VERTEX
  8
0
  6
CONTINUOUS
 10
1.881440
 20
3.413520
  0
VERTEX
  8
0
  6
CONTINUOUS
 10
1.942160
 20
3.439480
  0
VERTEX
  8
0
  6
CONTINUOUS
 10
1.328360
 20
3.079560
  0
VERTEX
  8
0
  6
CONTINUOUS
 10
1.267640
 20
3.053600
  0
SEQEND
  8
0
  0
SOLID
  8
0
 62
    15
 10
1.328360
 20
3.079560
 11
1.942160
 21
3.439480
 12
1.393480
 22
3.103760
 13
2.007720
 23
3.463680
  0
POLYLINE
  8
0
  6
CONTINUOUS
 66
     1
 40
0.000000
 41
0.000000
  0
VERTEX
  8
0
  6
CONTINUOUS
 10
1.328360
 20
3.079560
  0
VERTEX
  8
0
  6
CONTINUOUS
 10
1.942160
 20
3.439480
  0
VERTEX
  8
0
  6
CONTINUOUS
 10
2.007720
 20
3.463680
  0
VERTEX
  8
0
  6
CONTINUOUS
 10
1.393480
 20
3.103760
  0
VERTEX
  8
0
  6
CONTINUOUS
 10
1.328360
 20
3.079560
  0
SEQEND
  8
0
  0
SOLID
  8
0
 62
    15
 10
1.393480
 20
3.103760
 11
2.007720
 21
3.463680
 12
1.463880
 22
3.124440
 13
2.077680
 23
3.484800
  0
POLYLINE
  8
0
  6
CONTINUOUS
 66
     1
 40
0.000000
 41
0.000000
  0
VERTEX
  8
0
  6
CONTINUOUS
 10
1.393480
 20
3.103760
  0
VERTEX
  8
0
  6
CONTINUOUS
 10
2.007720
 20
3.463680
  0
VERTEX
  8
0
  6
CONTINUOUS
 10
2.077680
 20
3.484800
  0
VERTEX
  8
0
  6
CONTINUOUS
 10
1.463880
 20
3.124440
  0
VERTEX
  8
0
  6
CONTINUOUS
 10
1.393480
 20
3.103760
  0
SEQEND
  8
0
  0
SOLID
  8
0
 62
    15
 10
1.463880
 20
3.124440
 11
2.077680
 21
3.484800
 12
1.538680
 22
3.142920
 13
2.152920
 23
3.502840
  0
POLYLINE
  8
0
  6
CONTINUOUS
 66
     1
 40
0.000000
 41
0.000000
  0
VERTEX
  8
0
  6
CONTINUOUS
 10
1.463880
 20
3.124440
  0
VERTEX
  8
0
  6
CONTINUOUS
 10
2.077680
 20
3.484800
  0
VERTEX
  8
0
  6
CONTINUOUS
 10
2.152920
 20
3.502840
  0
VERTEX
  8
0
  6
CONTINUOUS
 10
1.538680
 20
3.142920
  0
VERTEX
  8
0
  6
CONTINUOUS
 10
1.463880
 20
3.124440
  0
SEQEND
  8
0
  0
SOLID
  8
0
 62
    15
 10
1.538680
 20
3.142920
 11
2.152920
 21
3.502840
 12
1.618760
 22
3.157880
 13
2.232560
 23
3.517800
  0
POLYLINE
  8
0
  6
CONTINUOUS
 66
     1
 40
0.000000
 41
0.000000
  0
VERTEX
  8
0
  6
CONTINUOUS
 10
1.538680
 20
3.142920
  0
VERTEX
  8
0
  6
CONTINUOUS
 10
2.152920
 20
3.502840
  0
VERTEX
  8
0
  6
CONTINUOUS
 10
2.232560
 20
3.517800
  0
VERTEX
  8
0
  6
CONTINUOUS
 10
1.618760
 20
3.157880
  0
VERTEX
  8
0
  6
CONTINUOUS
 10
1.538680
 20
3.142920
  0
SEQEND
  8
0
  0
SOLID
  8
0
 62
    15
 10
1.618760
 20
3.157880
 11
2.232560
 21
3.517800
 12
1.618760
 22
0.888800
 13
2.232560
 23
1.248720
  0
POLYLINE
  8
0
  6
CONTINUOUS
 66
     1
 40
0.000000
 41
0.000000
  0
VERTEX
  8
0
  6
CONTINUOUS
 10
1.618760
 20
3.157880
  0
VERTEX
  8
0
  6
CONTINUOUS
 10
2.232560
 20
3.517800
  0
VERTEX
  8
0
  6
CONTINUOUS
 10
2.232560
 20
1.248720
  0
VERTEX
  8
0
  6
CONTINUOUS
 10
1.618760
 20
0.888800
  0
VERTEX
  8
0
  6
CONTINUOUS
 10
1.618760
 20
3.157880
  0
SEQEND
  8
0
  0
POLYLINE
  8
0
  6
CONTINUOUS
 66
     1
 40
0.000000
 41
0.000000
  0
VERTEX
  8
0
  6
CONTINUOUS
 10
1.616560
 20
0.890560
  0
VERTEX
  8
0
  6
CONTINUOUS
 10
0.799040
 20
0.890560
  0
VERTEX
  8
0
  6
CONTINUOUS
 10
0.749320
 20
0.895400
  0
VERTEX
  8
0
  6
CONTINUOUS
 10
0.702680
 20
0.909920
  0
VERTEX
  8
0
  6
CONTINUOUS
 10
0.660440
 20
0.932800
  0
VERTEX
  8
0
  6
CONTINUOUS
 10
0.623920
 20
0.962720
  0
VERTEX
  8
0
  6
CONTINUOUS
 10
0.593560
 20
0.999680
  0
VERTEX
  8
0
  6
CONTINUOUS
 10
0.570680
 20
1.041920
  0
VERTEX
  8
0
  6
CONTINUOUS
 10
0.556160
 20
1.088120
  0
VERTEX
  8
0
  6
CONTINUOUS
 10
0.551320
 20
1.138280
  0
VERTEX
  8
0
  6
CONTINUOUS
 10
0.556160
 20
1.188000
  0
VERTEX
  8
0
  6
CONTINUOUS
 10
0.570680
 20
1.234640
  0
VERTEX
  8
0
  6
CONTINUOUS
 10
0.593560
 20
1.276880
  0
VERTEX
  8
0
  6
CONTINUOUS
 10
0.623920
 20
1.313400
  0
VERTEX
  8
0
  6
CONTINUOUS
 10
0.660440
 20
1.343760
  0
VERTEX
  8
0
  6
CONTINUOUS
 10
0.702680
 20
1.366640
  0
VERTEX
  8
0
  6
CONTINUOUS
 10
0.749320
 20
1.380720
  0
VERTEX
  8
0
  6
CONTINUOUS
 10
0.799040
 20
1.386000
  0
VERTEX
  8
0
  6
CONTINUOUS
 10
0.812680
 20
1.386000
  0
VERTEX
  8
0
  6
CONTINUOUS
 10
0.812680
 20
1.383800
  0
VERTEX
  8
0
  6
CONTINUOUS
 10
0.812680
 20
1.496000
  0
VERTEX
  8
0
  6
CONTINUOUS
 10
0.870760
 20
1.498640
  0
VERTEX
  8
0
  6
CONTINUOUS
 10
0.924000
 20
1.504360
  0
VERTEX
  8
0
  6
CONTINUOUS
 10
0.972400
 20
1.512280
  0
VERTEX
  8
0
  6
CONTINUOUS
 10
1.015960
 20
1.522840
  0
VERTEX
  8
0
  6
CONTINUOUS
 10
1.089440
 20
1.550560
  0
VERTEX
  8
0
  6
CONTINUOUS
 10
1.146200
 20
1.585760
  0
VERTEX
  8
0
  6
CONTINUOUS
 10
1.187120
 20
1.627120
  0
VERTEX
  8
0
  6
CONTINUOUS
 10
1.213960
 20
1.672880
  0
VERTEX
  8
0
  6
CONTINUOUS
 10
1.227600
 20
1.721280
  0
VERTEX
  8
0
  6
CONTINUOUS
 10
1.229800
 20
1.771440
  0
VERTEX
  8
0
  6
CONTINUOUS
 10
1.221440
 20
1.821600
  0
VERTEX
  8
0
  6
CONTINUOUS
 10
1.204280
 20
1.870000
  0
VERTEX
  8
0
  6
CONTINUOUS
 10
1.179200
 20
1.915760
  0
VERTEX
  8
0
  6
CONTINUOUS
 10
1.148400
 20
1.957120
  0
VERTEX
  8
0
  6
CONTINUOUS
 10
1.112320
 20
1.992320
  0
VERTEX
  8
0
  6
CONTINUOUS
 10
1.072280
 20
2.020040
  0
VERTEX
  8
0
  6
CONTINUOUS
 10
1.030040
 20
2.038960
  0
VERTEX
  8
0
  6
CONTINUOUS
 10
0.986920
 20
2.046880
  0
VERTEX
  8
0
  6
CONTINUOUS
 10
0.980320
 20
2.071520
  0
VERTEX
  8
0
  6
CONTINUOUS
 10
0.984280
 20
2.099680
  0
VERTEX
  8
0
  6
CONTINUOUS
 10
0.998360
 20
2.129160
  0
VERTEX
  8
0
  6
CONTINUOUS
 10
1.020360
 20
2.159080
  0
VERTEX
  8
0
  6
CONTINUOUS
 10
1.049840
 20
2.188120
  0
VERTEX
  8
0
  6
CONTINUOUS
 10
1.085480
 20
2.214080
  0
VERTEX
  8
0
  6
CONTINUOUS
 10
1.125520
 20
2.235200
  0
VERTEX
  8
0
  6
CONTINUOUS
 10
1.168640
 20
2.250600
  0
VERTEX
  8
0
  6
CONTINUOUS
 10
1.088560
 20
2.266880
  0
VERTEX
  8
0
  6
CONTINUOUS
 10
1.020800
 20
2.296800
  0
VERTEX
  8
0
  6
CONTINUOUS
 10
0.964920
 20
2.339040
  0
VERTEX
  8
0
  6
CONTINUOUS
 10
0.922240
 20
2.391400
  0
VERTEX
  8
0
  6
CONTINUOUS
 10
0.893200
 20
2.452560
  0
VERTEX
  8
0
  6
CONTINUOUS
 10
0.878240
 20
2.519880
  0
VERTEX
  8
0
  6
CONTINUOUS
 10
0.877800
 20
2.592480
  0
VERTEX
  8
0
  6
CONTINUOUS
 10
0.892320
 20
2.667720
  0
VERTEX
  8
0
  6
CONTINUOUS
 10
0.922680
 20
2.744280
  0
VERTEX
  8
0
  6
CONTINUOUS
 10
0.969320
 20
2.819960
  0
VERTEX
  8
0
  6
CONTINUOUS
 10
1.032680
 20
2.893440
  0
VERTEX
  8
0
  6
CONTINUOUS
 10
1.113200
 20
2.962080
  0
VERTEX
  8
0
  6
CONTINUOUS
 10
1.211320
 20
3.025000
  0
VERTEX
  8
0
  6
CONTINUOUS
 10
1.267640
 20
3.053600
  0
VERTEX
  8
0
  6
CONTINUOUS
 10
1.328360
 20
3.079560
  0
VERTEX
  8
0
  6
CONTINUOUS
 10
1.393480
 20
3.103760
  0
VERTEX
  8
0
  6
CONTINUOUS
 10
1.463880
 20
3.124440
  0
VERTEX
  8
0
  6
CONTINUOUS
 10
1.538680
 20
3.142920
  0
VERTEX
  8
0
  6
CONTINUOUS
 10
1.618760
 20
3.157880
  0
VERTEX
  8
0
  6
CONTINUOUS
 10
1.618760
 20
0.888800
  0
VERTEX
  8
0
  6
CONTINUOUS
 10
1.616560
 20
0.890560
  0
SEQEND
  8
0
  0
SOLID
  8
0
 62
    15
 10
4.259640
 20
3.521320
 11
4.886640
 21
3.891800
 12
4.337080
 22
3.511640
 13
4.964080
 23
3.882120
  0
POLYLINE
  8
0
  6
CONTINUOUS
 66
     1
 40
0.000000
 41
0.000000
  0
VERTEX
  8
0
  6
CONTINUOUS
 10
4.259640
 20
3.521320
  0
VERTEX
  8
0
  6
CONTINUOUS
 10
4.886640
 20
3.891800
  0
VERTEX
  8
0
  6
CONTINUOUS
 10
4.964080
 20
3.882120
  0
VERTEX
  8
0
  6
CONTINUOUS
 10
4.337080
 20
3.511640
  0
VERTEX
  8
0
  6
CONTINUOUS
 10
4.259640
 20
3.521320
  0
SEQEND
  8
0
  0
SOLID
  8
0
 62
    15
 10
1.662320
 20
3.247640
 11
2.289320
 21
3.617680
 12
1.678600
 22
3.255560
 13
2.305600
 23
3.626040
  0
POLYLINE
  8
0
  6
CONTINUOUS
 66
     1
 40
0.000000
 41
0.000000
  0
VERTEX
  8
0
  6
CONTINUOUS
 10
1.662320
 20
3.247640
  0
VERTEX
  8
0
  6
CONTINUOUS
 10
2.289320
 20
3.617680
  0
VERTEX
  8
0
  6
CONTINUOUS
 10
2.305600
 20
3.626040
  0
VERTEX
  8
0
  6
CONTINUOUS
 10
1.678600
 20
3.255560
  0
VERTEX
  8
0
  6
CONTINUOUS
 10
1.662320
 20
3.247640
  0
SEQEND
  8
0
  0
SOLID
  8
0
 62
    15
 10
1.698840
 20
3.260840
 11
2.325400
 21
3.631320
 12
1.722600
 22
3.262160
 13
2.349160
 23
3.632640
  0
POLYLINE
  8
0
  6
CONTINUOUS
 66
     1
 40
0.000000
 41
0.000000
  0
VERTEX
  8
0
  6
CONTINUOUS
 10
1.698840
 20
3.260840
  0
VERTEX
  8
0
  6
CONTINUOUS
 10
2.325400
 20
3.631320
  0
VERTEX
  8
0
  6
CONTINUOUS
 10
2.349160
 20
3.632640
  0
VERTEX
  8
0
  6
CONTINUOUS
 10
1.722600
 20
3.262160
  0
VERTEX
  8
0
  6
CONTINUOUS
 10
1.698840
 20
3.260840
  0
SEQEND
  8
0
  0
SOLID
  8
0
 62
    15
 10
1.722600
 20
3.262160
 11
2.349160
 21
3.632640
 12
1.750320
 22
3.259520
 13
2.377320
 23
3.630000
  0
POLYLINE
  8
0
  6
CONTINUOUS
 66
     1
 40
0.000000
 41
0.000000
  0
VERTEX
  8
0
  6
CONTINUOUS
 10
1.722600
 20
3.262160
  0
VERTEX
  8
0
  6
CONTINUOUS
 10
2.349160
 20
3.632640
  0
VERTEX
  8
0
  6
CONTINUOUS
 10
2.377320
 20
3.630000
  0
VERTEX
  8
0
  6
CONTINUOUS
 10
1.750320
 20
3.259520
  0
VERTEX
  8
0
  6
CONTINUOUS
 10
1.722600
 20
3.262160
  0
SEQEND
  8
0
  0
SOLID
  8
0
 62
    15
 10
1.750320
 20
3.259520
 11
2.377320
 21
3.630000
 12
1.782440
 22
3.252040
 13
2.409440
 23
3.622520
  0
POLYLINE
  8
0
  6
CONTINUOUS
 66
     1
 40
0.000000
 41
0.000000
  0
VERTEX
  8
0
  6
CONTINUOUS
 10
1.750320
 20
3.259520
  0
VERTEX
  8
0
  6
CONTINUOUS
 10
2.377320
 20
3.630000
  0
VERTEX
  8
0
  6
CONTINUOUS
 10
2.409440
 20
3.622520
  0
VERTEX
  8
0
  6
CONTINUOUS
 10
1.782440
 20
3.252040
  0
VERTEX
  8
0
  6
CONTINUOUS
 10
1.750320
 20
3.259520
  0
SEQEND
  8
0
  0
SOLID
  8
0
 62
    15
 10
1.782440
 20
3.252040
 11
2.409440
 21
3.622520
 12
1.819400
 22
3.238840
 13
2.446400
 23
3.609320
  0
POLYLINE
  8
0
  6
CONTINUOUS
 66
     1
 40
0.000000
 41
0.000000
  0
VERTEX
  8
0
  6
CONTINUOUS
 10
1.782440
 20
3.252040
  0
VERTEX
  8
0
  6
CONTINUOUS
 10
2.409440
 20
3.622520
  0
VERTEX
  8
0
  6
CONTINUOUS
 10
2.446400
 20
3.609320
  0
VERTEX
  8
0
  6
CONTINUOUS
 10
1.819400
 20
3.238840
  0
VERTEX
  8
0
  6
CONTINUOUS
 10
1.782440
 20
3.252040
  0
SEQEND
  8
0
  0
SOLID
  8
0
 62
    15
 10
1.819400
 20
3.238840
 11
2.446400
 21
3.609320
 12
1.861200
 22
3.219920
 13
2.488200
 23
3.590400
  0
POLYLINE
  8
0
  6
CONTINUOUS
 66
     1
 40
0.000000
 41
0.000000
  0
VERTEX
  8
0
  6
CONTINUOUS
 10
1.819400
 20
3.238840
  0
VERTEX
  8
0
  6
CONTINUOUS
 10
2.446400
 20
3.609320
  0
VERTEX
  8
0
  6
CONTINUOUS
 10
2.488200
 20
3.590400
  0
VERTEX
  8
0
  6
CONTINUOUS
 10
1.861200
 20
3.219920
  0
VERTEX
  8
0
  6
CONTINUOUS
 10
1.819400
 20
3.238840
  0
SEQEND
  8
0
  0
SOLID
  8
0
 62
    15
 10
1.861200
 20
3.219920
 11
2.488200
 21
3.590400
 12
1.907400
 22
3.200120
 13
2.534400
 23
3.570600
  0
POLYLINE
  8
0
  6
CONTINUOUS
 66
     1
 40
0.000000
 41
0.000000
  0
VERTEX
  8
0
  6
CONTINUOUS
 10
1.861200
 20
3.219920
  0
VERTEX
  8
0
  6
CONTINUOUS
 10
2.488200
 20
3.590400
  0
VERTEX
  8
0
  6
CONTINUOUS
 10
2.534400
 20
3.570600
  0
VERTEX
  8
0
  6
CONTINUOUS
 10
1.907400
 20
3.200120
  0
VERTEX
  8
0
  6
CONTINUOUS
 10
1.861200
 20
3.219920
  0
SEQEND
  8
0
  0
SOLID
  8
0
 62
    15
 10
1.907400
 20
3.200120
 11
2.534400
 21
3.570600
 12
1.956680
 22
3.185600
 13
2.583680
 23
3.556080
  0
POLYLINE
  8
0
  6
CONTINUOUS
 66
     1
 40
0.000000
 41
0.000000
  0
VERTEX
  8
0
  6
CONTINUOUS
 10
1.907400
 20
3.200120
  0
VERTEX
  8
0
  6
CONTINUOUS
 10
2.534400
 20
3.570600
  0
VERTEX
  8
0
  6
CONTINUOUS
 10
2.583680
 20
3.556080
  0
VERTEX
  8
0
  6
CONTINUOUS
 10
1.956680
 20
3.185600
  0
VERTEX
  8
0
  6
CONTINUOUS
 10
1.907400
 20
3.200120
  0
SEQEND
  8
0
  0
SOLID
  8
0
 62
    15
 10
1.956680
 20
3.185600
 11
2.583680
 21
3.556080
 12
2.009040
 22
3.175480
 13
2.636040
 23
3.545960
  0
POLYLINE
  8
0
  6
CONTINUOUS
 66
     1
 40
0.000000
 41
0.000000
  0
VERTEX
  8
0
  6
CONTINUOUS
 10
1.956680
 20
3.185600
  0
VERTEX
  8
0
  6
CONTINUOUS
 10
2.583680
 20
3.556080
  0
VERTEX
  8
0
  6
CONTINUOUS
 10
2.636040
 20
3.545960
  0
VERTEX
  8
0
  6
CONTINUOUS
 10
2.009040
 20
3.175480
  0
VERTEX
  8
0
  6
CONTINUOUS
 10
1.956680
 20
3.185600
  0
SEQEND
  8
0
  0
SOLID
  8
0
 62
    15
 10
2.009040
 20
3.175480
 11
2.636040
 21
3.545960
 12
2.064040
 22
3.169760
 13
2.691040
 23
3.540240
  0
POLYLINE
  8
0
  6
CONTINUOUS
 66
     1
 40
0.000000
 41
0.000000
  0
VERTEX
  8
0
  6
CONTINUOUS
 10
2.009040
 20
3.175480
  0
VERTEX
  8
0
  6
CONTINUOUS
 10
2.636040
 20
3.545960
  0
VERTEX
  8
0
  6
CONTINUOUS
 10
2.691040
 20
3.540240
  0
VERTEX
  8
0
  6
CONTINUOUS
 10
2.064040
 20
3.169760
  0
VERTEX
  8
0
  6
CONTINUOUS
 10
2.009040
 20
3.175480
  0
SEQEND
  8
0
  0
SOLID
  8
0
 62
    15
 10
2.064040
 20
3.169760
 11
2.691040
 21
3.540240
 12
2.121240
 22
3.168000
 13
2.748240
 23
3.538040
  0
POLYLINE
  8
0
  6
CONTINUOUS
 66
     1
 40
0.000000
 41
0.000000
  0
VERTEX
  8
0
  6
CONTINUOUS
 10
2.064040
 20
3.169760
  0
VERTEX
  8
0
  6
CONTINUOUS
 10
2.691040
 20
3.540240
  0
VERTEX
  8
0
  6
CONTINUOUS
 10
2.748240
 20
3.538040
  0
VERTEX
  8
0
  6
CONTINUOUS
 10
2.121240
 20
3.168000
  0
VERTEX
  8
0
  6
CONTINUOUS
 10
2.064040
 20
3.169760
  0
SEQEND
  8
0
  0
SOLID
  8
0
 62
    15
 10
2.121240
 20
3.168000
 11
2.748240
 21
3.538040
 12
2.180640
 22
3.169320
 13
2.807640
 23
3.539800
  0
POLYLINE
  8
0
  6
CONTINUOUS
 66
     1
 40
0.000000
 41
0.000000
  0
VERTEX
  8
0
  6
CONTINUOUS
 10
2.121240
 20
3.168000
  0
VERTEX
  8
0
  6
CONTINUOUS
 10
2.748240
 20
3.538040
  0
VERTEX
  8
0
  6
CONTINUOUS
 10
2.807640
 20
3.539800
  0
VERTEX
  8
0
  6
CONTINUOUS
 10
2.180640
 20
3.169320
  0
VERTEX
  8
0
  6
CONTINUOUS
 10
2.121240
 20
3.168000
  0
SEQEND
  8
0
  0
SOLID
  8
0
 62
    15
 10
2.180640
 20
3.169320
 11
2.807640
 21
3.539800
 12
2.241800
 22
3.174600
 13
2.868800
 23
3.544640
  0
POLYLINE
  8
0
  6
CONTINUOUS
 66
     1
 40
0.000000
 41
0.000000
  0
VERTEX
  8
0
  6
CONTINUOUS
 10
2.180640
 20
3.169320
  0
VERTEX
  8
0
  6
CONTINUOUS
 10
2.807640
 20
3.539800
  0
VERTEX
  8
0
  6
CONTINUOUS
 10
2.868800
 20
3.544640
  0
VERTEX
  8
0
  6
CONTINUOUS
 10
2.241800
 20
3.174600
  0
VERTEX
  8
0
  6
CONTINUOUS
 10
2.180640
 20
3.169320
  0
SEQEND
  8
0
  0
SOLID
  8
0
 62
    15
 10
2.241800
 20
3.174600
 11
2.868800
 21
3.544640
 12
2.305160
 22
3.182080
 13
2.932160
 23
3.552560
  0
POLYLINE
  8
0
  6
CONTINUOUS
 66
     1
 40
0.000000
 41
0.000000
  0
VERTEX
  8
0
  6
CONTINUOUS
 10
2.241800
 20
3.174600
  0
VERTEX
  8
0
  6
CONTINUOUS
 10
2.868800
 20
3.544640
  0
VERTEX
  8
0
  6
CONTINUOUS
 10
2.932160
 20
3.552560
  0
VERTEX
  8
0
  6
CONTINUOUS
 10
2.305160
 20
3.182080
  0
VERTEX
  8
0
  6
CONTINUOUS
 10
2.241800
 20
3.174600
  0
SEQEND
  8
0
  0
SOLID
  8
0
 62
    15
 10
2.305160
 20
3.182080
 11
2.932160
 21
3.552560
 12
2.434960
 22
3.204960
 13
3.061520
 23
3.575440
  0
POLYLINE
  8
0
  6
CONTINUOUS
 66
     1
 40
0.000000
 41
0.000000
  0
VERTEX
  8
0
  6
CONTINUOUS
 10
2.305160
 20
3.182080
  0
VERTEX
  8
0
  6
CONTINUOUS
 10
2.932160
 20
3.552560
  0
VERTEX
  8
0
  6
CONTINUOUS
 10
3.061520
 20
3.575440
  0
VERTEX
  8
0
  6
CONTINUOUS
 10
2.434960
 20
3.204960
  0
VERTEX
  8
0
  6
CONTINUOUS
 10
2.305160
 20
3.182080
  0
SEQEND
  8
0
  0
SOLID
  8
0
 62
    15
 10
2.434960
 20
3.204960
 11
3.061520
 21
3.575440
 12
2.568280
 22
3.234880
 13
3.194840
 23
3.605360
  0
POLYLINE
  8
0
  6
CONTINUOUS
 66
     1
 40
0.000000
 41
0.000000
  0
VERTEX
  8
0
  6
CONTINUOUS
 10
2.434960
 20
3.204960
  0
VERTEX
  8
0
  6
CONTINUOUS
 10
3.061520
 20
3.575440
  0
VERTEX
  8
0
  6
CONTINUOUS
 10
3.194840
 20
3.605360
  0
VERTEX
  8
0
  6
CONTINUOUS
 10
2.568280
 20
3.234880
  0
VERTEX
  8
0
  6
CONTINUOUS
 10
2.434960
 20
3.204960
  0
SEQEND
  8
0
  0
SOLID
  8
0
 62
    15
 10
2.568280
 20
3.234880
 11
3.194840
 21
3.605360
 12
2.837120
 22
3.305280
 13
3.464120
 23
3.675320
  0
POLYLINE
  8
0
  6
CONTINUOUS
 66
     1
 40
0.000000
 41
0.000000
  0
VERTEX
  8
0
  6
CONTINUOUS
 10
2.568280
 20
3.234880
  0
VERTEX
  8
0
  6
CONTINUOUS
 10
3.194840
 20
3.605360
  0
VERTEX
  8
0
  6
CONTINUOUS
 10
3.464120
 20
3.675320
  0
VERTEX
  8
0
  6
CONTINUOUS
 10
2.837120
 20
3.305280
  0
VERTEX
  8
0
  6
CONTINUOUS
 10
2.568280
 20
3.234880
  0
SEQEND
  8
0
  0
SOLID
  8
0
 62
    15
 10
2.837120
 20
3.305280
 11
3.464120
 21
3.675320
 12
2.976160
 22
3.342240
 13
3.603160
 23
3.712720
  0
POLYLINE
  8
0
  6
CONTINUOUS
 66
     1
 40
0.000000
 41
0.000000
  0
VERTEX
  8
0
  6
CONTINUOUS
 10
2.837120
 20
3.305280
  0
VERTEX
  8
0
  6
CONTINUOUS
 10
3.464120
 20
3.675320
  0
VERTEX
  8
0
  6
CONTINUOUS
 10
3.603160
 20
3.712720
  0
VERTEX
  8
0
  6
CONTINUOUS
 10
2.976160
 20
3.342240
  0
VERTEX
  8
0
  6
CONTINUOUS
 10
2.837120
 20
3.305280
  0
SEQEND
  8
0
  0
SOLID
  8
0
 62
    15
 10
2.976160
 20
3.342240
 11
3.603160
 21
3.712720
 12
3.124880
 22
3.380960
 13
3.751880
 23
3.751440
  0
POLYLINE
  8
0
  6
CONTINUOUS
 66
     1
 40
0.000000
 41
0.000000
  0
VERTEX
  8
0
  6
CONTINUOUS
 10
2.976160
 20
3.342240
  0
VERTEX
  8
0
  6
CONTINUOUS
 10
3.603160
 20
3.712720
  0
VERTEX
  8
0
  6
CONTINUOUS
 10
3.751880
 20
3.751440
  0
VERTEX
  8
0
  6
CONTINUOUS
 10
3.124880
 20
3.380960
  0
VERTEX
  8
0
  6
CONTINUOUS
 10
2.976160
 20
3.342240
  0
SEQEND
  8
0
  0
SOLID
  8
0
 62
    15
 10
3.124880
 20
3.380960
 11
3.751880
 21
3.751440
 12
3.280200
 22
3.419240
 13
3.907200
 23
3.789720
  0
POLYLINE
  8
0
  6
CONTINUOUS
 66
     1
 40
0.000000
 41
0.000000
  0
VERTEX
  8
0
  6
CONTINUOUS
 10
3.124880
 20
3.380960
  0
VERTEX
  8
0
  6
CONTINUOUS
 10
3.751880
 20
3.751440
  0
VERTEX
  8
0
  6
CONTINUOUS
 10
3.907200
 20
3.789720
  0
VERTEX
  8
0
  6
CONTINUOUS
 10
3.280200
 20
3.419240
  0
VERTEX
  8
0
  6
CONTINUOUS
 10
3.124880
 20
3.380960
  0
SEQEND
  8
0
  0
SOLID
  8
0
 62
    15
 10
3.280200
 20
3.419240
 11
3.907200
 21
3.789720
 12
3.439480
 22
3.455320
 13
4.066480
 23
3.825800
  0
POLYLINE
  8
0
  6
CONTINUOUS
 66
     1
 40
0.000000
 41
0.000000
  0
VERTEX
  8
0
  6
CONTINUOUS
 10
3.280200
 20
3.419240
  0
VERTEX
  8
0
  6
CONTINUOUS
 10
3.907200
 20
3.789720
  0
VERTEX
  8
0
  6
CONTINUOUS
 10
4.066480
 20
3.825800
  0
VERTEX
  8
0
  6
CONTINUOUS
 10
3.439480
 20
3.455320
  0
VERTEX
  8
0
  6
CONTINUOUS
 10
3.280200
 20
3.419240
  0
SEQEND
  8
0
  0
SOLID
  8
0
 62
    15
 10
3.439480
 20
3.455320
 11
4.066480
 21
3.825800
 12
3.599640
 22
3.487000
 13
4.226640
 23
3.857040
  0
POLYLINE
  8
0
  6
CONTINUOUS
 66
     1
 40
0.000000
 41
0.000000
  0
VERTEX
  8
0
  6
CONTINUOUS
 10
3.439480
 20
3.455320
  0
VERTEX
  8
0
  6
CONTINUOUS
 10
4.066480
 20
3.825800
  0
VERTEX
  8
0
  6
CONTINUOUS
 10
4.226640
 20
3.857040
  0
VERTEX
  8
0
  6
CONTINUOUS
 10
3.599640
 20
3.487000
  0
VERTEX
  8
0
  6
CONTINUOUS
 10
3.439480
 20
3.455320
  0
SEQEND
  8
0
  0
SOLID
  8
0
 62
    15
 10
3.599640
 20
3.487000
 11
4.226640
 21
3.857040
 12
3.758040
 22
3.511640
 13
4.385040
 23
3.882120
  0
POLYLINE
  8
0
  6
CONTINUOUS
 66
     1
 40
0.000000
 41
0.000000
  0
VERTEX
  8
0
  6
CONTINUOUS
 10
3.599640
 20
3.487000
  0
VERTEX
  8
0
  6
CONTINUOUS
 10
4.226640
 20
3.857040
  0
VERTEX
  8
0
  6
CONTINUOUS
 10
4.385040
 20
3.882120
  0
VERTEX
  8
0
  6
CONTINUOUS
 10
3.758040
 20
3.511640
  0
VERTEX
  8
0
  6
CONTINUOUS
 10
3.599640
 20
3.487000
  0
SEQEND
  8
0
  0
SOLID
  8
0
 62
    15
 10
3.758040
 20
3.511640
 11
4.385040
 21
3.882120
 12
3.835480
 22
3.521320
 13
4.462480
 23
3.891800
  0
POLYLINE
  8
0
  6
CONTINUOUS
 66
     1
 40
0.000000
 41
0.000000
  0
VERTEX
  8
0
  6
CONTINUOUS
 10
3.758040
 20
3.511640
  0
VERTEX
  8
0
  6
CONTINUOUS
 10
4.385040
 20
3.882120
  0
VERTEX
  8
0
  6
CONTINUOUS
 10
4.462480
 20
3.891800
  0
VERTEX
  8
0
  6
CONTINUOUS
 10
3.835480
 20
3.521320
  0
VERTEX
  8
0
  6
CONTINUOUS
 10
3.758040
 20
3.511640
  0
SEQEND
  8
0
  0
SOLID
  8
0
 62
    15
 10
3.835480
 20
3.521320
 11
4.462480
 21
3.891800
 12
3.911600
 22
3.528360
 13
4.538600
 23
3.898840
  0
POLYLINE
  8
0
  6
CONTINUOUS
 66
     1
 40
0.000000
 41
0.000000
  0
VERTEX
  8
0
  6
CONTINUOUS
 10
3.835480
 20
3.521320
  0
VERTEX
  8
0
  6
CONTINUOUS
 10
4.462480
 20
3.891800
  0
VERTEX
  8
0
  6
CONTINUOUS
 10
4.538600
 20
3.898840
  0
VERTEX
  8
0
  6
CONTINUOUS
 10
3.911600
 20
3.528360
  0
VERTEX
  8
0
  6
CONTINUOUS
 10
3.835480
 20
3.521320
  0
SEQEND
  8
0
  0
SOLID
  8
0
 62
    15
 10
3.911600
 20
3.528360
 11
4.538600
 21
3.898840
 12
3.985960
 22
3.532760
 13
4.612960
 23
3.903240
  0
POLYLINE
  8
0
  6
CONTINUOUS
 66
     1
 40
0.000000
 41
0.000000
  0
VERTEX
  8
0
  6
CONTINUOUS
 10
3.911600
 20
3.528360
  0
VERTEX
  8
0
  6
CONTINUOUS
 10
4.538600
 20
3.898840
  0
VERTEX
  8
0
  6
CONTINUOUS
 10
4.612960
 20
3.903240
  0
VERTEX
  8
0
  6
CONTINUOUS
 10
3.985960
 20
3.532760
  0
VERTEX
  8
0
  6
CONTINUOUS
 10
3.911600
 20
3.528360
  0
SEQEND
  8
0
  0
SOLID
  8
0
 62
    15
 10
3.985960
 20
3.532760
 11
4.612960
 21
3.903240
 12
4.055040
 22
3.534080
 13
4.682040
 23
3.904560
  0
POLYLINE
  8
0
  6
CONTINUOUS
 66
     1
 40
0.000000
 41
0.000000
  0
VERTEX
  8
0
  6
CONTINUOUS
 10
3.985960
 20
3.532760
  0
VERTEX
  8
0
  6
CONTINUOUS
 10
4.612960
 20
3.903240
  0
VERTEX
  8
0
  6
CONTINUOUS
 10
4.682040
 20
3.904560
  0
VERTEX
  8
0
  6
CONTINUOUS
 10
4.055040
 20
3.534080
  0
VERTEX
  8
0
  6
CONTINUOUS
 10
3.985960
 20
3.532760
  0
SEQEND
  8
0
  0
SOLID
  8
0
 62
    15
 10
4.038320
 20
3.534520
 11
4.664880
 21
3.905000
 12
4.110040
 22
3.533200
 13
4.737040
 23
3.903240
  0
POLYLINE
  8
0
  6
CONTINUOUS
 66
     1
 40
0.000000
 41
0.000000
  0
VERTEX
  8
0
  6
CONTINUOUS
 10
4.038320
 20
3.534520
  0
VERTEX
  8
0
  6
CONTINUOUS
 10
4.664880
 20
3.905000
  0
VERTEX
  8
0
  6
CONTINUOUS
 10
4.737040
 20
3.903240
  0
VERTEX
  8
0
  6
CONTINUOUS
 10
4.110040
 20
3.533200
  0
VERTEX
  8
0
  6
CONTINUOUS
 10
4.038320
 20
3.534520
  0
SEQEND
  8
0
  0
SOLID
  8
0
 62
    15
 10
4.682040
 20
3.904560
 11
4.684680
 21
3.904560
 12
4.055040
 22
3.534080
 13
4.057680
 23
3.534080
  0
POLYLINE
  8
0
  6
CONTINUOUS
 66
     1
 40
0.000000
 41
0.000000
  0
VERTEX
  8
0
  6
CONTINUOUS
 10
4.682040
 20
3.904560
  0
VERTEX
  8
0
  6
CONTINUOUS
 10
4.684680
 20
3.904560
  0
VERTEX
  8
0
  6
CONTINUOUS
 10
4.057680
 20
3.534080
  0
VERTEX
  8
0
  6
CONTINUOUS
 10
4.055040
 20
3.534080
  0
VERTEX
  8
0
  6
CONTINUOUS
 10
4.682040
 20
3.904560
  0
SEQEND
  8
0
  0
SOLID
  8
0
 62
    15
 10
4.110040
 20
3.533200
 11
4.737040
 21
3.903240
 12
4.183960
 22
3.528360
 13
4.810960
 23
3.898840
  0
POLYLINE
  8
0
  6
CONTINUOUS
 66
     1
 40
0.000000
 41
0.000000
  0
VERTEX
  8
0
  6
CONTINUOUS
 10
4.110040
 20
3.533200
  0
VERTEX
  8
0
  6
CONTINUOUS
 10
4.737040
 20
3.903240
  0
VERTEX
  8
0
  6
CONTINUOUS
 10
4.810960
 20
3.898840
  0
VERTEX
  8
0
  6
CONTINUOUS
 10
4.183960
 20
3.528360
  0
VERTEX
  8
0
  6
CONTINUOUS
 10
4.110040
 20
3.533200
  0
SEQEND
  8
0
  0
SOLID
  8
0
 62
    15
 10
4.183960
 20
3.528360
 11
4.810960
 21
3.898840
 12
4.259640
 22
3.521320
 13
4.886640
 23
3.891800
  0
POLYLINE
  8
0
  6
CONTINUOUS
 66
     1
 40
0.000000
 41
0.000000
  0
VERTEX
  8
0
  6
CONTINUOUS
 10
4.183960
 20
3.528360
  0
VERTEX
  8
0
  6
CONTINUOUS
 10
4.810960
 20
3.898840
  0
VERTEX
  8
0
  6
CONTINUOUS
 10
4.886640
 20
3.891800
  0
VERTEX
  8
0
  6
CONTINUOUS
 10
4.259640
 20
3.521320
  0
VERTEX
  8
0
  6
CONTINUOUS
 10
4.183960
 20
3.528360
  0
SEQEND
  8
0
  0
SOLID
  8
0
 62
    15
 10
1.678600
 20
3.255560
 11
2.305600
 21
3.626040
 12
1.698840
 22
3.260840
 13
2.325400
 23
3.631320
  0
POLYLINE
  8
0
  6
CONTINUOUS
 66
     1
 40
0.000000
 41
0.000000
  0
VERTEX
  8
0
  6
CONTINUOUS
 10
1.678600
 20
3.255560
  0
VERTEX
  8
0
  6
CONTINUOUS
 10
2.305600
 20
3.626040
  0
VERTEX
  8
0
  6
CONTINUOUS
 10
2.325400
 20
3.631320
  0
VERTEX
  8
0
  6
CONTINUOUS
 10
1.698840
 20
3.260840
  0
VERTEX
  8
0
  6
CONTINUOUS
 10
1.678600
 20
3.255560
  0
SEQEND
  8
0
  0
SOLID
  8
0
 62
    15
 10
4.337080
 20
3.511640
 11
4.964080
 21
3.882120
 12
4.494600
 22
3.486120
 13
5.121600
 23
3.856600
  0
POLYLINE
  8
0
  6
CONTINUOUS
 66
     1
 40
0.000000
 41
0.000000
  0
VERTEX
  8
0
  6
CONTINUOUS
 10
4.337080
 20
3.511640
  0
VERTEX
  8
0
  6
CONTINUOUS
 10
4.964080
 20
3.882120
  0
VERTEX
  8
0
  6
CONTINUOUS
 10
5.121600
 20
3.856600
  0
VERTEX
  8
0
  6
CONTINUOUS
 10
4.494600
 20
3.486120
  0
VERTEX
  8
0
  6
CONTINUOUS
 10
4.337080
 20
3.511640
  0
SEQEND
  8
0
  0
SOLID
  8
0
 62
    15
 10
4.494600
 20
3.486120
 11
5.121600
 21
3.856600
 12
4.654320
 22
3.454000
 13
5.281320
 23
3.824480
  0
POLYLINE
  8
0
  6
CONTINUOUS
 66
     1
 40
0.000000
 41
0.000000
  0
VERTEX
  8
0
  6
CONTINUOUS
 10
4.494600
 20
3.486120
  0
VERTEX
  8
0
  6
CONTINUOUS
 10
5.121600
 20
3.856600
  0
VERTEX
  8
0
  6
CONTINUOUS
 10
5.281320
 20
3.824480
  0
VERTEX
  8
0
  6
CONTINUOUS
 10
4.654320
 20
3.454000
  0
VERTEX
  8
0
  6
CONTINUOUS
 10
4.494600
 20
3.486120
  0
SEQEND
  8
0
  0
SOLID
  8
0
 62
    15
 10
4.654320
 20
3.454000
 11
5.281320
 21
3.824480
 12
4.812720
 22
3.417480
 13
5.439720
 23
3.787960
  0
POLYLINE
  8
0
  6
CONTINUOUS
 66
     1
 40
0.000000
 41
0.000000
  0
VERTEX
  8
0
  6
CONTINUOUS
 10
4.654320
 20
3.454000
  0
VERTEX
  8
0
  6
CONTINUOUS
 10
5.281320
 20
3.824480
  0
VERTEX
  8
0
  6
CONTINUOUS
 10
5.439720
 20
3.787960
  0
VERTEX
  8
0
  6
CONTINUOUS
 10
4.812720
 20
3.417480
  0
VERTEX
  8
0
  6
CONTINUOUS
 10
4.654320
 20
3.454000
  0
SEQEND
  8
0
  0
SOLID
  8
0
 62
    15
 10
4.812720
 20
3.417480
 11
5.439720
 21
3.787960
 12
4.967160
 22
3.378320
 13
5.594160
 23
3.748800
  0
POLYLINE
  8
0
  6
CONTINUOUS
 66
     1
 40
0.000000
 41
0.000000
  0
VERTEX
  8
0
  6
CONTINUOUS
 10
4.812720
 20
3.417480
  0
VERTEX
  8
0
  6
CONTINUOUS
 10
5.439720
 20
3.787960
  0
VERTEX
  8
0
  6
CONTINUOUS
 10
5.594160
 20
3.748800
  0
VERTEX
  8
0
  6
CONTINUOUS
 10
4.967160
 20
3.378320
  0
VERTEX
  8
0
  6
CONTINUOUS
 10
4.812720
 20
3.417480
  0
SEQEND
  8
0
  0
SOLID
  8
0
 62
    15
 10
4.967160
 20
3.378320
 11
5.594160
 21
3.748800
 12
5.115440
 22
3.339160
 13
5.742440
 23
3.709640
  0
POLYLINE
  8
0
  6
CONTINUOUS
 66
     1
 40
0.000000
 41
0.000000
  0
VERTEX
  8
0
  6
CONTINUOUS
 10
4.967160
 20
3.378320
  0
VERTEX
  8
0
  6
CONTINUOUS
 10
5.594160
 20
3.748800
  0
VERTEX
  8
0
  6
CONTINUOUS
 10
5.742440
 20
3.709640
  0
VERTEX
  8
0
  6
CONTINUOUS
 10
5.115440
 20
3.339160
  0
VERTEX
  8
0
  6
CONTINUOUS
 10
4.967160
 20
3.378320
  0
SEQEND
  8
0
  0
SOLID
  8
0
 62
    15
 10
5.115440
 20
3.339160
 11
5.742440
 21
3.709640
 12
5.254480
 22
3.301760
 13
5.881040
 23
3.672240
  0
POLYLINE
  8
0
  6
CONTINUOUS
 66
     1
 40
0.000000
 41
0.000000
  0
VERTEX
  8
0
  6
CONTINUOUS
 10
5.115440
 20
3.339160
  0
VERTEX
  8
0
  6
CONTINUOUS
 10
5.742440
 20
3.709640
  0
VERTEX
  8
0
  6
CONTINUOUS
 10
5.881040
 20
3.672240
  0
VERTEX
  8
0
  6
CONTINUOUS
 10
5.254480
 20
3.301760
  0
VERTEX
  8
0
  6
CONTINUOUS
 10
5.115440
 20
3.339160
  0
SEQEND
  8
0
  0
SOLID
  8
0
 62
    15
 10
5.254480
 20
3.301760
 11
5.881040
 21
3.672240
 12
5.523320
 22
3.231800
 13
6.150320
 23
3.602280
  0
POLYLINE
  8
0
  6
CONTINUOUS
 66
     1
 40
0.000000
 41
0.000000
  0
VERTEX
  8
0
  6
CONTINUOUS
 10
5.254480
 20
3.301760
  0
VERTEX
  8
0
  6
CONTINUOUS
 10
5.881040
 20
3.672240
  0
VERTEX
  8
0
  6
CONTINUOUS
 10
6.150320
 20
3.602280
  0
VERTEX
  8
0
  6
CONTINUOUS
 10
5.523320
 20
3.231800
  0
VERTEX
  8
0
  6
CONTINUOUS
 10
5.254480
 20
3.301760
  0
SEQEND
  8
0
  0
SOLID
  8
0
 62
    15
 10
5.523320
 20
3.231800
 11
6.150320
 21
3.602280
 12
5.656640
 22
3.201880
 13
6.283640
 23
3.572360
  0
POLYLINE
  8
0
  6
CONTINUOUS
 66
     1
 40
0.000000
 41
0.000000
  0
VERTEX
  8
0
  6
CONTINUOUS
 10
5.523320
 20
3.231800
  0
VERTEX
  8
0
  6
CONTINUOUS
 10
6.150320
 20
3.602280
  0
VERTEX
  8
0
  6
CONTINUOUS
 10
6.283640
 20
3.572360
  0
VERTEX
  8
0
  6
CONTINUOUS
 10
5.656640
 20
3.201880
  0
VERTEX
  8
0
  6
CONTINUOUS
 10
5.523320
 20
3.231800
  0
SEQEND
  8
0
  0
SOLID
  8
0
 62
    15
 10
5.656640
 20
3.201880
 11
6.283640
 21
3.572360
 12
5.786440
 22
3.179000
 13
6.413440
 23
3.549480
  0
POLYLINE
  8
0
  6
CONTINUOUS
 66
     1
 40
0.000000
 41
0.000000
  0
VERTEX
  8
0
  6
CONTINUOUS
 10
5.656640
 20
3.201880
  0
VERTEX
  8
0
  6
CONTINUOUS
 10
6.283640
 20
3.572360
  0
VERTEX
  8
0
  6
CONTINUOUS
 10
6.413440
 20
3.549480
  0
VERTEX
  8
0
  6
CONTINUOUS
 10
5.786440
 20
3.179000
  0
VERTEX
  8
0
  6
CONTINUOUS
 10
5.656640
 20
3.201880
  0
SEQEND
  8
0
  0
SOLID
  8
0
 62
    15
 10
5.786440
 20
3.179000
 11
6.413440
 21
3.549480
 12
5.849360
 22
3.171080
 13
6.476360
 23
3.541560
  0
POLYLINE
  8
0
  6
CONTINUOUS
 66
     1
 40
0.000000
 41
0.000000
  0
VERTEX
  8
0
  6
CONTINUOUS
 10
5.786440
 20
3.179000
  0
VERTEX
  8
0
  6
CONTINUOUS
 10
6.413440
 20
3.549480
  0
VERTEX
  8
0
  6
CONTINUOUS
 10
6.476360
 20
3.541560
  0
VERTEX
  8
0
  6
CONTINUOUS
 10
5.849360
 20
3.171080
  0
VERTEX
  8
0
  6
CONTINUOUS
 10
5.786440
 20
3.179000
  0
SEQEND
  8
0
  0
SOLID
  8
0
 62
    15
 10
5.849360
 20
3.171080
 11
6.476360
 21
3.541560
 12
5.910520
 22
3.166240
 13
6.537520
 23
3.536720
  0
POLYLINE
  8
0
  6
CONTINUOUS
 66
     1
 40
0.000000
 41
0.000000
  0
VERTEX
  8
0
  6
CONTINUOUS
 10
5.849360
 20
3.171080
  0
VERTEX
  8
0
  6
CONTINUOUS
 10
6.476360
 20
3.541560
  0
VERTEX
  8
0
  6
CONTINUOUS
 10
6.537520
 20
3.536720
  0
VERTEX
  8
0
  6
CONTINUOUS
 10
5.910520
 20
3.166240
  0
VERTEX
  8
0
  6
CONTINUOUS
 10
5.849360
 20
3.171080
  0
SEQEND
  8
0
  0
SOLID
  8
0
 62
    15
 10
5.910520
 20
3.166240
 11
6.537520
 21
3.536720
 12
5.969920
 22
3.164480
 13
6.596920
 23
3.534960
  0
POLYLINE
  8
0
  6
CONTINUOUS
 66
     1
 40
0.000000
 41
0.000000
  0
VERTEX
  8
0
  6
CONTINUOUS
 10
5.910520
 20
3.166240
  0
VERTEX
  8
0
  6
CONTINUOUS
 10
6.537520
 20
3.536720
  0
VERTEX
  8
0
  6
CONTINUOUS
 10
6.596920
 20
3.534960
  0
VERTEX
  8
0
  6
CONTINUOUS
 10
5.969920
 20
3.164480
  0
VERTEX
  8
0
  6
CONTINUOUS
 10
5.910520
 20
3.166240
  0
SEQEND
  8
0
  0
SOLID
  8
0
 62
    15
 10
5.969920
 20
3.164480
 11
6.596920
 21
3.534960
 12
6.027120
 22
3.166680
 13
6.654120
 23
3.536720
  0
POLYLINE
  8
0
  6
CONTINUOUS
 66
     1
 40
0.000000
 41
0.000000
  0
VERTEX
  8
0
  6
CONTINUOUS
 10
5.969920
 20
3.164480
  0
VERTEX
  8
0
  6
CONTINUOUS
 10
6.596920
 20
3.534960
  0
VERTEX
  8
0
  6
CONTINUOUS
 10
6.654120
 20
3.536720
  0
VERTEX
  8
0
  6
CONTINUOUS
 10
6.027120
 20
3.166680
  0
VERTEX
  8
0
  6
CONTINUOUS
 10
5.969920
 20
3.164480
  0
SEQEND
  8
0
  0
SOLID
  8
0
 62
    15
 10
6.027120
 20
3.166680
 11
6.654120
 21
3.536720
 12
6.082120
 22
3.172400
 13
6.709120
 23
3.542880
  0
POLYLINE
  8
0
  6
CONTINUOUS
 66
     1
 40
0.000000
 41
0.000000
  0
VERTEX
  8
0
  6
CONTINUOUS
 10
6.027120
 20
3.166680
  0
VERTEX
  8
0
  6
CONTINUOUS
 10
6.654120
 20
3.536720
  0
VERTEX
  8
0
  6
CONTINUOUS
 10
6.709120
 20
3.542880
  0
VERTEX
  8
0
  6
CONTINUOUS
 10
6.082120
 20
3.172400
  0
VERTEX
  8
0
  6
CONTINUOUS
 10
6.027120
 20
3.166680
  0
SEQEND
  8
0
  0
SOLID
  8
0
 62
    15
 10
6.082120
 20
3.172400
 11
6.709120
 21
3.542880
 12
6.134480
 22
3.182520
 13
6.761480
 23
3.552560
  0
POLYLINE
  8
0
  6
CONTINUOUS
 66
     1
 40
0.000000
 41
0.000000
  0
VERTEX
  8
0
  6
CONTINUOUS
 10
6.082120
 20
3.172400
  0
VERTEX
  8
0
  6
CONTINUOUS
 10
6.709120
 20
3.542880
  0
VERTEX
  8
0
  6
CONTINUOUS
 10
6.761480
 20
3.552560
  0
VERTEX
  8
0
  6
CONTINUOUS
 10
6.134480
 20
3.182520
  0
VERTEX
  8
0
  6
CONTINUOUS
 10
6.082120
 20
3.172400
  0
SEQEND
  8
0
  0
SOLID
  8
0
 62
    15
 10
6.134480
 20
3.182520
 11
6.761480
 21
3.552560
 12
6.183760
 22
3.197040
 13
6.810760
 23
3.567520
  0
POLYLINE
  8
0
  6
CONTINUOUS
 66
     1
 40
0.000000
 41
0.000000
  0
VERTEX
  8
0
  6
CONTINUOUS
 10
6.134480
 20
3.182520
  0
VERTEX
  8
0
  6
CONTINUOUS
 10
6.761480
 20
3.552560
  0
VERTEX
  8
0
  6
CONTINUOUS
 10
6.810760
 20
3.567520
  0
VERTEX
  8
0
  6
CONTINUOUS
 10
6.183760
 20
3.197040
  0
VERTEX
  8
0
  6
CONTINUOUS
 10
6.134480
 20
3.182520
  0
SEQEND
  8
0
  0
SOLID
  8
0
 62
    15
 10
6.183760
 20
3.197040
 11
6.810760
 21
3.567520
 12
6.229960
 22
3.216840
 13
6.856960
 23
3.586880
  0
POLYLINE
  8
0
  6
CONTINUOUS
 66
     1
 40
0.000000
 41
0.000000
  0
VERTEX
  8
0
  6
CONTINUOUS
 10
6.183760
 20
3.197040
  0
VERTEX
  8
0
  6
CONTINUOUS
 10
6.810760
 20
3.567520
  0
VERTEX
  8
0
  6
CONTINUOUS
 10
6.856960
 20
3.586880
  0
VERTEX
  8
0
  6
CONTINUOUS
 10
6.229960
 20
3.216840
  0
VERTEX
  8
0
  6
CONTINUOUS
 10
6.183760
 20
3.197040
  0
SEQEND
  8
0
  0
SOLID
  8
0
 62
    15
 10
6.229960
 20
3.216840
 11
6.856960
 21
3.586880
 12
6.272200
 22
3.235760
 13
6.898760
 23
3.606240
  0
POLYLINE
  8
0
  6
CONTINUOUS
 66
     1
 40
0.000000
 41
0.000000
  0
VERTEX
  8
0
  6
CONTINUOUS
 10
6.229960
 20
3.216840
  0
VERTEX
  8
0
  6
CONTINUOUS
 10
6.856960
 20
3.586880
  0
VERTEX
  8
0
  6
CONTINUOUS
 10
6.898760
 20
3.606240
  0
VERTEX
  8
0
  6
CONTINUOUS
 10
6.272200
 20
3.235760
  0
VERTEX
  8
0
  6
CONTINUOUS
 10
6.229960
 20
3.216840
  0
SEQEND
  8
0
  0
SOLID
  8
0
 62
    15
 10
6.272200
 20
3.235760
 11
6.898760
 21
3.606240
 12
6.308720
 22
3.248960
 13
6.935720
 23
3.619000
  0
POLYLINE
  8
0
  6
CONTINUOUS
 66
     1
 40
0.000000
 41
0.000000
  0
VERTEX
  8
0
  6
CONTINUOUS
 10
6.272200
 20
3.235760
  0
VERTEX
  8
0
  6
CONTINUOUS
 10
6.898760
 20
3.606240
  0
VERTEX
  8
0
  6
CONTINUOUS
 10
6.935720
 20
3.619000
  0
VERTEX
  8
0
  6
CONTINUOUS
 10
6.308720
 20
3.248960
  0
VERTEX
  8
0
  6
CONTINUOUS
 10
6.272200
 20
3.235760
  0
SEQEND
  8
0
  0
SOLID
  8
0
 62
    15
 10
6.308720
 20
3.248960
 11
6.935720
 21
3.619000
 12
6.341280
 22
3.256440
 13
6.967840
 23
3.626920
  0
POLYLINE
  8
0
  6
CONTINUOUS
 66
     1
 40
0.000000
 41
0.000000
  0
VERTEX
  8
0
  6
CONTINUOUS
 10
6.308720
 20
3.248960
  0
VERTEX
  8
0
  6
CONTINUOUS
 10
6.935720
 20
3.619000
  0
VERTEX
  8
0
  6
CONTINUOUS
 10
6.967840
 20
3.626920
  0
VERTEX
  8
0
  6
CONTINUOUS
 10
6.341280
 20
3.256440
  0
VERTEX
  8
0
  6
CONTINUOUS
 10
6.308720
 20
3.248960
  0
SEQEND
  8
0
  0
SOLID
  8
0
 62
    15
 10
6.341280
 20
3.256440
 11
6.967840
 21
3.626920
 12
6.369000
 22
3.259080
 13
6.996000
 23
3.629560
  0
POLYLINE
  8
0
  6
CONTINUOUS
 66
     1
 40
0.000000
 41
0.000000
  0
VERTEX
  8
0
  6
CONTINUOUS
 10
6.341280
 20
3.256440
  0
VERTEX
  8
0
  6
CONTINUOUS
 10
6.967840
 20
3.626920
  0
VERTEX
  8
0
  6
CONTINUOUS
 10
6.996000
 20
3.629560
  0
VERTEX
  8
0
  6
CONTINUOUS
 10
6.369000
 20
3.259080
  0
VERTEX
  8
0
  6
CONTINUOUS
 10
6.341280
 20
3.256440
  0
SEQEND
  8
0
  0
SOLID
  8
0
 62
    15
 10
6.369000
 20
3.259080
 11
6.996000
 21
3.629560
 12
6.392760
 22
3.257760
 13
7.019320
 23
3.628240
  0
POLYLINE
  8
0
  6
CONTINUOUS
 66
     1
 40
0.000000
 41
0.000000
  0
VERTEX
  8
0
  6
CONTINUOUS
 10
6.369000
 20
3.259080
  0
VERTEX
  8
0
  6
CONTINUOUS
 10
6.996000
 20
3.629560
  0
VERTEX
  8
0
  6
CONTINUOUS
 10
7.019320
 20
3.628240
  0
VERTEX
  8
0
  6
CONTINUOUS
 10
6.392760
 20
3.257760
  0
VERTEX
  8
0
  6
CONTINUOUS
 10
6.369000
 20
3.259080
  0
SEQEND
  8
0
  0
SOLID
  8
0
 62
    15
 10
6.392760
 20
3.257760
 11
7.019320
 21
3.628240
 12
6.412560
 22
3.252480
 13
7.039560
 23
3.622960
  0
POLYLINE
  8
0
  6
CONTINUOUS
 66
     1
 40
0.000000
 41
0.000000
  0
VERTEX
  8
0
  6
CONTINUOUS
 10
6.392760
 20
3.257760
  0
VERTEX
  8
0
  6
CONTINUOUS
 10
7.019320
 20
3.628240
  0
VERTEX
  8
0
  6
CONTINUOUS
 10
7.039560
 20
3.622960
  0
VERTEX
  8
0
  6
CONTINUOUS
 10
6.412560
 20
3.252480
  0
VERTEX
  8
0
  6
CONTINUOUS
 10
6.392760
 20
3.257760
  0
SEQEND
  8
0
  0
SOLID
  8
0
 62
    15
 10
6.412560
 20
3.252480
 11
7.039560
 21
3.622960
 12
6.429280
 22
3.244120
 13
7.056280
 23
3.614600
  0
POLYLINE
  8
0
  6
CONTINUOUS
 66
     1
 40
0.000000
 41
0.000000
  0
VERTEX
  8
0
  6
CONTINUOUS
 10
6.412560
 20
3.252480
  0
VERTEX
  8
0
  6
CONTINUOUS
 10
7.039560
 20
3.622960
  0
VERTEX
  8
0
  6
CONTINUOUS
 10
7.056280
 20
3.614600
  0
VERTEX
  8
0
  6
CONTINUOUS
 10
6.429280
 20
3.244120
  0
VERTEX
  8
0
  6
CONTINUOUS
 10
6.412560
 20
3.252480
  0
SEQEND
  8
0
  0
SOLID
  8
0
 62
    15
 10
6.429280
 20
3.244120
 11
7.056280
 21
3.614600
 12
6.442480
 22
3.233560
 13
7.069480
 23
3.604040
  0
POLYLINE
  8
0
  6
CONTINUOUS
 66
     1
 40
0.000000
 41
0.000000
  0
VERTEX
  8
0
  6
CONTINUOUS
 10
6.429280
 20
3.244120
  0
VERTEX
  8
0
  6
CONTINUOUS
 10
7.056280
 20
3.614600
  0
VERTEX
  8
0
  6
CONTINUOUS
 10
7.069480
 20
3.604040
  0
VERTEX
  8
0
  6
CONTINUOUS
 10
6.442480
 20
3.233560
  0
VERTEX
  8
0
  6
CONTINUOUS
 10
6.429280
 20
3.244120
  0
SEQEND
  8
0
  0
SOLID
  8
0
 62
    15
 10
6.442480
 20
3.233560
 11
7.069480
 21
3.604040
 12
6.453040
 22
3.220800
 13
7.080040
 23
3.591280
  0
POLYLINE
  8
0
  6
CONTINUOUS
 66
     1
 40
0.000000
 41
0.000000
  0
VERTEX
  8
0
  6
CONTINUOUS
 10
6.442480
 20
3.233560
  0
VERTEX
  8
0
  6
CONTINUOUS
 10
7.069480
 20
3.604040
  0
VERTEX
  8
0
  6
CONTINUOUS
 10
7.080040
 20
3.591280
  0
VERTEX
  8
0
  6
CONTINUOUS
 10
6.453040
 20
3.220800
  0
VERTEX
  8
0
  6
CONTINUOUS
 10
6.442480
 20
3.233560
  0
SEQEND
  8
0
  0
SOLID
  8
0
 62
    15
 10
6.453040
 20
3.220800
 11
7.080040
 21
3.591280
 12
6.461400
 22
3.206720
 13
7.087960
 23
3.577200
  0
POLYLINE
  8
0
  6
CONTINUOUS
 66
     1
 40
0.000000
 41
0.000000
  0
VERTEX
  8
0
  6
CONTINUOUS
 10
6.453040
 20
3.220800
  0
VERTEX
  8
0
  6
CONTINUOUS
 10
7.080040
 20
3.591280
  0
VERTEX
  8
0
  6
CONTINUOUS
 10
7.087960
 20
3.577200
  0
VERTEX
  8
0
  6
CONTINUOUS
 10
6.461400
 20
3.206720
  0
VERTEX
  8
0
  6
CONTINUOUS
 10
6.453040
 20
3.220800
  0
SEQEND
  8
0
  0
SOLID
  8
0
 62
    15
 10
6.461400
 20
3.206720
 11
7.087960
 21
3.577200
 12
6.471080
 22
3.177240
 13
7.098080
 23
3.547720
  0
POLYLINE
  8
0
  6
CONTINUOUS
 66
     1
 40
0.000000
 41
0.000000
  0
VERTEX
  8
0
  6
CONTINUOUS
 10
6.461400
 20
3.206720
  0
VERTEX
  8
0
  6
CONTINUOUS
 10
7.087960
 20
3.577200
  0
VERTEX
  8
0
  6
CONTINUOUS
 10
7.098080
 20
3.547720
  0
VERTEX
  8
0
  6
CONTINUOUS
 10
6.471080
 20
3.177240
  0
VERTEX
  8
0
  6
CONTINUOUS
 10
6.461400
 20
3.206720
  0
SEQEND
  8
0
  0
SOLID
  8
0
 62
    15
 10
6.471080
 20
3.177240
 11
7.098080
 21
3.547720
 12
6.475040
 22
3.149960
 13
7.101600
 23
3.520440
  0
POLYLINE
  8
0
  6
CONTINUOUS
 66
     1
 40
0.000000
 41
0.000000
  0
VERTEX
  8
0
  6
CONTINUOUS
 10
6.471080
 20
3.177240
  0
VERTEX
  8
0
  6
CONTINUOUS
 10
7.098080
 20
3.547720
  0
VERTEX
  8
0
  6
CONTINUOUS
 10
7.101600
 20
3.520440
  0
VERTEX
  8
0
  6
CONTINUOUS
 10
6.475040
 20
3.149960
  0
VERTEX
  8
0
  6
CONTINUOUS
 10
6.471080
 20
3.177240
  0
SEQEND
  8
0
  0
SOLID
  8
0
 62
    15
 10
6.475040
 20
3.149960
 11
7.101600
 21
3.520440
 12
6.475040
 22
3.128840
 13
7.102040
 23
3.499320
  0
POLYLINE
  8
0
  6
CONTINUOUS
 66
     1
 40
0.000000
 41
0.000000
  0
VERTEX
  8
0
  6
CONTINUOUS
 10
6.475040
 20
3.149960
  0
VERTEX
  8
0
  6
CONTINUOUS
 10
7.101600
 20
3.520440
  0
VERTEX
  8
0
  6
CONTINUOUS
 10
7.102040
 20
3.499320
  0
VERTEX
  8
0
  6
CONTINUOUS
 10
6.475040
 20
3.128840
  0
VERTEX
  8
0
  6
CONTINUOUS
 10
6.475040
 20
3.149960
  0
SEQEND
  8
0
  0
SOLID
  8
0
 62
    15
 10
6.475040
 20
3.128840
 11
7.102040
 21
3.499320
 12
6.475040
 22
3.012240
 13
7.102040
 23
3.382720
  0
POLYLINE
  8
0
  6
CONTINUOUS
 66
     1
 40
0.000000
 41
0.000000
  0
VERTEX
  8
0
  6
CONTINUOUS
 10
6.475040
 20
3.128840
  0
VERTEX
  8
0
  6
CONTINUOUS
 10
7.102040
 20
3.499320
  0
VERTEX
  8
0
  6
CONTINUOUS
 10
7.102040
 20
3.382720
  0
VERTEX
  8
0
  6
CONTINUOUS
 10
6.475040
 20
3.012240
  0
VERTEX
  8
0
  6
CONTINUOUS
 10
6.475040
 20
3.128840
  0
SEQEND
  8
0
  0
POLYLINE
  8
0
  6
CONTINUOUS
 66
     1
 40
0.000000
 41
0.000000
  0
VERTEX
  8
0
  6
CONTINUOUS
 10
1.616560
 20
3.015320
  0
VERTEX
  8
0
  6
CONTINUOUS
 10
1.616560
 20
3.153040
  0
VERTEX
  8
0
  6
CONTINUOUS
 10
1.620080
 20
3.180760
  0
VERTEX
  8
0
  6
CONTINUOUS
 10
1.630200
 20
3.210240
  0
VERTEX
  8
0
  6
CONTINUOUS
 10
1.638120
 20
3.223880
  0
VERTEX
  8
0
  6
CONTINUOUS
 10
1.648680
 20
3.236640
  0
VERTEX
  8
0
  6
CONTINUOUS
 10
1.662320
 20
3.247640
  0
VERTEX
  8
0
  6
CONTINUOUS
 10
1.678600
 20
3.255560
  0
VERTEX
  8
0
  6
CONTINUOUS
 10
1.698840
 20
3.260840
  0
VERTEX
  8
0
  6
CONTINUOUS
 10
1.722600
 20
3.262160
  0
VERTEX
  8
0
  6
CONTINUOUS
 10
1.750320
 20
3.259520
  0
VERTEX
  8
0
  6
CONTINUOUS
 10
1.782440
 20
3.252040
  0
VERTEX
  8
0
  6
CONTINUOUS
 10
1.819400
 20
3.238840
  0
VERTEX
  8
0
  6
CONTINUOUS
 10
1.907400
 20
3.200120
  0
VERTEX
  8
0
  6
CONTINUOUS
 10
1.956680
 20
3.185600
  0
VERTEX
  8
0
  6
CONTINUOUS
 10
2.009040
 20
3.175480
  0
VERTEX
  8
0
  6
CONTINUOUS
 10
2.064040
 20
3.169760
  0
VERTEX
  8
0
  6
CONTINUOUS
 10
2.121240
 20
3.168000
  0
VERTEX
  8
0
  6
CONTINUOUS
 10
2.180640
 20
3.169320
  0
VERTEX
  8
0
  6
CONTINUOUS
 10
2.241800
 20
3.174600
  0
VERTEX
  8
0
  6
CONTINUOUS
 10
2.305160
 20
3.182080
  0
VERTEX
  8
0
  6
CONTINUOUS
 10
2.434960
 20
3.204960
  0
VERTEX
  8
0
  6
CONTINUOUS
 10
2.568280
 20
3.234880
  0
VERTEX
  8
0
  6
CONTINUOUS
 10
3.124880
 20
3.380960
  0
VERTEX
  8
0
  6
CONTINUOUS
 10
3.280200
 20
3.419240
  0
VERTEX
  8
0
  6
CONTINUOUS
 10
3.439480
 20
3.455320
  0
VERTEX
  8
0
  6
CONTINUOUS
 10
3.599640
 20
3.487000
  0
VERTEX
  8
0
  6
CONTINUOUS
 10
3.758040
 20
3.511640
  0
VERTEX
  8
0
  6
CONTINUOUS
 10
3.835480
 20
3.521320
  0
VERTEX
  8
0
  6
CONTINUOUS
 10
3.911600
 20
3.528360
  0
VERTEX
  8
0
  6
CONTINUOUS
 10
3.985960
 20
3.532760
  0
VERTEX
  8
0
  6
CONTINUOUS
 10
4.057680
 20
3.534080
  0
VERTEX
  8
0
  6
CONTINUOUS
 10
4.038320
 20
3.534520
  0
VERTEX
  8
0
  6
CONTINUOUS
 10
4.110040
 20
3.533200
  0
VERTEX
  8
0
  6
CONTINUOUS
 10
4.183960
 20
3.528360
  0
VERTEX
  8
0
  6
CONTINUOUS
 10
4.259640
 20
3.521320
  0
VERTEX
  8
0
  6
CONTINUOUS
 10
4.337080
 20
3.511640
  0
VERTEX
  8
0
  6
CONTINUOUS
 10
4.494600
 20
3.486120
  0
VERTEX
  8
0
  6
CONTINUOUS
 10
4.654320
 20
3.454000
  0
VERTEX
  8
0
  6
CONTINUOUS
 10
4.812720
 20
3.417480
  0
VERTEX
  8
0
  6
CONTINUOUS
 10
5.115440
 20
3.339160
  0
VERTEX
  8
0
  6
CONTINUOUS
 10
5.523320
 20
3.231800
  0
VERTEX
  8
0
  6
CONTINUOUS
 10
5.656640
 20
3.201880
  0
VERTEX
  8
0
  6
CONTINUOUS
 10
5.786440
 20
3.179000
  0
VERTEX
  8
0
  6
CONTINUOUS
 10
5.849360
 20
3.171080
  0
VERTEX
  8
0
  6
CONTINUOUS
 10
5.910520
 20
3.166240
  0
VERTEX
  8
0
  6
CONTINUOUS
 10
5.969920
 20
3.164480
  0
VERTEX
  8
0
  6
CONTINUOUS
 10
6.027120
 20
3.166680
  0
VERTEX
  8
0
  6
CONTINUOUS
 10
6.082120
 20
3.172400
  0
VERTEX
  8
0
  6
CONTINUOUS
 10
6.134480
 20
3.182520
  0
VERTEX
  8
0
  6
CONTINUOUS
 10
6.183760
 20
3.197040
  0
VERTEX
  8
0
  6
CONTINUOUS
 10
6.272200
 20
3.235760
  0
VERTEX
  8
0
  6
CONTINUOUS
 10
6.308720
 20
3.248960
  0
VERTEX
  8
0
  6
CONTINUOUS
 10
6.341280
 20
3.256440
  0
VERTEX
  8
0
  6
CONTINUOUS
 10
6.369000
 20
3.259080
  0
VERTEX
  8
0
  6
CONTINUOUS
 10
6.392760
 20
3.257760
  0
VERTEX
  8
0
  6
CONTINUOUS
 10
6.412560
 20
3.252480
  0
VERTEX
  8
0
  6
CONTINUOUS
 10
6.429280
 20
3.244120
  0
VERTEX
  8
0
  6
CONTINUOUS
 10
6.442480
 20
3.233560
  0
VERTEX
  8
0
  6
CONTINUOUS
 10
6.453040
 20
3.220800
  0
VERTEX
  8
0
  6
CONTINUOUS
 10
6.461400
 20
3.206720
  0
VERTEX
  8
0
  6
CONTINUOUS
 10
6.471080
 20
3.177240
  0
VERTEX
  8
0
  6
CONTINUOUS
 10
6.475040
 20
3.149960
  0
VERTEX
  8
0
  6
CONTINUOUS
 10
6.475040
 20
3.012240
  0
VERTEX
  8
0
  6
CONTINUOUS
 10
1.616120
 20
3.011360
  0
VERTEX
  8
0
  6
CONTINUOUS
 10
1.616560
 20
3.015320
  0
SEQEND
  8
0
  0
SOLID
  8
0
 62
    15
 10
6.914160
 20
1.919280
 11
7.535440
 21
2.275680
 12
6.889080
 22
1.873960
 13
7.510360
 23
2.230360
  0
POLYLINE
  8
0
  6
CONTINUOUS
 66
     1
 40
0.000000
 41
0.000000
  0
VERTEX
  8
0
  6
CONTINUOUS
 10
6.914160
 20
1.919280
  0
VERTEX
  8
0
  6
CONTINUOUS
 10
7.535440
 20
2.275680
  0
VERTEX
  8
0
  6
CONTINUOUS
 10
7.510360
 20
2.230360
  0
VERTEX
  8
0
  6
CONTINUOUS
 10
6.889080
 20
1.873960
  0
VERTEX
  8
0
  6
CONTINUOUS
 10
6.914160
 20
1.919280
  0
SEQEND
  8
0
  0
SOLID
  8
0
 62
    15
 10
6.554680
 20
3.146440
 11
7.175960
 21
3.502840
 12
6.629920
 22
3.128400
 13
7.251200
 23
3.484800
  0
POLYLINE
  8
0
  6
CONTINUOUS
 66
     1
 40
0.000000
 41
0.000000
  0
VERTEX
  8
0
  6
CONTINUOUS
 10
6.554680
 20
3.146440
  0
VERTEX
  8
0
  6
CONTINUOUS
 10
7.175960
 20
3.502840
  0
VERTEX
  8
0
  6
CONTINUOUS
 10
7.251200
 20
3.484800
  0
VERTEX
  8
0
  6
CONTINUOUS
 10
6.629920
 20
3.128400
  0
VERTEX
  8
0
  6
CONTINUOUS
 10
6.554680
 20
3.146440
  0
SEQEND
  8
0
  0
SOLID
  8
0
 62
    15
 10
6.629920
 20
3.128400
 11
7.251200
 21
3.484800
 12
6.699880
 22
3.107280
 13
7.321160
 23
3.463680
  0
POLYLINE
  8
0
  6
CONTINUOUS
 66
     1
 40
0.000000
 41
0.000000
  0
VERTEX
  8
0
  6
CONTINUOUS
 10
6.629920
 20
3.128400
  0
VERTEX
  8
0
  6
CONTINUOUS
 10
7.251200
 20
3.484800
  0
VERTEX
  8
0
  6
CONTINUOUS
 10
7.321160
 20
3.463680
  0
VERTEX
  8
0
  6
CONTINUOUS
 10
6.699880
 20
3.107280
  0
VERTEX
  8
0
  6
CONTINUOUS
 10
6.629920
 20
3.128400
  0
SEQEND
  8
0
  0
SOLID
  8
0
 62
    15
 10
6.699880
 20
3.107280
 11
7.321160
 21
3.463680
 12
6.765440
 22
3.083520
 13
7.386720
 23
3.439480
  0
POLYLINE
  8
0
  6
CONTINUOUS
 66
     1
 40
0.000000
 41
0.000000
  0
VERTEX
  8
0
  6
CONTINUOUS
 10
6.699880
 20
3.107280
  0
VERTEX
  8
0
  6
CONTINUOUS
 10
7.321160
 20
3.463680
  0
VERTEX
  8
0
  6
CONTINUOUS
 10
7.386720
 20
3.439480
  0
VERTEX
  8
0
  6
CONTINUOUS
 10
6.765440
 20
3.083520
  0
VERTEX
  8
0
  6
CONTINUOUS
 10
6.699880
 20
3.107280
  0
SEQEND
  8
0
  0
SOLID
  8
0
 62
    15
 10
6.765440
 20
3.083520
 11
7.386720
 21
3.439480
 12
6.826160
 22
3.057120
 13
7.447440
 23
3.413520
  0
POLYLINE
  8
0
  6
CONTINUOUS
 66
     1
 40
0.000000
 41
0.000000
  0
VERTEX
  8
0
  6
CONTINUOUS
 10
6.765440
 20
3.083520
  0
VERTEX
  8
0
  6
CONTINUOUS
 10
7.386720
 20
3.439480
  0
VERTEX
  8
0
  6
CONTINUOUS
 10
7.447440
 20
3.413520
  0
VERTEX
  8
0
  6
CONTINUOUS
 10
6.826160
 20
3.057120
  0
VERTEX
  8
0
  6
CONTINUOUS
 10
6.765440
 20
3.083520
  0
SEQEND
  8
0
  0
SOLID
  8
0
 62
    15
 10
6.826160
 20
3.057120
 11
7.447440
 21
3.413520
 12
6.882040
 22
3.028520
 13
7.503320
 23
3.384920
  0
POLYLINE
  8
0
  6
CONTINUOUS
 66
     1
 40
0.000000
 41
0.000000
  0
VERTEX
  8
0
  6
CONTINUOUS
 10
6.826160
 20
3.057120
  0
VERTEX
  8
0
  6
CONTINUOUS
 10
7.447440
 20
3.413520
  0
VERTEX
  8
0
  6
CONTINUOUS
 10
7.503320
 20
3.384920
  0
VERTEX
  8
0
  6
CONTINUOUS
 10
6.882040
 20
3.028520
  0
VERTEX
  8
0
  6
CONTINUOUS
 10
6.826160
 20
3.057120
  0
SEQEND
  8
0
  0
SOLID
  8
0
 62
    15
 10
6.882040
 20
3.028520
 11
7.503320
 21
3.384920
 12
6.980160
 22
2.966040
 13
7.601880
 23
3.322000
  0
POLYLINE
  8
0
  6
CONTINUOUS
 66
     1
 40
0.000000
 41
0.000000
  0
VERTEX
  8
0
  6
CONTINUOUS
 10
6.882040
 20
3.028520
  0
VERTEX
  8
0
  6
CONTINUOUS
 10
7.503320
 20
3.384920
  0
VERTEX
  8
0
  6
CONTINUOUS
 10
7.601880
 20
3.322000
  0
VERTEX
  8
0
  6
CONTINUOUS
 10
6.980160
 20
2.966040
  0
VERTEX
  8
0
  6
CONTINUOUS
 10
6.882040
 20
3.028520
  0
SEQEND
  8
0
  0
SOLID
  8
0
 62
    15
 10
6.980160
 20
2.966040
 11
7.601880
 21
3.322000
 12
7.060680
 22
2.896960
 13
7.682400
 23
3.253360
  0
POLYLINE
  8
0
  6
CONTINUOUS
 66
     1
 40
0.000000
 41
0.000000
  0
VERTEX
  8
0
  6
CONTINUOUS
 10
6.980160
 20
2.966040
  0
VERTEX
  8
0
  6
CONTINUOUS
 10
7.601880
 20
3.322000
  0
VERTEX
  8
0
  6
CONTINUOUS
 10
7.682400
 20
3.253360
  0
VERTEX
  8
0
  6
CONTINUOUS
 10
7.060680
 20
2.896960
  0
VERTEX
  8
0
  6
CONTINUOUS
 10
6.980160
 20
2.966040
  0
SEQEND
  8
0
  0
SOLID
  8
0
 62
    15
 10
7.060680
 20
2.896960
 11
7.682400
 21
3.253360
 12
7.124040
 22
2.823480
 13
7.745320
 23
3.179880
  0
POLYLINE
  8
0
  6
CONTINUOUS
 66
     1
 40
0.000000
 41
0.000000
  0
VERTEX
  8
0
  6
CONTINUOUS
 10
7.060680
 20
2.896960
  0
VERTEX
  8
0
  6
CONTINUOUS
 10
7.682400
 20
3.253360
  0
VERTEX
  8
0
  6
CONTINUOUS
 10
7.745320
 20
3.179880
  0
VERTEX
  8
0
  6
CONTINUOUS
 10
7.124040
 20
2.823480
  0
VERTEX
  8
0
  6
CONTINUOUS
 10
7.060680
 20
2.896960
  0
SEQEND
  8
0
  0
SOLID
  8
0
 62
    15
 10
7.124040
 20
2.823480
 11
7.745320
 21
3.179880
 12
7.170680
 22
2.747800
 13
7.791960
 23
3.104200
  0
POLYLINE
  8
0
  6
CONTINUOUS
 66
     1
 40
0.000000
 41
0.000000
  0
VERTEX
  8
0
  6
CONTINUOUS
 10
7.124040
 20
2.823480
  0
VERTEX
  8
0
  6
CONTINUOUS
 10
7.745320
 20
3.179880
  0
VERTEX
  8
0
  6
CONTINUOUS
 10
7.791960
 20
3.104200
  0
VERTEX
  8
0
  6
CONTINUOUS
 10
7.170680
 20
2.747800
  0
VERTEX
  8
0
  6
CONTINUOUS
 10
7.124040
 20
2.823480
  0
SEQEND
  8
0
  0
SOLID
  8
0
 62
    15
 10
7.170680
 20
2.747800
 11
7.791960
 21
3.104200
 12
7.201040
 22
2.671240
 13
7.822320
 23
3.027640
  0
POLYLINE
  8
0
  6
CONTINUOUS
 66
     1
 40
0.000000
 41
0.000000
  0
VERTEX
  8
0
  6
CONTINUOUS
 10
7.170680
 20
2.747800
  0
VERTEX
  8
0
  6
CONTINUOUS
 10
7.791960
 20
3.104200
  0
VERTEX
  8
0
  6
CONTINUOUS
 10
7.822320
 20
3.027640
  0
VERTEX
  8
0
  6
CONTINUOUS
 10
7.201040
 20
2.671240
  0
VERTEX
  8
0
  6
CONTINUOUS
 10
7.170680
 20
2.747800
  0
SEQEND
  8
0
  0
SOLID
  8
0
 62
    15
 10
7.201040
 20
2.671240
 11
7.822320
 21
3.027640
 12
7.215560
 22
2.596000
 13
7.836840
 23
2.952400
  0
POLYLINE
  8
0
  6
CONTINUOUS
 66
     1
 40
0.000000
 41
0.000000
  0
VERTEX
  8
0
  6
CONTINUOUS
 10
7.201040
 20
2.671240
  0
VERTEX
  8
0
  6
CONTINUOUS
 10
7.822320
 20
3.027640
  0
VERTEX
  8
0
  6
CONTINUOUS
 10
7.836840
 20
2.952400
  0
VERTEX
  8
0
  6
CONTINUOUS
 10
7.215560
 20
2.596000
  0
VERTEX
  8
0
  6
CONTINUOUS
 10
7.201040
 20
2.671240
  0
SEQEND
  8
0
  0
SOLID
  8
0
 62
    15
 10
7.215560
 20
2.596000
 11
7.836840
 21
2.952400
 12
7.215120
 22
2.523840
 13
7.836400
 23
2.879800
  0
POLYLINE
  8
0
  6
CONTINUOUS
 66
     1
 40
0.000000
 41
0.000000
  0
VERTEX
  8
0
  6
CONTINUOUS
 10
7.215560
 20
2.596000
  0
VERTEX
  8
0
  6
CONTINUOUS
 10
7.836840
 20
2.952400
  0
VERTEX
  8
0
  6
CONTINUOUS
 10
7.836400
 20
2.879800
  0
VERTEX
  8
0
  6
CONTINUOUS
 10
7.215120
 20
2.523840
  0
VERTEX
  8
0
  6
CONTINUOUS
 10
7.215560
 20
2.596000
  0
SEQEND
  8
0
  0
SOLID
  8
0
 62
    15
 10
7.215120
 20
2.523840
 11
7.836400
 21
2.879800
 12
7.200160
 22
2.456080
 13
7.821440
 23
2.812480
  0
POLYLINE
  8
0
  6
CONTINUOUS
 66
     1
 40
0.000000
 41
0.000000
  0
VERTEX
  8
0
  6
CONTINUOUS
 10
7.215120
 20
2.523840
  0
VERTEX
  8
0
  6
CONTINUOUS
 10
7.836400
 20
2.879800
  0
VERTEX
  8
0
  6
CONTINUOUS
 10
7.821440
 20
2.812480
  0
VERTEX
  8
0
  6
CONTINUOUS
 10
7.200160
 20
2.456080
  0
VERTEX
  8
0
  6
CONTINUOUS
 10
7.215120
 20
2.523840
  0
SEQEND
  8
0
  0
SOLID
  8
0
 62
    15
 10
6.924720
 20
2.254560
 11
7.546440
 21
2.610520
 12
6.968280
 22
2.239160
 13
7.589560
 23
2.595120
  0
POLYLINE
  8
0
  6
CONTINUOUS
 66
     1
 40
0.000000
 41
0.000000
  0
VERTEX
  8
0
  6
CONTINUOUS
 10
6.924720
 20
2.254560
  0
VERTEX
  8
0
  6
CONTINUOUS
 10
7.546440
 20
2.610520
  0
VERTEX
  8
0
  6
CONTINUOUS
 10
7.589560
 20
2.595120
  0
VERTEX
  8
0
  6
CONTINUOUS
 10
6.968280
 20
2.239160
  0
VERTEX
  8
0
  6
CONTINUOUS
 10
6.924720
 20
2.254560
  0
SEQEND
  8
0
  0
SOLID
  8
0
 62
    15
 10
7.171120
 20
2.395360
 11
7.792400
 21
2.751320
 12
7.128440
 22
2.342560
 13
7.749720
 23
2.698960
  0
POLYLINE
  8
0
  6
CONTINUOUS
 66
     1
 40
0.000000
 41
0.000000
  0
VERTEX
  8
0
  6
CONTINUOUS
 10
7.171120
 20
2.395360
  0
VERTEX
  8
0
  6
CONTINUOUS
 10
7.792400
 20
2.751320
  0
VERTEX
  8
0
  6
CONTINUOUS
 10
7.749720
 20
2.698960
  0
VERTEX
  8
0
  6
CONTINUOUS
 10
7.128440
 20
2.342560
  0
VERTEX
  8
0
  6
CONTINUOUS
 10
7.171120
 20
2.395360
  0
SEQEND
  8
0
  0
SOLID
  8
0
 62
    15
 10
7.128440
 20
2.342560
 11
7.749720
 21
2.698960
 12
7.073000
 22
2.300760
 13
7.694280
 23
2.656720
  0
POLYLINE
  8
0
  6
CONTINUOUS
 66
     1
 40
0.000000
 41
0.000000
  0
VERTEX
  8
0
  6
CONTINUOUS
 10
7.128440
 20
2.342560
  0
VERTEX
  8
0
  6
CONTINUOUS
 10
7.749720
 20
2.698960
  0
VERTEX
  8
0
  6
CONTINUOUS
 10
7.694280
 20
2.656720
  0
VERTEX
  8
0
  6
CONTINUOUS
 10
7.073000
 20
2.300760
  0
VERTEX
  8
0
  6
CONTINUOUS
 10
7.128440
 20
2.342560
  0
SEQEND
  8
0
  0
SOLID
  8
0
 62
    15
 10
7.200160
 20
2.456080
 11
7.821440
 21
2.812480
 12
7.171120
 22
2.395360
 13
7.792400
 23
2.751320
  0
POLYLINE
  8
0
  6
CONTINUOUS
 66
     1
 40
0.000000
 41
0.000000
  0
VERTEX
  8
0
  6
CONTINUOUS
 10
7.200160
 20
2.456080
  0
VERTEX
  8
0
  6
CONTINUOUS
 10
7.821440
 20
2.812480
  0
VERTEX
  8
0
  6
CONTINUOUS
 10
7.792400
 20
2.751320
  0
VERTEX
  8
0
  6
CONTINUOUS
 10
7.171120
 20
2.395360
  0
VERTEX
  8
0
  6
CONTINUOUS
 10
7.200160
 20
2.456080
  0
SEQEND
  8
0
  0
SOLID
  8
0
 62
    15
 10
6.968280
 20
2.239160
 11
7.589560
 21
2.595120
 12
7.007880
 22
2.217600
 13
7.629600
 23
2.574000
  0
POLYLINE
  8
0
  6
CONTINUOUS
 66
     1
 40
0.000000
 41
0.000000
  0
VERTEX
  8
0
  6
CONTINUOUS
 10
6.968280
 20
2.239160
  0
VERTEX
  8
0
  6
CONTINUOUS
 10
7.589560
 20
2.595120
  0
VERTEX
  8
0
  6
CONTINUOUS
 10
7.629600
 20
2.574000
  0
VERTEX
  8
0
  6
CONTINUOUS
 10
7.007880
 20
2.217600
  0
VERTEX
  8
0
  6
CONTINUOUS
 10
6.968280
 20
2.239160
  0
SEQEND
  8
0
  0
SOLID
  8
0
 62
    15
 10
7.007880
 20
2.217600
 11
7.629600
 21
2.574000
 12
7.043520
 22
2.191640
 13
7.664800
 23
2.548040
  0
POLYLINE
  8
0
  6
CONTINUOUS
 66
     1
 40
0.000000
 41
0.000000
  0
VERTEX
  8
0
  6
CONTINUOUS
 10
7.007880
 20
2.217600
  0
VERTEX
  8
0
  6
CONTINUOUS
 10
7.629600
 20
2.574000
  0
VERTEX
  8
0
  6
CONTINUOUS
 10
7.664800
 20
2.548040
  0
VERTEX
  8
0
  6
CONTINUOUS
 10
7.043520
 20
2.191640
  0
VERTEX
  8
0
  6
CONTINUOUS
 10
7.007880
 20
2.217600
  0
SEQEND
  8
0
  0
SOLID
  8
0
 62
    15
 10
7.043520
 20
2.191640
 11
7.664800
 21
2.548040
 12
7.073000
 22
2.163040
 13
7.694280
 23
2.519440
  0
POLYLINE
  8
0
  6
CONTINUOUS
 66
     1
 40
0.000000
 41
0.000000
  0
VERTEX
  8
0
  6
CONTINUOUS
 10
7.043520
 20
2.191640
  0
VERTEX
  8
0
  6
CONTINUOUS
 10
7.664800
 20
2.548040
  0
VERTEX
  8
0
  6
CONTINUOUS
 10
7.694280
 20
2.519440
  0
VERTEX
  8
0
  6
CONTINUOUS
 10
7.073000
 20
2.163040
  0
VERTEX
  8
0
  6
CONTINUOUS
 10
7.043520
 20
2.191640
  0
SEQEND
  8
0
  0
SOLID
  8
0
 62
    15
 10
7.073000
 20
2.163040
 11
7.694280
 21
2.519440
 12
7.095000
 22
2.132680
 13
7.716720
 23
2.489080
  0
POLYLINE
  8
0
  6
CONTINUOUS
 66
     1
 40
0.000000
 41
0.000000
  0
VERTEX
  8
0
  6
CONTINUOUS
 10
7.073000
 20
2.163040
  0
VERTEX
  8
0
  6
CONTINUOUS
 10
7.694280
 20
2.519440
  0
VERTEX
  8
0
  6
CONTINUOUS
 10
7.716720
 20
2.489080
  0
VERTEX
  8
0
  6
CONTINUOUS
 10
7.095000
 20
2.132680
  0
VERTEX
  8
0
  6
CONTINUOUS
 10
7.073000
 20
2.163040
  0
SEQEND
  8
0
  0
SOLID
  8
0
 62
    15
 10
7.095000
 20
2.132680
 11
7.716720
 21
2.489080
 12
7.109080
 22
2.103200
 13
7.730360
 23
2.459600
  0
POLYLINE
  8
0
  6
CONTINUOUS
 66
     1
 40
0.000000
 41
0.000000
  0
VERTEX
  8
0
  6
CONTINUOUS
 10
7.095000
 20
2.132680
  0
VERTEX
  8
0
  6
CONTINUOUS
 10
7.716720
 20
2.489080
  0
VERTEX
  8
0
  6
CONTINUOUS
 10
7.730360
 20
2.459600
  0
VERTEX
  8
0
  6
CONTINUOUS
 10
7.109080
 20
2.103200
  0
VERTEX
  8
0
  6
CONTINUOUS
 10
7.095000
 20
2.132680
  0
SEQEND
  8
0
  0
SOLID
  8
0
 62
    15
 10
7.021080
 20
2.023560
 11
7.642360
 21
2.379960
 12
6.981040
 22
1.995840
 13
7.602760
 23
2.352240
  0
POLYLINE
  8
0
  6
CONTINUOUS
 66
     1
 40
0.000000
 41
0.000000
  0
VERTEX
  8
0
  6
CONTINUOUS
 10
7.021080
 20
2.023560
  0
VERTEX
  8
0
  6
CONTINUOUS
 10
7.642360
 20
2.379960
  0
VERTEX
  8
0
  6
CONTINUOUS
 10
7.602760
 20
2.352240
  0
VERTEX
  8
0
  6
CONTINUOUS
 10
6.981040
 20
1.995840
  0
VERTEX
  8
0
  6
CONTINUOUS
 10
7.021080
 20
2.023560
  0
SEQEND
  8
0
  0
SOLID
  8
0
 62
    15
 10
6.981040
 20
1.995840
 11
7.602760
 21
2.352240
 12
6.944960
 22
1.960640
 13
7.566680
 23
2.317040
  0
POLYLINE
  8
0
  6
CONTINUOUS
 66
     1
 40
0.000000
 41
0.000000
  0
VERTEX
  8
0
  6
CONTINUOUS
 10
6.981040
 20
1.995840
  0
VERTEX
  8
0
  6
CONTINUOUS
 10
7.602760
 20
2.352240
  0
VERTEX
  8
0
  6
CONTINUOUS
 10
7.566680
 20
2.317040
  0
VERTEX
  8
0
  6
CONTINUOUS
 10
6.944960
 20
1.960640
  0
VERTEX
  8
0
  6
CONTINUOUS
 10
6.981040
 20
1.995840
  0
SEQEND
  8
0
  0
SOLID
  8
0
 62
    15
 10
7.109080
 20
2.103200
 11
7.730360
 21
2.459600
 12
7.113040
 22
2.075040
 13
7.734760
 23
2.431440
  0
POLYLINE
  8
0
  6
CONTINUOUS
 66
     1
 40
0.000000
 41
0.000000
  0
VERTEX
  8
0
  6
CONTINUOUS
 10
7.109080
 20
2.103200
  0
VERTEX
  8
0
  6
CONTINUOUS
 10
7.730360
 20
2.459600
  0
VERTEX
  8
0
  6
CONTINUOUS
 10
7.734760
 20
2.431440
  0
VERTEX
  8
0
  6
CONTINUOUS
 10
7.113040
 20
2.075040
  0
VERTEX
  8
0
  6
CONTINUOUS
 10
7.109080
 20
2.103200
  0
SEQEND
  8
0
  0
SOLID
  8
0
 62
    15
 10
6.944960
 20
1.960640
 11
7.566680
 21
2.317040
 12
6.914160
 22
1.919280
 13
7.535440
 23
2.275680
  0
POLYLINE
  8
0
  6
CONTINUOUS
 66
     1
 40
0.000000
 41
0.000000
  0
VERTEX
  8
0
  6
CONTINUOUS
 10
6.944960
 20
1.960640
  0
VERTEX
  8
0
  6
CONTINUOUS
 10
7.566680
 20
2.317040
  0
VERTEX
  8
0
  6
CONTINUOUS
 10
7.535440
 20
2.275680
  0
VERTEX
  8
0
  6
CONTINUOUS
 10
6.914160
 20
1.919280
  0
VERTEX
  8
0
  6
CONTINUOUS
 10
6.944960
 20
1.960640
  0
SEQEND
  8
0
  0
SOLID
  8
0
 62
    15
 10
7.113040
 20
2.075040
 11
7.734760
 21
2.431440
 12
7.106440
 22
2.050840
 13
7.727720
 23
2.407240
  0
POLYLINE
  8
0
  6
CONTINUOUS
 66
     1
 40
0.000000
 41
0.000000
  0
VERTEX
  8
0
  6
CONTINUOUS
 10
7.113040
 20
2.075040
  0
VERTEX
  8
0
  6
CONTINUOUS
 10
7.734760
 20
2.431440
  0
VERTEX
  8
0
  6
CONTINUOUS
 10
7.727720
 20
2.407240
  0
VERTEX
  8
0
  6
CONTINUOUS
 10
7.106440
 20
2.050840
  0
VERTEX
  8
0
  6
CONTINUOUS
 10
7.113040
 20
2.075040
  0
SEQEND
  8
0
  0
SOLID
  8
0
 62
    15
 10
6.474600
 20
3.161400
 11
7.096320
 21
3.517800
 12
6.554680
 22
3.146440
 13
7.175960
 23
3.502840
  0
POLYLINE
  8
0
  6
CONTINUOUS
 66
     1
 40
0.000000
 41
0.000000
  0
VERTEX
  8
0
  6
CONTINUOUS
 10
6.474600
 20
3.161400
  0
VERTEX
  8
0
  6
CONTINUOUS
 10
7.096320
 20
3.517800
  0
VERTEX
  8
0
  6
CONTINUOUS
 10
7.175960
 20
3.502840
  0
VERTEX
  8
0
  6
CONTINUOUS
 10
6.554680
 20
3.146440
  0
VERTEX
  8
0
  6
CONTINUOUS
 10
6.474600
 20
3.161400
  0
SEQEND
  8
0
  0
SOLID
  8
0
 62
    15
 10
6.889080
 20
1.873960
 11
7.510360
 21
2.230360
 12
6.871920
 22
1.825120
 13
7.493200
 23
2.181520
  0
POLYLINE
  8
0
  6
CONTINUOUS
 66
     1
 40
0.000000
 41
0.000000
  0
VERTEX
  8
0
  6
CONTINUOUS
 10
6.889080
 20
1.873960
  0
VERTEX
  8
0
  6
CONTINUOUS
 10
7.510360
 20
2.230360
  0
VERTEX
  8
0
  6
CONTINUOUS
 10
7.493200
 20
2.181520
  0
VERTEX
  8
0
  6
CONTINUOUS
 10
6.871920
 20
1.825120
  0
VERTEX
  8
0
  6
CONTINUOUS
 10
6.889080
 20
1.873960
  0
SEQEND
  8
0
  0
SOLID
  8
0
 62
    15
 10
6.871920
 20
1.825120
 11
7.493200
 21
2.181520
 12
6.864000
 22
1.774960
 13
7.485280
 23
2.131360
  0
POLYLINE
  8
0
  6
CONTINUOUS
 66
     1
 40
0.000000
 41
0.000000
  0
VERTEX
  8
0
  6
CONTINUOUS
 10
6.871920
 20
1.825120
  0
VERTEX
  8
0
  6
CONTINUOUS
 10
7.493200
 20
2.181520
  0
VERTEX
  8
0
  6
CONTINUOUS
 10
7.485280
 20
2.131360
  0
VERTEX
  8
0
  6
CONTINUOUS
 10
6.864000
 20
1.774960
  0
VERTEX
  8
0
  6
CONTINUOUS
 10
6.871920
 20
1.825120
  0
SEQEND
  8
0
  0
SOLID
  8
0
 62
    15
 10
6.864000
 20
1.774960
 11
7.485280
 21
2.131360
 12
6.865760
 22
1.724800
 13
7.487480
 23
2.081200
  0
POLYLINE
  8
0
  6
CONTINUOUS
 66
     1
 40
0.000000
 41
0.000000
  0
VERTEX
  8
0
  6
CONTINUOUS
 10
6.864000
 20
1.774960
  0
VERTEX
  8
0
  6
CONTINUOUS
 10
7.485280
 20
2.131360
  0
VERTEX
  8
0
  6
CONTINUOUS
 10
7.487480
 20
2.081200
  0
VERTEX
  8
0
  6
CONTINUOUS
 10
6.865760
 20
1.724800
  0
VERTEX
  8
0
  6
CONTINUOUS
 10
6.864000
 20
1.774960
  0
SEQEND
  8
0
  0
SOLID
  8
0
 62
    15
 10
6.865760
 20
1.724800
 11
7.487480
 21
2.081200
 12
6.879840
 22
1.676400
 13
7.501120
 23
2.032800
  0
POLYLINE
  8
0
  6
CONTINUOUS
 66
     1
 40
0.000000
 41
0.000000
  0
VERTEX
  8
0
  6
CONTINUOUS
 10
6.865760
 20
1.724800
  0
VERTEX
  8
0
  6
CONTINUOUS
 10
7.487480
 20
2.081200
  0
VERTEX
  8
0
  6
CONTINUOUS
 10
7.501120
 20
2.032800
  0
VERTEX
  8
0
  6
CONTINUOUS
 10
6.879840
 20
1.676400
  0
VERTEX
  8
0
  6
CONTINUOUS
 10
6.865760
 20
1.724800
  0
SEQEND
  8
0
  0
SOLID
  8
0
 62
    15
 10
6.879840
 20
1.676400
 11
7.501120
 21
2.032800
 12
6.906240
 22
1.630640
 13
7.527520
 23
1.987040
  0
POLYLINE
  8
0
  6
CONTINUOUS
 66
     1
 40
0.000000
 41
0.000000
  0
VERTEX
  8
0
  6
CONTINUOUS
 10
6.879840
 20
1.676400
  0
VERTEX
  8
0
  6
CONTINUOUS
 10
7.501120
 20
2.032800
  0
VERTEX
  8
0
  6
CONTINUOUS
 10
7.527520
 20
1.987040
  0
VERTEX
  8
0
  6
CONTINUOUS
 10
6.906240
 20
1.630640
  0
VERTEX
  8
0
  6
CONTINUOUS
 10
6.879840
 20
1.676400
  0
SEQEND
  8
0
  0
SOLID
  8
0
 62
    15
 10
6.906240
 20
1.630640
 11
7.527520
 21
1.987040
 12
6.947160
 22
1.589720
 13
7.568880
 23
1.945680
  0
POLYLINE
  8
0
  6
CONTINUOUS
 66
     1
 40
0.000000
 41
0.000000
  0
VERTEX
  8
0
  6
CONTINUOUS
 10
6.906240
 20
1.630640
  0
VERTEX
  8
0
  6
CONTINUOUS
 10
7.527520
 20
1.987040
  0
VERTEX
  8
0
  6
CONTINUOUS
 10
7.568880
 20
1.945680
  0
VERTEX
  8
0
  6
CONTINUOUS
 10
6.947160
 20
1.589720
  0
VERTEX
  8
0
  6
CONTINUOUS
 10
6.906240
 20
1.630640
  0
SEQEND
  8
0
  0
SOLID
  8
0
 62
    15
 10
6.947160
 20
1.589720
 11
7.568880
 21
1.945680
 12
7.003920
 22
1.554520
 13
7.625200
 23
1.910480
  0
POLYLINE
  8
0
  6
CONTINUOUS
 66
     1
 40
0.000000
 41
0.000000
  0
VERTEX
  8
0
  6
CONTINUOUS
 10
6.947160
 20
1.589720
  0
VERTEX
  8
0
  6
CONTINUOUS
 10
7.568880
 20
1.945680
  0
VERTEX
  8
0
  6
CONTINUOUS
 10
7.625200
 20
1.910480
  0
VERTEX
  8
0
  6
CONTINUOUS
 10
7.003920
 20
1.554520
  0
VERTEX
  8
0
  6
CONTINUOUS
 10
6.947160
 20
1.589720
  0
SEQEND
  8
0
  0
SOLID
  8
0
 62
    15
 10
7.003920
 20
1.554520
 11
7.625200
 21
1.910480
 12
7.077400
 22
1.526800
 13
7.698680
 23
1.882760
  0
POLYLINE
  8
0
  6
CONTINUOUS
 66
     1
 40
0.000000
 41
0.000000
  0
VERTEX
  8
0
  6
CONTINUOUS
 10
7.003920
 20
1.554520
  0
VERTEX
  8
0
  6
CONTINUOUS
 10
7.625200
 20
1.910480
  0
VERTEX
  8
0
  6
CONTINUOUS
 10
7.698680
 20
1.882760
  0
VERTEX
  8
0
  6
CONTINUOUS
 10
7.077400
 20
1.526800
  0
VERTEX
  8
0
  6
CONTINUOUS
 10
7.003920
 20
1.554520
  0
SEQEND
  8
0
  0
SOLID
  8
0
 62
    15
 10
7.077400
 20
1.526800
 11
7.698680
 21
1.882760
 12
7.120960
 22
1.515800
 13
7.742240
 23
1.872200
  0
POLYLINE
  8
0
  6
CONTINUOUS
 66
     1
 40
0.000000
 41
0.000000
  0
VERTEX
  8
0
  6
CONTINUOUS
 10
7.077400
 20
1.526800
  0
VERTEX
  8
0
  6
CONTINUOUS
 10
7.698680
 20
1.882760
  0
VERTEX
  8
0
  6
CONTINUOUS
 10
7.742240
 20
1.872200
  0
VERTEX
  8
0
  6
CONTINUOUS
 10
7.120960
 20
1.515800
  0
VERTEX
  8
0
  6
CONTINUOUS
 10
7.077400
 20
1.526800
  0
SEQEND
  8
0
  0
SOLID
  8
0
 62
    15
 10
7.120960
 20
1.515800
 11
7.742240
 21
1.872200
 12
7.169360
 22
1.507880
 13
7.790640
 23
1.864280
  0
POLYLINE
  8
0
  6
CONTINUOUS
 66
     1
 40
0.000000
 41
0.000000
  0
VERTEX
  8
0
  6
CONTINUOUS
 10
7.120960
 20
1.515800
  0
VERTEX
  8
0
  6
CONTINUOUS
 10
7.742240
 20
1.872200
  0
VERTEX
  8
0
  6
CONTINUOUS
 10
7.790640
 20
1.864280
  0
VERTEX
  8
0
  6
CONTINUOUS
 10
7.169360
 20
1.507880
  0
VERTEX
  8
0
  6
CONTINUOUS
 10
7.120960
 20
1.515800
  0
SEQEND
  8
0
  0
SOLID
  8
0
 62
    15
 10
7.169360
 20
1.507880
 11
7.790640
 21
1.864280
 12
7.222600
 22
1.502160
 13
7.843880
 23
1.858560
  0
POLYLINE
  8
0
  6
CONTINUOUS
 66
     1
 40
0.000000
 41
0.000000
  0
VERTEX
  8
0
  6
CONTINUOUS
 10
7.169360
 20
1.507880
  0
VERTEX
  8
0
  6
CONTINUOUS
 10
7.790640
 20
1.864280
  0
VERTEX
  8
0
  6
CONTINUOUS
 10
7.843880
 20
1.858560
  0
VERTEX
  8
0
  6
CONTINUOUS
 10
7.222600
 20
1.502160
  0
VERTEX
  8
0
  6
CONTINUOUS
 10
7.169360
 20
1.507880
  0
SEQEND
  8
0
  0
SOLID
  8
0
 62
    15
 10
7.222600
 20
1.502160
 11
7.843880
 21
1.858560
 12
7.280680
 22
1.499520
 13
7.901960
 23
1.855920
  0
POLYLINE
  8
0
  6
CONTINUOUS
 66
     1
 40
0.000000
 41
0.000000
  0
VERTEX
  8
0
  6
CONTINUOUS
 10
7.222600
 20
1.502160
  0
VERTEX
  8
0
  6
CONTINUOUS
 10
7.843880
 20
1.858560
  0
VERTEX
  8
0
  6
CONTINUOUS
 10
7.901960
 20
1.855920
  0
VERTEX
  8
0
  6
CONTINUOUS
 10
7.280680
 20
1.499520
  0
VERTEX
  8
0
  6
CONTINUOUS
 10
7.222600
 20
1.502160
  0
SEQEND
  8
0
  0
SOLID
  8
0
 62
    15
 10
7.280680
 20
1.499520
 11
7.901960
 21
1.855920
 12
7.280680
 22
1.387320
 13
7.901960
 23
1.743720
  0
POLYLINE
  8
0
  6
CONTINUOUS
 66
     1
 40
0.000000
 41
0.000000
  0
VERTEX
  8
0
  6
CONTINUOUS
 10
7.280680
 20
1.499520
  0
VERTEX
  8
0
  6
CONTINUOUS
 10
7.901960
 20
1.855920
  0
VERTEX
  8
0
  6
CONTINUOUS
 10
7.901960
 20
1.743720
  0
VERTEX
  8
0
  6
CONTINUOUS
 10
7.280680
 20
1.387320
  0
VERTEX
  8
0
  6
CONTINUOUS
 10
7.280680
 20
1.499520
  0
SEQEND
  8
0
  0
SOLID
  8
0
 62
    15
 10
7.281120
 20
1.389520
 11
7.902400
 21
1.745920
 12
7.294320
 22
1.389520
 13
7.915600
 23
1.745920
  0
POLYLINE
  8
0
  6
CONTINUOUS
 66
     1
 40
0.000000
 41
0.000000
  0
VERTEX
  8
0
  6
CONTINUOUS
 10
7.281120
 20
1.389520
  0
VERTEX
  8
0
  6
CONTINUOUS
 10
7.902400
 20
1.745920
  0
VERTEX
  8
0
  6
CONTINUOUS
 10
7.915600
 20
1.745920
  0
VERTEX
  8
0
  6
CONTINUOUS
 10
7.294320
 20
1.389520
  0
VERTEX
  8
0
  6
CONTINUOUS
 10
7.281120
 20
1.389520
  0
SEQEND
  8
0
  0
SOLID
  8
0
 62
    15
 10
7.294320
 20
1.389520
 11
7.915600
 21
1.745920
 12
7.344040
 22
1.384680
 13
7.965760
 23
1.741080
  0
POLYLINE
  8
0
  6
CONTINUOUS
 66
     1
 40
0.000000
 41
0.000000
  0
VERTEX
  8
0
  6
CONTINUOUS
 10
7.294320
 20
1.389520
  0
VERTEX
  8
0
  6
CONTINUOUS
 10
7.915600
 20
1.745920
  0
VERTEX
  8
0
  6
CONTINUOUS
 10
7.965760
 20
1.741080
  0
VERTEX
  8
0
  6
CONTINUOUS
 10
7.344040
 20
1.384680
  0
VERTEX
  8
0
  6
CONTINUOUS
 10
7.294320
 20
1.389520
  0
SEQEND
  8
0
  0
SOLID
  8
0
 62
    15
 10
7.344040
 20
1.384680
 11
7.965760
 21
1.741080
 12
7.390680
 22
1.370160
 13
8.011960
 23
1.726560
  0
POLYLINE
  8
0
  6
CONTINUOUS
 66
     1
 40
0.000000
 41
0.000000
  0
VERTEX
  8
0
  6
CONTINUOUS
 10
7.344040
 20
1.384680
  0
VERTEX
  8
0
  6
CONTINUOUS
 10
7.965760
 20
1.741080
  0
VERTEX
  8
0
  6
CONTINUOUS
 10
8.011960
 20
1.726560
  0
VERTEX
  8
0
  6
CONTINUOUS
 10
7.390680
 20
1.370160
  0
VERTEX
  8
0
  6
CONTINUOUS
 10
7.344040
 20
1.384680
  0
SEQEND
  8
0
  0
SOLID
  8
0
 62
    15
 10
7.390680
 20
1.370160
 11
8.011960
 21
1.726560
 12
7.432920
 22
1.347280
 13
8.054200
 23
1.703680
  0
POLYLINE
  8
0
  6
CONTINUOUS
 66
     1
 40
0.000000
 41
0.000000
  0
VERTEX
  8
0
  6
CONTINUOUS
 10
7.390680
 20
1.370160
  0
VERTEX
  8
0
  6
CONTINUOUS
 10
8.011960
 20
1.726560
  0
VERTEX
  8
0
  6
CONTINUOUS
 10
8.054200
 20
1.703680
  0
VERTEX
  8
0
  6
CONTINUOUS
 10
7.432920
 20
1.347280
  0
VERTEX
  8
0
  6
CONTINUOUS
 10
7.390680
 20
1.370160
  0
SEQEND
  8
0
  0
SOLID
  8
0
 62
    15
 10
7.432920
 20
1.347280
 11
8.054200
 21
1.703680
 12
7.469440
 22
1.316920
 13
8.090720
 23
1.673320
  0
POLYLINE
  8
0
  6
CONTINUOUS
 66
     1
 40
0.000000
 41
0.000000
  0
VERTEX
  8
0
  6
CONTINUOUS
 10
7.432920
 20
1.347280
  0
VERTEX
  8
0
  6
CONTINUOUS
 10
8.054200
 20
1.703680
  0
VERTEX
  8
0
  6
CONTINUOUS
 10
8.090720
 20
1.673320
  0
VERTEX
  8
0
  6
CONTINUOUS
 10
7.469440
 20
1.316920
  0
VERTEX
  8
0
  6
CONTINUOUS
 10
7.432920
 20
1.347280
  0
SEQEND
  8
0
  0
SOLID
  8
0
 62
    15
 10
7.469440
 20
1.316920
 11
8.090720
 21
1.673320
 12
7.499800
 22
1.280400
 13
8.121080
 23
1.636800
  0
POLYLINE
  8
0
  6
CONTINUOUS
 66
     1
 40
0.000000
 41
0.000000
  0
VERTEX
  8
0
  6
CONTINUOUS
 10
7.469440
 20
1.316920
  0
VERTEX
  8
0
  6
CONTINUOUS
 10
8.090720
 20
1.673320
  0
VERTEX
  8
0
  6
CONTINUOUS
 10
8.121080
 20
1.636800
  0
VERTEX
  8
0
  6
CONTINUOUS
 10
7.499800
 20
1.280400
  0
VERTEX
  8
0
  6
CONTINUOUS
 10
7.469440
 20
1.316920
  0
SEQEND
  8
0
  0
SOLID
  8
0
 62
    15
 10
7.499800
 20
1.280400
 11
8.121080
 21
1.636800
 12
7.522680
 22
1.238160
 13
8.143960
 23
1.594560
  0
POLYLINE
  8
0
  6
CONTINUOUS
 66
     1
 40
0.000000
 41
0.000000
  0
VERTEX
  8
0
  6
CONTINUOUS
 10
7.499800
 20
1.280400
  0
VERTEX
  8
0
  6
CONTINUOUS
 10
8.121080
 20
1.636800
  0
VERTEX
  8
0
  6
CONTINUOUS
 10
8.143960
 20
1.594560
  0
VERTEX
  8
0
  6
CONTINUOUS
 10
7.522680
 20
1.238160
  0
VERTEX
  8
0
  6
CONTINUOUS
 10
7.499800
 20
1.280400
  0
SEQEND
  8
0
  0
SOLID
  8
0
 62
    15
 10
7.522680
 20
1.238160
 11
8.143960
 21
1.594560
 12
7.537200
 22
1.191960
 13
8.158480
 23
1.547920
  0
POLYLINE
  8
0
  6
CONTINUOUS
 66
     1
 40
0.000000
 41
0.000000
  0
VERTEX
  8
0
  6
CONTINUOUS
 10
7.522680
 20
1.238160
  0
VERTEX
  8
0
  6
CONTINUOUS
 10
8.143960
 20
1.594560
  0
VERTEX
  8
0
  6
CONTINUOUS
 10
8.158480
 20
1.547920
  0
VERTEX
  8
0
  6
CONTINUOUS
 10
7.537200
 20
1.191960
  0
VERTEX
  8
0
  6
CONTINUOUS
 10
7.522680
 20
1.238160
  0
SEQEND
  8
0
  0
SOLID
  8
0
 62
    15
 10
7.537200
 20
1.191960
 11
8.158480
 21
1.547920
 12
7.542040
 22
1.141800
 13
8.163320
 23
1.498200
  0
POLYLINE
  8
0
  6
CONTINUOUS
 66
     1
 40
0.000000
 41
0.000000
  0
VERTEX
  8
0
  6
CONTINUOUS
 10
7.537200
 20
1.191960
  0
VERTEX
  8
0
  6
CONTINUOUS
 10
8.158480
 20
1.547920
  0
VERTEX
  8
0
  6
CONTINUOUS
 10
8.163320
 20
1.498200
  0
VERTEX
  8
0
  6
CONTINUOUS
 10
7.542040
 20
1.141800
  0
VERTEX
  8
0
  6
CONTINUOUS
 10
7.537200
 20
1.191960
  0
SEQEND
  8
0
  0
SOLID
  8
0
 62
    15
 10
7.542040
 20
1.141800
 11
8.163320
 21
1.498200
 12
7.537200
 22
1.092080
 13
8.158480
 23
1.448040
  0
POLYLINE
  8
0
  6
CONTINUOUS
 66
     1
 40
0.000000
 41
0.000000
  0
VERTEX
  8
0
  6
CONTINUOUS
 10
7.542040
 20
1.141800
  0
VERTEX
  8
0
  6
CONTINUOUS
 10
8.163320
 20
1.498200
  0
VERTEX
  8
0
  6
CONTINUOUS
 10
8.158480
 20
1.448040
  0
VERTEX
  8
0
  6
CONTINUOUS
 10
7.537200
 20
1.092080
  0
VERTEX
  8
0
  6
CONTINUOUS
 10
7.542040
 20
1.141800
  0
SEQEND
  8
0
  0
SOLID
  8
0
 62
    15
 10
7.537200
 20
1.092080
 11
8.158480
 21
1.448040
 12
7.522680
 22
1.045440
 13
8.143960
 23
1.401840
  0
POLYLINE
  8
0
  6
CONTINUOUS
 66
     1
 40
0.000000
 41
0.000000
  0
VERTEX
  8
0
  6
CONTINUOUS
 10
7.537200
 20
1.092080
  0
VERTEX
  8
0
  6
CONTINUOUS
 10
8.158480
 20
1.448040
  0
VERTEX
  8
0
  6
CONTINUOUS
 10
8.143960
 20
1.401840
  0
VERTEX
  8
0
  6
CONTINUOUS
 10
7.522680
 20
1.045440
  0
VERTEX
  8
0
  6
CONTINUOUS
 10
7.537200
 20
1.092080
  0
SEQEND
  8
0
  0
SOLID
  8
0
 62
    15
 10
7.522680
 20
1.045440
 11
8.143960
 21
1.401840
 12
7.499800
 22
1.003200
 13
8.121080
 23
1.359600
  0
POLYLINE
  8
0
  6
CONTINUOUS
 66
     1
 40
0.000000
 41
0.000000
  0
VERTEX
  8
0
  6
CONTINUOUS
 10
7.522680
 20
1.045440
  0
VERTEX
  8
0
  6
CONTINUOUS
 10
8.143960
 20
1.401840
  0
VERTEX
  8
0
  6
CONTINUOUS
 10
8.121080
 20
1.359600
  0
VERTEX
  8
0
  6
CONTINUOUS
 10
7.499800
 20
1.003200
  0
VERTEX
  8
0
  6
CONTINUOUS
 10
7.522680
 20
1.045440
  0
SEQEND
  8
0
  0
SOLID
  8
0
 62
    15
 10
7.499800
 20
1.003200
 11
8.121080
 21
1.359600
 12
7.469440
 22
0.966680
 13
8.090720
 23
1.323080
  0
POLYLINE
  8
0
  6
CONTINUOUS
 66
     1
 40
0.000000
 41
0.000000
  0
VERTEX
  8
0
  6
CONTINUOUS
 10
7.499800
 20
1.003200
  0
VERTEX
  8
0
  6
CONTINUOUS
 10
8.121080
 20
1.359600
  0
VERTEX
  8
0
  6
CONTINUOUS
 10
8.090720
 20
1.323080
  0
VERTEX
  8
0
  6
CONTINUOUS
 10
7.469440
 20
0.966680
  0
VERTEX
  8
0
  6
CONTINUOUS
 10
7.499800
 20
1.003200
  0
SEQEND
  8
0
  0
SOLID
  8
0
 62
    15
 10
7.469440
 20
0.966680
 11
8.090720
 21
1.323080
 12
7.432920
 22
0.936320
 13
8.054200
 23
1.292720
  0
POLYLINE
  8
0
  6
CONTINUOUS
 66
     1
 40
0.000000
 41
0.000000
  0
VERTEX
  8
0
  6
CONTINUOUS
 10
7.469440
 20
0.966680
  0
VERTEX
  8
0
  6
CONTINUOUS
 10
8.090720
 20
1.323080
  0
VERTEX
  8
0
  6
CONTINUOUS
 10
8.054200
 20
1.292720
  0
VERTEX
  8
0
  6
CONTINUOUS
 10
7.432920
 20
0.936320
  0
VERTEX
  8
0
  6
CONTINUOUS
 10
7.469440
 20
0.966680
  0
SEQEND
  8
0
  0
SOLID
  8
0
 62
    15
 10
6.476800
 20
0.894080
 11
7.098080
 21
1.250480
 12
6.474600
 22
0.892760
 13
7.096320
 23
1.248720
  0
POLYLINE
  8
0
  6
CONTINUOUS
 66
     1
 40
0.000000
 41
0.000000
  0
VERTEX
  8
0
  6
CONTINUOUS
 10
6.476800
 20
0.894080
  0
VERTEX
  8
0
  6
CONTINUOUS
 10
7.098080
 20
1.250480
  0
VERTEX
  8
0
  6
CONTINUOUS
 10
7.096320
 20
1.248720
  0
VERTEX
  8
0
  6
CONTINUOUS
 10
6.474600
 20
0.892760
  0
VERTEX
  8
0
  6
CONTINUOUS
 10
6.476800
 20
0.894080
  0
SEQEND
  8
0
  0
POLYLINE
  8
0
  6
CONTINUOUS
 66
     1
 40
0.000000
 41
0.000000
  0
VERTEX
  8
0
  6
CONTINUOUS
 10
6.474600
 20
0.892760
  0
VERTEX
  8
0
  6
CONTINUOUS
 10
6.474600
 20
3.161400
  0
VERTEX
  8
0
  6
CONTINUOUS
 10
6.554680
 20
3.146440
  0
VERTEX
  8
0
  6
CONTINUOUS
 10
6.629920
 20
3.128400
  0
VERTEX
  8
0
  6
CONTINUOUS
 10
6.699880
 20
3.107280
  0
VERTEX
  8
0
  6
CONTINUOUS
 10
6.765440
 20
3.083520
  0
VERTEX
  8
0
  6
CONTINUOUS
 10
6.826160
 20
3.057120
  0
VERTEX
  8
0
  6
CONTINUOUS
 10
6.882040
 20
3.028520
  0
VERTEX
  8
0
  6
CONTINUOUS
 10
6.980160
 20
2.966040
  0
VERTEX
  8
0
  6
CONTINUOUS
 10
7.060680
 20
2.896960
  0
VERTEX
  8
0
  6
CONTINUOUS
 10
7.124040
 20
2.823480
  0
VERTEX
  8
0
  6
CONTINUOUS
 10
7.170680
 20
2.747800
  0
VERTEX
  8
0
  6
CONTINUOUS
 10
7.201040
 20
2.671240
  0
VERTEX
  8
0
  6
CONTINUOUS
 10
7.215560
 20
2.596000
  0
VERTEX
  8
0
  6
CONTINUOUS
 10
7.215120
 20
2.523840
  0
VERTEX
  8
0
  6
CONTINUOUS
 10
7.200160
 20
2.456080
  0
VERTEX
  8
0
  6
CONTINUOUS
 10
7.171120
 20
2.395360
  0
VERTEX
  8
0
  6
CONTINUOUS
 10
7.128440
 20
2.342560
  0
VERTEX
  8
0
  6
CONTINUOUS
 10
7.073000
 20
2.300760
  0
VERTEX
  8
0
  6
CONTINUOUS
 10
7.004800
 20
2.270400
  0
VERTEX
  8
0
  6
CONTINUOUS
 10
6.924720
 20
2.254560
  0
VERTEX
  8
0
  6
CONTINUOUS
 10
6.968280
 20
2.239160
  0
VERTEX
  8
0
  6
CONTINUOUS
 10
7.007880
 20
2.217600
  0
VERTEX
  8
0
  6
CONTINUOUS
 10
7.043520
 20
2.191640
  0
VERTEX
  8
0
  6
CONTINUOUS
 10
7.073000
 20
2.163040
  0
VERTEX
  8
0
  6
CONTINUOUS
 10
7.095000
 20
2.132680
  0
VERTEX
  8
0
  6
CONTINUOUS
 10
7.109080
 20
2.103200
  0
VERTEX
  8
0
  6
CONTINUOUS
 10
7.113040
 20
2.075040
  0
VERTEX
  8
0
  6
CONTINUOUS
 10
7.106440
 20
2.050840
  0
VERTEX
  8
0
  6
CONTINUOUS
 10
7.063320
 20
2.042480
  0
VERTEX
  8
0
  6
CONTINUOUS
 10
7.021080
 20
2.023560
  0
VERTEX
  8
0
  6
CONTINUOUS
 10
6.981040
 20
1.995840
  0
VERTEX
  8
0
  6
CONTINUOUS
 10
6.944960
 20
1.960640
  0
VERTEX
  8
0
  6
CONTINUOUS
 10
6.914160
 20
1.919280
  0
VERTEX
  8
0
  6
CONTINUOUS
 10
6.889080
 20
1.873960
  0
VERTEX
  8
0
  6
CONTINUOUS
 10
6.871920
 20
1.825120
  0
VERTEX
  8
0
  6
CONTINUOUS
 10
6.864000
 20
1.774960
  0
VERTEX
  8
0
  6
CONTINUOUS
 10
6.865760
 20
1.724800
  0
VERTEX
  8
0
  6
CONTINUOUS
 10
6.879840
 20
1.676400
  0
VERTEX
  8
0
  6
CONTINUOUS
 10
6.906240
 20
1.630640
  0
VERTEX
  8
0
  6
CONTINUOUS
 10
6.947160
 20
1.589720
  0
VERTEX
  8
0
  6
CONTINUOUS
 10
7.003920
 20
1.554520
  0
VERTEX
  8
0
  6
CONTINUOUS
 10
7.077400
 20
1.526800
  0
VERTEX
  8
0
  6
CONTINUOUS
 10
7.120960
 20
1.515800
  0
VERTEX
  8
0
  6
CONTINUOUS
 10
7.169360
 20
1.507880
  0
VERTEX
  8
0
  6
CONTINUOUS
 10
7.222600
 20
1.502160
  0
VERTEX
  8
0
  6
CONTINUOUS
 10
7.280680
 20
1.499520
  0
VERTEX
  8
0
  6
CONTINUOUS
 10
7.280680
 20
1.387320
  0
VERTEX
  8
0
  6
CONTINUOUS
 10
7.281120
 20
1.389520
  0
VERTEX
  8
0
  6
CONTINUOUS
 10
7.294320
 20
1.389520
  0
VERTEX
  8
0
  6
CONTINUOUS
 10
7.344040
 20
1.384680
  0
VERTEX
  8
0
  6
CONTINUOUS
 10
7.390680
 20
1.370160
  0
VERTEX
  8
0
  6
CONTINUOUS
 10
7.432920
 20
1.347280
  0
VERTEX
  8
0
  6
CONTINUOUS
 10
7.469440
 20
1.316920
  0
VERTEX
  8
0
  6
CONTINUOUS
 10
7.499800
 20
1.280400
  0
VERTEX
  8
0
  6
CONTINUOUS
 10
7.522680
 20
1.238160
  0
VERTEX
  8
0
  6
CONTINUOUS
 10
7.537200
 20
1.191960
  0
VERTEX
  8
0
  6
CONTINUOUS
 10
7.542040
 20
1.141800
  0
VERTEX
  8
0
  6
CONTINUOUS
 10
7.537200
 20
1.092080
  0
VERTEX
  8
0
  6
CONTINUOUS
 10
7.522680
 20
1.045440
  0
VERTEX
  8
0
  6
CONTINUOUS
 10
7.499800
 20
1.003200
  0
VERTEX
  8
0
  6
CONTINUOUS
 10
7.469440
 20
0.966680
  0
VERTEX
  8
0
  6
CONTINUOUS
 10
7.432920
 20
0.936320
  0
VERTEX
  8
0
  6
CONTINUOUS
 10
7.390680
 20
0.913440
  0
VERTEX
  8
0
  6
CONTINUOUS
 10
7.344040
 20
0.898920
  0
VERTEX
  8
0
  6
CONTINUOUS
 10
7.294320
 20
0.894080
  0
VERTEX
  8
0
  6
CONTINUOUS
 10
6.476800
 20
0.894080
  0
VERTEX
  8
0
  6
CONTINUOUS
 10
6.474600
 20
0.892760
  0
SEQEND
  8
0
  0
TEXT
  8
0
 10
3.744400
 20
2.727560
 40
0.138179
  1
BA  787
 41
1.000000
  7
SN0
 71
     0
 72
     5
 11
4.333256
 21
2.727560
  0
TEXT
  8
0
 10
3.588640
 20
2.536160
 40
0.138179
  1
1/2" x 4-7/8"
 41
1.000000
  7
SN0
 71
     0
 72
     5
 11
4.487721
 21
2.536160
  0
TEXT
  8
0
 10
5.374160
 20
1.099120
 40
0.138179
  1
BA  786
 41
1.000000
  7
SN0
 71
     0
 72
     5
 11
5.963016
 21
1.099120
  0
TEXT
  8
0
 10
5.098280
 20
0.907720
 40
0.138179
  1
1-1/16" x 2-1/4"
 41
1.000000
  7
SN0
 71
     0
 72
     5
 11
6.236786
 21
0.907720
  0
ENDSEC
  0
EOF
