  0
SECTION
  2
HEADER
  9
$ACADVER
  1
AC1006
  9
$EXTMIN
 10
3.795880
 20
0.492800
  9
$EXTMAX
 10
6.592080
 20
5.926360
  9
$LTSCALE
 40
0.044000
  9
$PDMODE
 70
    35
  9
$PDSIZE
 40
0.035200
  0
ENDSEC
  0
SECTION
  2
TABLES
  0
TABLE
  2
LTYPE
 70
     9
  0
LTYPE
  2
CONTINUOUS
 70
    64
  3
Solid line
 72
    65
 73
     0
 40
0.000000
  0
LTYPE
  2
DASHED
 70
    64
  3
__ __ __ __ __ __ __ __ __ __ __ __ __ __ __
 72
    65
 73
     2
 40
0.000330
 49
0.000220
 49
-0.000110
  0
LTYPE
  2
HIDDEN
 70
    64
  3
 _ _ _ _ _ _ _ _ _ _ _ _ _ _ _ _ _ _ _ _ _ _
 72
    65
 73
     2
 40
0.000165
 49
0.000110
 49
-0.000055
  0
LTYPE
  2
CENTER
 70
    64
  3
____ _ ____ _ ____ _ ____ _ ____ _ ____ _ ____
 72
    65
 73
     4
 40
0.000880
 49
0.000550
 49
-0.000110
 49
0.000110
 49
-0.000110
  0
LTYPE
  2
PHANTOM
 70
    64
  3
_____ _ _ _____ _ _ _____ _ _ _____ _ _ ____
 72
    65
 73
     6
 40
0.001100
 49
0.000550
 49
-0.000110
 49
0.000110
 49
-0.000110
 49
0.000110
 49
-0.000110
  0
LTYPE
  2
DOT
 70
    64
  3
...............................................
 72
    65
 73
     2
 40
0.000110
 49
0.000000
 49
-0.000110
  0
LTYPE
  2
DASHDOT
 70
    64
  3
__ . __ . __ . __ . __ . __ . __ . __ . __ . __
 72
    65
 73
     4
 40
0.000440
 49
0.000220
 49
-0.000110
 49
0.000000
 49
-0.000110
  0
LTYPE
  2
BORDER
 70
    64
  3
__ __ . __ __ . __ __ . __ __ . __ __ . __ __
 72
    65
 73
     6
 40
0.000770
 49
0.000220
 49
-0.000110
 49
0.000220
 49
-0.000110
 49
0.000000
 49
-0.000110
  0
LTYPE
  2
DIVIDE
 70
    64
  3
__ . . __ . . __ . . __ . . __ . . __ . . __
 72
    65
 73
     6
 40
0.000550
 49
0.000220
 49
-0.000110
 49
0.000000
 49
-0.000110
 49
0.000000
 49
-0.000110
  0
LTYPE
  2
DOTDOT
 70
    64
  3
 . .  . .  . .  . .  . .  . . 
 72
    65
 73
     5
 40
0.000242
 49
-0.000110
 49
0.000000
 49
-0.000110
 49
0.000000
 49
-0.000110
  0
ENDTAB
  0
TABLE
  2
STYLE
 70
     2
  0
STYLE
 70
     0
  2
SN0
 40
0.000000
 41
0.000440
 50
0.000000
 71
     0
 42
0.000000
  3
ROMAND
  0
STYLE
 70
    68
  2
SV0
 40
0.000000
 41
0.000440
 50
0.000000
 71
     0
 42
0.000000
  3
ROMAND
  0
ENDTAB
  0
TABLE
  2
LAYER
 70
     3
  0
LAYER
  2
FOREGROUND
 70
    64
 62
     7
  6
CONTINUOUS
  0
LAYER
  2
BACKGROUND
 70
    65
 62
    -7
  6
CONTINUOUS
  0
LAYER
  2
0
 70
    64
 62
     7
  6
CONTINUOUS
  0
ENDTAB
  0
ENDSEC
  0
SECTION
  2
ENTITIES
  0
POLYLINE
  8
FOREGROUND
  6
CONTINUOUS
 66
     1
 40
0.000000
 41
0.000000
  0
VERTEX
  8
FOREGROUND
  6
CONTINUOUS
 10
0.000000
 20
6.419160
  0
VERTEX
  8
FOREGROUND
  6
CONTINUOUS
 10
8.499920
 20
6.419160
  0
VERTEX
  8
FOREGROUND
  6
CONTINUOUS
 10
8.499920
 20
-4.580840
  0
VERTEX
  8
FOREGROUND
  6
CONTINUOUS
 10
0.000000
 20
-4.580840
  0
VERTEX
  8
FOREGROUND
  6
CONTINUOUS
 10
0.000000
 20
6.419160
  0
SEQEND
  8
0
  0
POLYLINE
  8
FOREGROUND
  6
CONTINUOUS
 66
     1
 40
0.000000
 41
0.000000
  0
VERTEX
  8
FOREGROUND
  6
CONTINUOUS
 10
0.000000
 20
6.419160
  0
VERTEX
  8
FOREGROUND
  6
CONTINUOUS
 10
8.499920
 20
6.419160
  0
VERTEX
  8
FOREGROUND
  6
CONTINUOUS
 10
8.499920
 20
-4.580840
  0
VERTEX
  8
FOREGROUND
  6
CONTINUOUS
 10
0.000000
 20
-4.580840
  0
VERTEX
  8
FOREGROUND
  6
CONTINUOUS
 10
0.000000
 20
6.419160
  0
SEQEND
  8
0
  0
SOLID
  8
0
 62
    15
 10
4.250400
 20
3.250720
 11
4.887520
 21
3.626480
 12
4.250400
 22
2.128720
 13
4.887520
 23
2.504040
  0
POLYLINE
  8
0
  6
CONTINUOUS
 66
     1
 40
0.000000
 41
0.000000
  0
VERTEX
  8
0
  6
CONTINUOUS
 10
4.250400
 20
3.250720
  0
VERTEX
  8
0
  6
CONTINUOUS
 10
4.887520
 20
3.626480
  0
VERTEX
  8
0
  6
CONTINUOUS
 10
4.887520
 20
2.504040
  0
VERTEX
  8
0
  6
CONTINUOUS
 10
4.250400
 20
2.128720
  0
VERTEX
  8
0
  6
CONTINUOUS
 10
4.250400
 20
3.250720
  0
SEQEND
  8
0
  0
SOLID
  8
0
 62
    15
 10
4.653880
 20
5.550160
 11
5.291440
 21
5.925480
 12
4.648160
 22
4.931520
 13
5.285280
 23
5.307280
  0
POLYLINE
  8
0
  6
CONTINUOUS
 66
     1
 40
0.000000
 41
0.000000
  0
VERTEX
  8
0
  6
CONTINUOUS
 10
4.653880
 20
5.550160
  0
VERTEX
  8
0
  6
CONTINUOUS
 10
5.291440
 20
5.925480
  0
VERTEX
  8
0
  6
CONTINUOUS
 10
5.285280
 20
5.307280
  0
VERTEX
  8
0
  6
CONTINUOUS
 10
4.648160
 20
4.931520
  0
VERTEX
  8
0
  6
CONTINUOUS
 10
4.653880
 20
5.550160
  0
SEQEND
  8
0
  0
SOLID
  8
0
 62
    15
 10
4.648160
 20
4.931520
 11
5.285280
 21
5.307280
 12
4.643760
 22
4.873880
 13
5.280880
 23
5.249200
  0
POLYLINE
  8
0
  6
CONTINUOUS
 66
     1
 40
0.000000
 41
0.000000
  0
VERTEX
  8
0
  6
CONTINUOUS
 10
4.648160
 20
4.931520
  0
VERTEX
  8
0
  6
CONTINUOUS
 10
5.285280
 20
5.307280
  0
VERTEX
  8
0
  6
CONTINUOUS
 10
5.280880
 20
5.249200
  0
VERTEX
  8
0
  6
CONTINUOUS
 10
4.643760
 20
4.873880
  0
VERTEX
  8
0
  6
CONTINUOUS
 10
4.648160
 20
4.931520
  0
SEQEND
  8
0
  0
SOLID
  8
0
 62
    15
 10
4.643760
 20
4.873880
 11
5.280880
 21
5.249200
 12
4.631000
 22
4.824160
 13
5.268560
 23
5.199480
  0
POLYLINE
  8
0
  6
CONTINUOUS
 66
     1
 40
0.000000
 41
0.000000
  0
VERTEX
  8
0
  6
CONTINUOUS
 10
4.643760
 20
4.873880
  0
VERTEX
  8
0
  6
CONTINUOUS
 10
5.280880
 20
5.249200
  0
VERTEX
  8
0
  6
CONTINUOUS
 10
5.268560
 20
5.199480
  0
VERTEX
  8
0
  6
CONTINUOUS
 10
4.631000
 20
4.824160
  0
VERTEX
  8
0
  6
CONTINUOUS
 10
4.643760
 20
4.873880
  0
SEQEND
  8
0
  0
SOLID
  8
0
 62
    15
 10
4.429040
 20
4.690400
 11
5.066160
 21
5.066160
 12
4.429040
 22
3.421440
 13
5.066160
 23
3.797200
  0
POLYLINE
  8
0
  6
CONTINUOUS
 66
     1
 40
0.000000
 41
0.000000
  0
VERTEX
  8
0
  6
CONTINUOUS
 10
4.429040
 20
4.690400
  0
VERTEX
  8
0
  6
CONTINUOUS
 10
5.066160
 20
5.066160
  0
VERTEX
  8
0
  6
CONTINUOUS
 10
5.066160
 20
3.797200
  0
VERTEX
  8
0
  6
CONTINUOUS
 10
4.429040
 20
3.421440
  0
VERTEX
  8
0
  6
CONTINUOUS
 10
4.429040
 20
4.690400
  0
SEQEND
  8
0
  0
SOLID
  8
0
 62
    15
 10
4.611200
 20
4.782360
 11
5.248320
 21
5.158120
 12
4.584800
 22
4.748920
 13
5.221920
 23
5.124680
  0
POLYLINE
  8
0
  6
CONTINUOUS
 66
     1
 40
0.000000
 41
0.000000
  0
VERTEX
  8
0
  6
CONTINUOUS
 10
4.611200
 20
4.782360
  0
VERTEX
  8
0
  6
CONTINUOUS
 10
5.248320
 20
5.158120
  0
VERTEX
  8
0
  6
CONTINUOUS
 10
5.221920
 20
5.124680
  0
VERTEX
  8
0
  6
CONTINUOUS
 10
4.584800
 20
4.748920
  0
VERTEX
  8
0
  6
CONTINUOUS
 10
4.611200
 20
4.782360
  0
SEQEND
  8
0
  0
SOLID
  8
0
 62
    15
 10
4.584800
 20
4.748920
 11
5.221920
 21
5.124680
 12
4.552680
 22
4.722960
 13
5.189800
 23
5.098720
  0
POLYLINE
  8
0
  6
CONTINUOUS
 66
     1
 40
0.000000
 41
0.000000
  0
VERTEX
  8
0
  6
CONTINUOUS
 10
4.584800
 20
4.748920
  0
VERTEX
  8
0
  6
CONTINUOUS
 10
5.221920
 20
5.124680
  0
VERTEX
  8
0
  6
CONTINUOUS
 10
5.189800
 20
5.098720
  0
VERTEX
  8
0
  6
CONTINUOUS
 10
4.552680
 20
4.722960
  0
VERTEX
  8
0
  6
CONTINUOUS
 10
4.584800
 20
4.748920
  0
SEQEND
  8
0
  0
SOLID
  8
0
 62
    15
 10
4.631000
 20
4.824160
 11
5.268560
 21
5.199480
 12
4.611200
 22
4.782360
 13
5.248320
 23
5.158120
  0
POLYLINE
  8
0
  6
CONTINUOUS
 66
     1
 40
0.000000
 41
0.000000
  0
VERTEX
  8
0
  6
CONTINUOUS
 10
4.631000
 20
4.824160
  0
VERTEX
  8
0
  6
CONTINUOUS
 10
5.268560
 20
5.199480
  0
VERTEX
  8
0
  6
CONTINUOUS
 10
5.248320
 20
5.158120
  0
VERTEX
  8
0
  6
CONTINUOUS
 10
4.611200
 20
4.782360
  0
VERTEX
  8
0
  6
CONTINUOUS
 10
4.631000
 20
4.824160
  0
SEQEND
  8
0
  0
SOLID
  8
0
 62
    15
 10
4.429040
 20
3.421440
 11
5.066160
 21
3.797200
 12
4.425960
 22
3.387120
 13
5.063520
 23
3.762440
  0
POLYLINE
  8
0
  6
CONTINUOUS
 66
     1
 40
0.000000
 41
0.000000
  0
VERTEX
  8
0
  6
CONTINUOUS
 10
4.429040
 20
3.421440
  0
VERTEX
  8
0
  6
CONTINUOUS
 10
5.066160
 20
3.797200
  0
VERTEX
  8
0
  6
CONTINUOUS
 10
5.063520
 20
3.762440
  0
VERTEX
  8
0
  6
CONTINUOUS
 10
4.425960
 20
3.387120
  0
VERTEX
  8
0
  6
CONTINUOUS
 10
4.429040
 20
3.421440
  0
SEQEND
  8
0
  0
SOLID
  8
0
 62
    15
 10
4.425960
 20
3.387120
 11
5.063520
 21
3.762440
 12
4.417600
 22
3.355000
 13
5.055160
 23
3.730320
  0
POLYLINE
  8
0
  6
CONTINUOUS
 66
     1
 40
0.000000
 41
0.000000
  0
VERTEX
  8
0
  6
CONTINUOUS
 10
4.425960
 20
3.387120
  0
VERTEX
  8
0
  6
CONTINUOUS
 10
5.063520
 20
3.762440
  0
VERTEX
  8
0
  6
CONTINUOUS
 10
5.055160
 20
3.730320
  0
VERTEX
  8
0
  6
CONTINUOUS
 10
4.417600
 20
3.355000
  0
VERTEX
  8
0
  6
CONTINUOUS
 10
4.425960
 20
3.387120
  0
SEQEND
  8
0
  0
SOLID
  8
0
 62
    15
 10
4.417600
 20
3.355000
 11
5.055160
 21
3.730320
 12
4.403960
 22
3.325960
 13
5.041080
 23
3.701720
  0
POLYLINE
  8
0
  6
CONTINUOUS
 66
     1
 40
0.000000
 41
0.000000
  0
VERTEX
  8
0
  6
CONTINUOUS
 10
4.417600
 20
3.355000
  0
VERTEX
  8
0
  6
CONTINUOUS
 10
5.055160
 20
3.730320
  0
VERTEX
  8
0
  6
CONTINUOUS
 10
5.041080
 20
3.701720
  0
VERTEX
  8
0
  6
CONTINUOUS
 10
4.403960
 20
3.325960
  0
VERTEX
  8
0
  6
CONTINUOUS
 10
4.417600
 20
3.355000
  0
SEQEND
  8
0
  0
SOLID
  8
0
 62
    15
 10
4.403960
 20
3.325960
 11
5.041080
 21
3.701720
 12
4.384160
 22
3.300880
 13
5.021280
 23
3.676200
  0
POLYLINE
  8
0
  6
CONTINUOUS
 66
     1
 40
0.000000
 41
0.000000
  0
VERTEX
  8
0
  6
CONTINUOUS
 10
4.403960
 20
3.325960
  0
VERTEX
  8
0
  6
CONTINUOUS
 10
5.041080
 20
3.701720
  0
VERTEX
  8
0
  6
CONTINUOUS
 10
5.021280
 20
3.676200
  0
VERTEX
  8
0
  6
CONTINUOUS
 10
4.384160
 20
3.300880
  0
VERTEX
  8
0
  6
CONTINUOUS
 10
4.403960
 20
3.325960
  0
SEQEND
  8
0
  0
SOLID
  8
0
 62
    15
 10
4.384160
 20
3.300880
 11
5.021280
 21
3.676200
 12
4.359080
 22
3.279760
 13
4.996200
 23
3.655520
  0
POLYLINE
  8
0
  6
CONTINUOUS
 66
     1
 40
0.000000
 41
0.000000
  0
VERTEX
  8
0
  6
CONTINUOUS
 10
4.384160
 20
3.300880
  0
VERTEX
  8
0
  6
CONTINUOUS
 10
5.021280
 20
3.676200
  0
VERTEX
  8
0
  6
CONTINUOUS
 10
4.996200
 20
3.655520
  0
VERTEX
  8
0
  6
CONTINUOUS
 10
4.359080
 20
3.279760
  0
VERTEX
  8
0
  6
CONTINUOUS
 10
4.384160
 20
3.300880
  0
SEQEND
  8
0
  0
SOLID
  8
0
 62
    15
 10
3.799400
 20
5.550160
 11
4.436520
 21
5.925480
 12
4.653880
 22
5.550160
 13
5.291440
 23
5.925480
  0
POLYLINE
  8
0
  6
CONTINUOUS
 66
     1
 40
0.000000
 41
0.000000
  0
VERTEX
  8
0
  6
CONTINUOUS
 10
3.799400
 20
5.550160
  0
VERTEX
  8
0
  6
CONTINUOUS
 10
4.436520
 20
5.925480
  0
VERTEX
  8
0
  6
CONTINUOUS
 10
5.291440
 20
5.925480
  0
VERTEX
  8
0
  6
CONTINUOUS
 10
4.653880
 20
5.550160
  0
VERTEX
  8
0
  6
CONTINUOUS
 10
3.799400
 20
5.550160
  0
SEQEND
  8
0
  0
SOLID
  8
0
 62
    15
 10
4.250400
 20
2.128720
 11
4.887520
 21
2.504040
 12
4.246000
 22
2.089560
 13
4.883120
 23
2.465320
  0
POLYLINE
  8
0
  6
CONTINUOUS
 66
     1
 40
0.000000
 41
0.000000
  0
VERTEX
  8
0
  6
CONTINUOUS
 10
4.250400
 20
2.128720
  0
VERTEX
  8
0
  6
CONTINUOUS
 10
4.887520
 20
2.504040
  0
VERTEX
  8
0
  6
CONTINUOUS
 10
4.883120
 20
2.465320
  0
VERTEX
  8
0
  6
CONTINUOUS
 10
4.246000
 20
2.089560
  0
VERTEX
  8
0
  6
CONTINUOUS
 10
4.250400
 20
2.128720
  0
SEQEND
  8
0
  0
SOLID
  8
0
 62
    15
 10
4.246000
 20
2.089560
 11
4.883120
 21
2.465320
 12
4.233680
 22
2.055680
 13
4.870800
 23
2.431440
  0
POLYLINE
  8
0
  6
CONTINUOUS
 66
     1
 40
0.000000
 41
0.000000
  0
VERTEX
  8
0
  6
CONTINUOUS
 10
4.246000
 20
2.089560
  0
VERTEX
  8
0
  6
CONTINUOUS
 10
4.883120
 20
2.465320
  0
VERTEX
  8
0
  6
CONTINUOUS
 10
4.870800
 20
2.431440
  0
VERTEX
  8
0
  6
CONTINUOUS
 10
4.233680
 20
2.055680
  0
VERTEX
  8
0
  6
CONTINUOUS
 10
4.246000
 20
2.089560
  0
SEQEND
  8
0
  0
SOLID
  8
0
 62
    15
 10
4.090680
 20
1.961080
 11
4.727800
 21
2.336400
 12
4.106960
 22
1.216160
 13
4.744080
 23
1.591920
  0
POLYLINE
  8
0
  6
CONTINUOUS
 66
     1
 40
0.000000
 41
0.000000
  0
VERTEX
  8
0
  6
CONTINUOUS
 10
4.090680
 20
1.961080
  0
VERTEX
  8
0
  6
CONTINUOUS
 10
4.727800
 20
2.336400
  0
VERTEX
  8
0
  6
CONTINUOUS
 10
4.744080
 20
1.591920
  0
VERTEX
  8
0
  6
CONTINUOUS
 10
4.106960
 20
1.216160
  0
VERTEX
  8
0
  6
CONTINUOUS
 10
4.090680
 20
1.961080
  0
SEQEND
  8
0
  0
SOLID
  8
0
 62
    15
 10
4.192760
 20
2.003320
 11
4.829880
 21
2.379080
 12
4.167240
 22
1.984840
 13
4.804360
 23
2.360600
  0
POLYLINE
  8
0
  6
CONTINUOUS
 66
     1
 40
0.000000
 41
0.000000
  0
VERTEX
  8
0
  6
CONTINUOUS
 10
4.192760
 20
2.003320
  0
VERTEX
  8
0
  6
CONTINUOUS
 10
4.829880
 20
2.379080
  0
VERTEX
  8
0
  6
CONTINUOUS
 10
4.804360
 20
2.360600
  0
VERTEX
  8
0
  6
CONTINUOUS
 10
4.167240
 20
1.984840
  0
VERTEX
  8
0
  6
CONTINUOUS
 10
4.192760
 20
2.003320
  0
SEQEND
  8
0
  0
SOLID
  8
0
 62
    15
 10
4.215640
 20
2.027080
 11
4.852760
 21
2.402400
 12
4.192760
 22
2.003320
 13
4.829880
 23
2.379080
  0
POLYLINE
  8
0
  6
CONTINUOUS
 66
     1
 40
0.000000
 41
0.000000
  0
VERTEX
  8
0
  6
CONTINUOUS
 10
4.215640
 20
2.027080
  0
VERTEX
  8
0
  6
CONTINUOUS
 10
4.852760
 20
2.402400
  0
VERTEX
  8
0
  6
CONTINUOUS
 10
4.829880
 20
2.379080
  0
VERTEX
  8
0
  6
CONTINUOUS
 10
4.192760
 20
2.003320
  0
VERTEX
  8
0
  6
CONTINUOUS
 10
4.215640
 20
2.027080
  0
SEQEND
  8
0
  0
SOLID
  8
0
 62
    15
 10
4.233680
 20
2.055680
 11
4.870800
 21
2.431440
 12
4.215640
 22
2.027080
 13
4.852760
 23
2.402400
  0
POLYLINE
  8
0
  6
CONTINUOUS
 66
     1
 40
0.000000
 41
0.000000
  0
VERTEX
  8
0
  6
CONTINUOUS
 10
4.233680
 20
2.055680
  0
VERTEX
  8
0
  6
CONTINUOUS
 10
4.870800
 20
2.431440
  0
VERTEX
  8
0
  6
CONTINUOUS
 10
4.852760
 20
2.402400
  0
VERTEX
  8
0
  6
CONTINUOUS
 10
4.215640
 20
2.027080
  0
VERTEX
  8
0
  6
CONTINUOUS
 10
4.233680
 20
2.055680
  0
SEQEND
  8
0
  0
SOLID
  8
0
 62
    15
 10
3.796760
 20
1.015960
 11
4.433880
 21
1.391720
 12
3.799400
 22
1.015960
 13
4.436520
 23
1.391720
  0
POLYLINE
  8
0
  6
CONTINUOUS
 66
     1
 40
0.000000
 41
0.000000
  0
VERTEX
  8
0
  6
CONTINUOUS
 10
3.796760
 20
1.015960
  0
VERTEX
  8
0
  6
CONTINUOUS
 10
4.433880
 20
1.391720
  0
VERTEX
  8
0
  6
CONTINUOUS
 10
4.436520
 20
1.391720
  0
VERTEX
  8
0
  6
CONTINUOUS
 10
3.799400
 20
1.015960
  0
VERTEX
  8
0
  6
CONTINUOUS
 10
3.796760
 20
1.015960
  0
SEQEND
  8
0
  0
SOLID
  8
0
 62
    15
 10
4.099920
 20
1.184920
 11
4.737040
 21
1.560240
 12
4.090240
 22
1.156760
 13
4.727800
 23
1.532520
  0
POLYLINE
  8
0
  6
CONTINUOUS
 66
     1
 40
0.000000
 41
0.000000
  0
VERTEX
  8
0
  6
CONTINUOUS
 10
4.099920
 20
1.184920
  0
VERTEX
  8
0
  6
CONTINUOUS
 10
4.737040
 20
1.560240
  0
VERTEX
  8
0
  6
CONTINUOUS
 10
4.727800
 20
1.532520
  0
VERTEX
  8
0
  6
CONTINUOUS
 10
4.090240
 20
1.156760
  0
VERTEX
  8
0
  6
CONTINUOUS
 10
4.099920
 20
1.184920
  0
SEQEND
  8
0
  0
SOLID
  8
0
 62
    15
 10
4.063840
 20
1.110560
 11
4.700960
 21
1.486320
 12
4.028640
 22
1.075800
 13
4.665760
 23
1.451560
  0
POLYLINE
  8
0
  6
CONTINUOUS
 66
     1
 40
0.000000
 41
0.000000
  0
VERTEX
  8
0
  6
CONTINUOUS
 10
4.063840
 20
1.110560
  0
VERTEX
  8
0
  6
CONTINUOUS
 10
4.700960
 20
1.486320
  0
VERTEX
  8
0
  6
CONTINUOUS
 10
4.665760
 20
1.451560
  0
VERTEX
  8
0
  6
CONTINUOUS
 10
4.028640
 20
1.075800
  0
VERTEX
  8
0
  6
CONTINUOUS
 10
4.063840
 20
1.110560
  0
SEQEND
  8
0
  0
SOLID
  8
0
 62
    15
 10
4.090240
 20
1.156760
 11
4.727800
 21
1.532520
 12
4.063840
 22
1.110560
 13
4.700960
 23
1.486320
  0
POLYLINE
  8
0
  6
CONTINUOUS
 66
     1
 40
0.000000
 41
0.000000
  0
VERTEX
  8
0
  6
CONTINUOUS
 10
4.090240
 20
1.156760
  0
VERTEX
  8
0
  6
CONTINUOUS
 10
4.727800
 20
1.532520
  0
VERTEX
  8
0
  6
CONTINUOUS
 10
4.700960
 20
1.486320
  0
VERTEX
  8
0
  6
CONTINUOUS
 10
4.063840
 20
1.110560
  0
VERTEX
  8
0
  6
CONTINUOUS
 10
4.090240
 20
1.156760
  0
SEQEND
  8
0
  0
SOLID
  8
0
 62
    15
 10
4.028640
 20
1.075800
 11
4.665760
 21
1.451560
 12
3.987280
 22
1.050720
 13
4.624400
 23
1.426480
  0
POLYLINE
  8
0
  6
CONTINUOUS
 66
     1
 40
0.000000
 41
0.000000
  0
VERTEX
  8
0
  6
CONTINUOUS
 10
4.028640
 20
1.075800
  0
VERTEX
  8
0
  6
CONTINUOUS
 10
4.665760
 20
1.451560
  0
VERTEX
  8
0
  6
CONTINUOUS
 10
4.624400
 20
1.426480
  0
VERTEX
  8
0
  6
CONTINUOUS
 10
3.987280
 20
1.050720
  0
VERTEX
  8
0
  6
CONTINUOUS
 10
4.028640
 20
1.075800
  0
SEQEND
  8
0
  0
SOLID
  8
0
 62
    15
 10
4.106960
 20
1.216160
 11
4.744080
 21
1.591920
 12
4.099920
 22
1.184920
 13
4.737040
 23
1.560240
  0
POLYLINE
  8
0
  6
CONTINUOUS
 66
     1
 40
0.000000
 41
0.000000
  0
VERTEX
  8
0
  6
CONTINUOUS
 10
4.106960
 20
1.216160
  0
VERTEX
  8
0
  6
CONTINUOUS
 10
4.744080
 20
1.591920
  0
VERTEX
  8
0
  6
CONTINUOUS
 10
4.737040
 20
1.560240
  0
VERTEX
  8
0
  6
CONTINUOUS
 10
4.099920
 20
1.184920
  0
VERTEX
  8
0
  6
CONTINUOUS
 10
4.106960
 20
1.216160
  0
SEQEND
  8
0
  0
POLYLINE
  8
0
  6
CONTINUOUS
 66
     1
 40
0.000000
 41
0.000000
  0
VERTEX
  8
0
  6
CONTINUOUS
 10
3.799400
 20
1.015960
  0
VERTEX
  8
0
  6
CONTINUOUS
 10
3.799400
 20
5.550160
  0
VERTEX
  8
0
  6
CONTINUOUS
 10
4.653880
 20
5.550160
  0
VERTEX
  8
0
  6
CONTINUOUS
 10
4.648160
 20
4.931520
  0
VERTEX
  8
0
  6
CONTINUOUS
 10
4.643760
 20
4.873880
  0
VERTEX
  8
0
  6
CONTINUOUS
 10
4.631000
 20
4.824160
  0
VERTEX
  8
0
  6
CONTINUOUS
 10
4.611200
 20
4.782360
  0
VERTEX
  8
0
  6
CONTINUOUS
 10
4.584800
 20
4.748920
  0
VERTEX
  8
0
  6
CONTINUOUS
 10
4.552680
 20
4.722960
  0
VERTEX
  8
0
  6
CONTINUOUS
 10
4.515280
 20
4.704920
  0
VERTEX
  8
0
  6
CONTINUOUS
 10
4.473920
 20
4.693920
  0
VERTEX
  8
0
  6
CONTINUOUS
 10
4.429040
 20
4.690400
  0
VERTEX
  8
0
  6
CONTINUOUS
 10
4.429040
 20
3.421440
  0
VERTEX
  8
0
  6
CONTINUOUS
 10
4.425960
 20
3.387120
  0
VERTEX
  8
0
  6
CONTINUOUS
 10
4.417600
 20
3.355000
  0
VERTEX
  8
0
  6
CONTINUOUS
 10
4.403960
 20
3.325960
  0
VERTEX
  8
0
  6
CONTINUOUS
 10
4.384160
 20
3.300880
  0
VERTEX
  8
0
  6
CONTINUOUS
 10
4.359080
 20
3.279760
  0
VERTEX
  8
0
  6
CONTINUOUS
 10
4.328280
 20
3.264360
  0
VERTEX
  8
0
  6
CONTINUOUS
 10
4.292200
 20
3.254240
  0
VERTEX
  8
0
  6
CONTINUOUS
 10
4.250400
 20
3.250720
  0
VERTEX
  8
0
  6
CONTINUOUS
 10
4.250400
 20
2.128720
  0
VERTEX
  8
0
  6
CONTINUOUS
 10
4.246000
 20
2.089560
  0
VERTEX
  8
0
  6
CONTINUOUS
 10
4.233680
 20
2.055680
  0
VERTEX
  8
0
  6
CONTINUOUS
 10
4.215640
 20
2.027080
  0
VERTEX
  8
0
  6
CONTINUOUS
 10
4.192760
 20
2.003320
  0
VERTEX
  8
0
  6
CONTINUOUS
 10
4.167240
 20
1.984840
  0
VERTEX
  8
0
  6
CONTINUOUS
 10
4.140400
 20
1.971640
  0
VERTEX
  8
0
  6
CONTINUOUS
 10
4.114440
 20
1.963720
  0
VERTEX
  8
0
  6
CONTINUOUS
 10
4.090680
 20
1.961080
  0
VERTEX
  8
0
  6
CONTINUOUS
 10
4.106960
 20
1.216160
  0
VERTEX
  8
0
  6
CONTINUOUS
 10
4.099920
 20
1.184920
  0
VERTEX
  8
0
  6
CONTINUOUS
 10
4.090240
 20
1.156760
  0
VERTEX
  8
0
  6
CONTINUOUS
 10
4.063840
 20
1.110560
  0
VERTEX
  8
0
  6
CONTINUOUS
 10
4.028640
 20
1.075800
  0
VERTEX
  8
0
  6
CONTINUOUS
 10
3.987280
 20
1.050720
  0
VERTEX
  8
0
  6
CONTINUOUS
 10
3.941520
 20
1.034000
  0
VERTEX
  8
0
  6
CONTINUOUS
 10
3.893120
 20
1.023880
  0
VERTEX
  8
0
  6
CONTINUOUS
 10
3.796760
 20
1.015960
  0
VERTEX
  8
0
  6
CONTINUOUS
 10
3.799400
 20
1.015960
  0
SEQEND
  8
0
  0
TEXT
  8
0
 10
4.249080
 20
0.728640
 40
0.138221
  1
BA  784
 41
1.000000
  7
SN0
 71
     0
 72
     5
 11
4.839980
 21
0.728640
  0
TEXT
  8
0
 10
4.092880
 20
0.536800
 40
0.138221
  1
7/8" x 4-1/2"
 41
1.000000
  7
SN0
 71
     0
 72
     5
 11
4.994851
 21
0.536800
  0
POLYLINE
  8
0
  6
CONTINUOUS
 66
     1
 40
0.014080
 41
0.014080
  0
VERTEX
  8
0
  6
CONTINUOUS
 10
5.730120
 20
1.274680
  0
VERTEX
  8
0
  6
CONTINUOUS
 10
5.730120
 20
5.808880
  0
VERTEX
  8
0
  6
CONTINUOUS
 10
6.584600
 20
5.808880
  0
VERTEX
  8
0
  6
CONTINUOUS
 10
6.577560
 20
5.160320
  0
VERTEX
  8
0
  6
CONTINUOUS
 10
6.571840
 20
5.118960
  0
VERTEX
  8
0
  6
CONTINUOUS
 10
6.561720
 20
5.082440
  0
VERTEX
  8
0
  6
CONTINUOUS
 10
6.547640
 20
5.050760
  0
VERTEX
  8
0
  6
CONTINUOUS
 10
6.529600
 20
5.023480
  0
VERTEX
  8
0
  6
CONTINUOUS
 10
6.515520
 20
5.007640
  0
VERTEX
  8
0
  6
CONTINUOUS
 10
6.500120
 20
4.993560
  0
VERTEX
  8
0
  6
CONTINUOUS
 10
6.483400
 20
4.981680
  0
VERTEX
  8
0
  6
CONTINUOUS
 10
6.465360
 20
4.971560
  0
VERTEX
  8
0
  6
CONTINUOUS
 10
6.425760
 20
4.957040
  0
VERTEX
  8
0
  6
CONTINUOUS
 10
6.404640
 20
4.952640
  0
VERTEX
  8
0
  6
CONTINUOUS
 10
6.382640
 20
4.950000
  0
VERTEX
  8
0
  6
CONTINUOUS
 10
6.359760
 20
4.949120
  0
VERTEX
  8
0
  6
CONTINUOUS
 10
6.359760
 20
3.680160
  0
VERTEX
  8
0
  6
CONTINUOUS
 10
6.357120
 20
3.645840
  0
VERTEX
  8
0
  6
CONTINUOUS
 10
6.353600
 20
3.629120
  0
VERTEX
  8
0
  6
CONTINUOUS
 10
6.348760
 20
3.613720
  0
VERTEX
  8
0
  6
CONTINUOUS
 10
6.334680
 20
3.584680
  0
VERTEX
  8
0
  6
CONTINUOUS
 10
6.314880
 20
3.559160
  0
VERTEX
  8
0
  6
CONTINUOUS
 10
6.303000
 20
3.548160
  0
VERTEX
  8
0
  6
CONTINUOUS
 10
6.289800
 20
3.538480
  0
VERTEX
  8
0
  6
CONTINUOUS
 10
6.259000
 20
3.522640
  0
VERTEX
  8
0
  6
CONTINUOUS
 10
6.241840
 20
3.516920
  0
VERTEX
  8
0
  6
CONTINUOUS
 10
6.222920
 20
3.512960
  0
VERTEX
  8
0
  6
CONTINUOUS
 10
6.202680
 20
3.510320
  0
VERTEX
  8
0
  6
CONTINUOUS
 10
6.181120
 20
3.509440
  0
VERTEX
  8
0
  6
CONTINUOUS
 10
6.180680
 20
2.377320
  0
VERTEX
  8
0
  6
CONTINUOUS
 10
6.176720
 20
2.348280
  0
VERTEX
  8
0
  6
CONTINUOUS
 10
6.171440
 20
2.330680
  0
VERTEX
  8
0
  6
CONTINUOUS
 10
6.164400
 20
2.314400
  0
VERTEX
  8
0
  6
CONTINUOUS
 10
6.156040
 20
2.299440
  0
VERTEX
  8
0
  6
CONTINUOUS
 10
6.135360
 20
2.273040
  0
VERTEX
  8
0
  6
CONTINUOUS
 10
6.110720
 20
2.252360
  0
VERTEX
  8
0
  6
CONTINUOUS
 10
6.084760
 20
2.236520
  0
VERTEX
  8
0
  6
CONTINUOUS
 10
6.057920
 20
2.225960
  0
VERTEX
  8
0
  6
CONTINUOUS
 10
6.045160
 20
2.222440
  0
VERTEX
  8
0
  6
CONTINUOUS
 10
6.021400
 20
2.219800
  0
VERTEX
  8
0
  6
CONTINUOUS
 10
6.037680
 20
1.474880
  0
VERTEX
  8
0
  6
CONTINUOUS
 10
6.030640
 20
1.443640
  0
VERTEX
  8
0
  6
CONTINUOUS
 10
6.020960
 20
1.415480
  0
VERTEX
  8
0
  6
CONTINUOUS
 10
6.009080
 20
1.390840
  0
VERTEX
  8
0
  6
CONTINUOUS
 10
5.994560
 20
1.369280
  0
VERTEX
  8
0
  6
CONTINUOUS
 10
5.968600
 20
1.342440
  0
VERTEX
  8
0
  6
CONTINUOUS
 10
5.949680
 20
1.327480
  0
VERTEX
  8
0
  6
CONTINUOUS
 10
5.918000
 20
1.309440
  0
VERTEX
  8
0
  6
CONTINUOUS
 10
5.895120
 20
1.300200
  0
VERTEX
  8
0
  6
CONTINUOUS
 10
5.848040
 20
1.286560
  0
VERTEX
  8
0
  6
CONTINUOUS
 10
5.799200
 20
1.279080
  0
VERTEX
  8
0
  6
CONTINUOUS
 10
5.727040
 20
1.274680
  0
VERTEX
  8
0
  6
CONTINUOUS
 10
5.730120
 20
1.274680
  0
SEQEND
  8
0
  0
ENDSEC
  0
EOF
