  0
SECTION
  2
HEADER
  9
$ACADVER
  1
AC1006
  9
$EXTMIN
 10
2.388320
 20
0.506000
  9
$EXTMAX
 10
6.822640
 20
2.075040
  9
$LTSCALE
 40
0.044000
  9
$PDMODE
 70
    35
  9
$PDSIZE
 40
0.035200
  0
ENDSEC
  0
SECTION
  2
TABLES
  0
TABLE
  2
LTYPE
 70
     9
  0
LTYPE
  2
CONTINUOUS
 70
    64
  3
Solid line
 72
    65
 73
     0
 40
0.000000
  0
LTYPE
  2
DASHED
 70
    64
  3
__ __ __ __ __ __ __ __ __ __ __ __ __ __ __
 72
    65
 73
     2
 40
0.000330
 49
0.000220
 49
-0.000110
  0
LTYPE
  2
HIDDEN
 70
    64
  3
 _ _ _ _ _ _ _ _ _ _ _ _ _ _ _ _ _ _ _ _ _ _
 72
    65
 73
     2
 40
0.000165
 49
0.000110
 49
-0.000055
  0
LTYPE
  2
CENTER
 70
    64
  3
____ _ ____ _ ____ _ ____ _ ____ _ ____ _ ____
 72
    65
 73
     4
 40
0.000880
 49
0.000550
 49
-0.000110
 49
0.000110
 49
-0.000110
  0
LTYPE
  2
PHANTOM
 70
    64
  3
_____ _ _ _____ _ _ _____ _ _ _____ _ _ ____
 72
    65
 73
     6
 40
0.001100
 49
0.000550
 49
-0.000110
 49
0.000110
 49
-0.000110
 49
0.000110
 49
-0.000110
  0
LTYPE
  2
DOT
 70
    64
  3
...............................................
 72
    65
 73
     2
 40
0.000110
 49
0.000000
 49
-0.000110
  0
LTYPE
  2
DASHDOT
 70
    64
  3
__ . __ . __ . __ . __ . __ . __ . __ . __ . __
 72
    65
 73
     4
 40
0.000440
 49
0.000220
 49
-0.000110
 49
0.000000
 49
-0.000110
  0
LTYPE
  2
BORDER
 70
    64
  3
__ __ . __ __ . __ __ . __ __ . __ __ . __ __
 72
    65
 73
     6
 40
0.000770
 49
0.000220
 49
-0.000110
 49
0.000220
 49
-0.000110
 49
0.000000
 49
-0.000110
  0
LTYPE
  2
DIVIDE
 70
    64
  3
__ . . __ . . __ . . __ . . __ . . __ . . __
 72
    65
 73
     6
 40
0.000550
 49
0.000220
 49
-0.000110
 49
0.000000
 49
-0.000110
 49
0.000000
 49
-0.000110
  0
LTYPE
  2
DOTDOT
 70
    64
  3
 . .  . .  . .  . .  . .  . . 
 72
    65
 73
     5
 40
0.000242
 49
-0.000110
 49
0.000000
 49
-0.000110
 49
0.000000
 49
-0.000110
  0
ENDTAB
  0
TABLE
  2
STYLE
 70
     2
  0
STYLE
 70
     0
  2
SN0
 40
0.000000
 41
0.000440
 50
0.000000
 71
     0
 42
0.000000
  3
ROMAND
  0
STYLE
 70
    68
  2
SV0
 40
0.000000
 41
0.000440
 50
0.000000
 71
     0
 42
0.000000
  3
ROMAND
  0
ENDTAB
  0
TABLE
  2
LAYER
 70
     3
  0
LAYER
  2
FOREGROUND
 70
    64
 62
     7
  6
CONTINUOUS
  0
LAYER
  2
BACKGROUND
 70
    65
 62
    -7
  6
CONTINUOUS
  0
LAYER
  2
0
 70
    64
 62
     7
  6
CONTINUOUS
  0
ENDTAB
  0
ENDSEC
  0
SECTION
  2
ENTITIES
  0
POLYLINE
  8
FOREGROUND
  6
CONTINUOUS
 66
     1
 40
0.000000
 41
0.000000
  0
VERTEX
  8
FOREGROUND
  6
CONTINUOUS
 10
0.000000
 20
2.581040
  0
VERTEX
  8
FOREGROUND
  6
CONTINUOUS
 10
8.499920
 20
2.581040
  0
VERTEX
  8
FOREGROUND
  6
CONTINUOUS
 10
8.499920
 20
-8.418960
  0
VERTEX
  8
FOREGROUND
  6
CONTINUOUS
 10
0.000000
 20
-8.418960
  0
VERTEX
  8
FOREGROUND
  6
CONTINUOUS
 10
0.000000
 20
2.581040
  0
SEQEND
  8
0
  0
POLYLINE
  8
FOREGROUND
  6
CONTINUOUS
 66
     1
 40
0.000000
 41
0.000000
  0
VERTEX
  8
FOREGROUND
  6
CONTINUOUS
 10
0.000000
 20
2.581040
  0
VERTEX
  8
FOREGROUND
  6
CONTINUOUS
 10
8.499920
 20
2.581040
  0
VERTEX
  8
FOREGROUND
  6
CONTINUOUS
 10
8.499920
 20
-8.418960
  0
VERTEX
  8
FOREGROUND
  6
CONTINUOUS
 10
0.000000
 20
-8.418960
  0
VERTEX
  8
FOREGROUND
  6
CONTINUOUS
 10
0.000000
 20
2.581040
  0
SEQEND
  8
0
  0
SOLID
  8
0
 62
    15
 10
3.393280
 20
1.027400
 11
4.029520
 21
1.396560
 12
3.382720
 22
1.008040
 13
4.018960
 23
1.377200
  0
POLYLINE
  8
0
  6
CONTINUOUS
 66
     1
 40
0.000000
 41
0.000000
  0
VERTEX
  8
0
  6
CONTINUOUS
 10
3.393280
 20
1.027400
  0
VERTEX
  8
0
  6
CONTINUOUS
 10
4.029520
 20
1.396560
  0
VERTEX
  8
0
  6
CONTINUOUS
 10
4.018960
 20
1.377200
  0
VERTEX
  8
0
  6
CONTINUOUS
 10
3.382720
 20
1.008040
  0
VERTEX
  8
0
  6
CONTINUOUS
 10
3.393280
 20
1.027400
  0
SEQEND
  8
0
  0
SOLID
  8
0
 62
    15
 10
3.791920
 20
1.045000
 11
4.428600
 21
1.414160
 12
3.778280
 22
1.027840
 13
4.414520
 23
1.397000
  0
POLYLINE
  8
0
  6
CONTINUOUS
 66
     1
 40
0.000000
 41
0.000000
  0
VERTEX
  8
0
  6
CONTINUOUS
 10
3.791920
 20
1.045000
  0
VERTEX
  8
0
  6
CONTINUOUS
 10
4.428600
 20
1.414160
  0
VERTEX
  8
0
  6
CONTINUOUS
 10
4.414520
 20
1.397000
  0
VERTEX
  8
0
  6
CONTINUOUS
 10
3.778280
 20
1.027840
  0
VERTEX
  8
0
  6
CONTINUOUS
 10
3.791920
 20
1.045000
  0
SEQEND
  8
0
  0
SOLID
  8
0
 62
    15
 10
3.778280
 20
1.027840
 11
4.414520
 21
1.397000
 12
3.767720
 22
1.008480
 13
4.403960
 23
1.377640
  0
POLYLINE
  8
0
  6
CONTINUOUS
 66
     1
 40
0.000000
 41
0.000000
  0
VERTEX
  8
0
  6
CONTINUOUS
 10
3.778280
 20
1.027840
  0
VERTEX
  8
0
  6
CONTINUOUS
 10
4.414520
 20
1.397000
  0
VERTEX
  8
0
  6
CONTINUOUS
 10
4.403960
 20
1.377640
  0
VERTEX
  8
0
  6
CONTINUOUS
 10
3.767720
 20
1.008480
  0
VERTEX
  8
0
  6
CONTINUOUS
 10
3.778280
 20
1.027840
  0
SEQEND
  8
0
  0
SOLID
  8
0
 62
    15
 10
3.767720
 20
1.008480
 11
4.403960
 21
1.377640
 12
3.760680
 22
0.986920
 13
4.397360
 23
1.356080
  0
POLYLINE
  8
0
  6
CONTINUOUS
 66
     1
 40
0.000000
 41
0.000000
  0
VERTEX
  8
0
  6
CONTINUOUS
 10
3.767720
 20
1.008480
  0
VERTEX
  8
0
  6
CONTINUOUS
 10
4.403960
 20
1.377640
  0
VERTEX
  8
0
  6
CONTINUOUS
 10
4.397360
 20
1.356080
  0
VERTEX
  8
0
  6
CONTINUOUS
 10
3.760680
 20
0.986920
  0
VERTEX
  8
0
  6
CONTINUOUS
 10
3.767720
 20
1.008480
  0
SEQEND
  8
0
  0
SOLID
  8
0
 62
    15
 10
3.760680
 20
0.986920
 11
4.397360
 21
1.356080
 12
3.758480
 22
0.964040
 13
4.395160
 23
1.333200
  0
POLYLINE
  8
0
  6
CONTINUOUS
 66
     1
 40
0.000000
 41
0.000000
  0
VERTEX
  8
0
  6
CONTINUOUS
 10
3.760680
 20
0.986920
  0
VERTEX
  8
0
  6
CONTINUOUS
 10
4.397360
 20
1.356080
  0
VERTEX
  8
0
  6
CONTINUOUS
 10
4.395160
 20
1.333200
  0
VERTEX
  8
0
  6
CONTINUOUS
 10
3.758480
 20
0.964040
  0
VERTEX
  8
0
  6
CONTINUOUS
 10
3.760680
 20
0.986920
  0
SEQEND
  8
0
  0
SOLID
  8
0
 62
    15
 10
3.610200
 20
0.963160
 11
4.246440
 21
1.332320
 12
3.615040
 22
0.963600
 13
4.251280
 23
1.332760
  0
POLYLINE
  8
0
  6
CONTINUOUS
 66
     1
 40
0.000000
 41
0.000000
  0
VERTEX
  8
0
  6
CONTINUOUS
 10
3.610200
 20
0.963160
  0
VERTEX
  8
0
  6
CONTINUOUS
 10
4.246440
 20
1.332320
  0
VERTEX
  8
0
  6
CONTINUOUS
 10
4.251280
 20
1.332760
  0
VERTEX
  8
0
  6
CONTINUOUS
 10
3.615040
 20
0.963600
  0
VERTEX
  8
0
  6
CONTINUOUS
 10
3.610200
 20
0.963160
  0
SEQEND
  8
0
  0
SOLID
  8
0
 62
    15
 10
3.424080
 20
1.058640
 11
4.060320
 21
1.427360
 12
3.406920
 22
1.044560
 13
4.043600
 23
1.413720
  0
POLYLINE
  8
0
  6
CONTINUOUS
 66
     1
 40
0.000000
 41
0.000000
  0
VERTEX
  8
0
  6
CONTINUOUS
 10
3.424080
 20
1.058640
  0
VERTEX
  8
0
  6
CONTINUOUS
 10
4.060320
 20
1.427360
  0
VERTEX
  8
0
  6
CONTINUOUS
 10
4.043600
 20
1.413720
  0
VERTEX
  8
0
  6
CONTINUOUS
 10
3.406920
 20
1.044560
  0
VERTEX
  8
0
  6
CONTINUOUS
 10
3.424080
 20
1.058640
  0
SEQEND
  8
0
  0
SOLID
  8
0
 62
    15
 10
3.406920
 20
1.044560
 11
4.043600
 21
1.413720
 12
3.393280
 22
1.027400
 13
4.029520
 23
1.396560
  0
POLYLINE
  8
0
  6
CONTINUOUS
 66
     1
 40
0.000000
 41
0.000000
  0
VERTEX
  8
0
  6
CONTINUOUS
 10
3.406920
 20
1.044560
  0
VERTEX
  8
0
  6
CONTINUOUS
 10
4.043600
 20
1.413720
  0
VERTEX
  8
0
  6
CONTINUOUS
 10
4.029520
 20
1.396560
  0
VERTEX
  8
0
  6
CONTINUOUS
 10
3.393280
 20
1.027400
  0
VERTEX
  8
0
  6
CONTINUOUS
 10
3.406920
 20
1.044560
  0
SEQEND
  8
0
  0
SOLID
  8
0
 62
    15
 10
3.809080
 20
1.059080
 11
4.445320
 21
1.427800
 12
3.791920
 22
1.045000
 13
4.428600
 23
1.414160
  0
POLYLINE
  8
0
  6
CONTINUOUS
 66
     1
 40
0.000000
 41
0.000000
  0
VERTEX
  8
0
  6
CONTINUOUS
 10
3.809080
 20
1.059080
  0
VERTEX
  8
0
  6
CONTINUOUS
 10
4.445320
 20
1.427800
  0
VERTEX
  8
0
  6
CONTINUOUS
 10
4.428600
 20
1.414160
  0
VERTEX
  8
0
  6
CONTINUOUS
 10
3.791920
 20
1.045000
  0
VERTEX
  8
0
  6
CONTINUOUS
 10
3.809080
 20
1.059080
  0
SEQEND
  8
0
  0
SOLID
  8
0
 62
    15
 10
3.382720
 20
1.008040
 11
4.018960
 21
1.377200
 12
3.375680
 22
0.986480
 13
4.012360
 23
1.355640
  0
POLYLINE
  8
0
  6
CONTINUOUS
 66
     1
 40
0.000000
 41
0.000000
  0
VERTEX
  8
0
  6
CONTINUOUS
 10
3.382720
 20
1.008040
  0
VERTEX
  8
0
  6
CONTINUOUS
 10
4.018960
 20
1.377200
  0
VERTEX
  8
0
  6
CONTINUOUS
 10
4.012360
 20
1.355640
  0
VERTEX
  8
0
  6
CONTINUOUS
 10
3.375680
 20
0.986480
  0
VERTEX
  8
0
  6
CONTINUOUS
 10
3.382720
 20
1.008040
  0
SEQEND
  8
0
  0
SOLID
  8
0
 62
    15
 10
3.375680
 20
0.986480
 11
4.012360
 21
1.355640
 12
3.373480
 22
0.963600
 13
4.010160
 23
1.332760
  0
POLYLINE
  8
0
  6
CONTINUOUS
 66
     1
 40
0.000000
 41
0.000000
  0
VERTEX
  8
0
  6
CONTINUOUS
 10
3.375680
 20
0.986480
  0
VERTEX
  8
0
  6
CONTINUOUS
 10
4.012360
 20
1.355640
  0
VERTEX
  8
0
  6
CONTINUOUS
 10
4.010160
 20
1.332760
  0
VERTEX
  8
0
  6
CONTINUOUS
 10
3.373480
 20
0.963600
  0
VERTEX
  8
0
  6
CONTINUOUS
 10
3.375680
 20
0.986480
  0
SEQEND
  8
0
  0
SOLID
  8
0
 62
    15
 10
2.388760
 20
1.705000
 11
3.025440
 21
2.074160
 12
2.648360
 22
1.705000
 13
3.285040
 23
2.074160
  0
POLYLINE
  8
0
  6
CONTINUOUS
 66
     1
 40
0.000000
 41
0.000000
  0
VERTEX
  8
0
  6
CONTINUOUS
 10
2.388760
 20
1.705000
  0
VERTEX
  8
0
  6
CONTINUOUS
 10
3.025440
 20
2.074160
  0
VERTEX
  8
0
  6
CONTINUOUS
 10
3.285040
 20
2.074160
  0
VERTEX
  8
0
  6
CONTINUOUS
 10
2.648360
 20
1.705000
  0
VERTEX
  8
0
  6
CONTINUOUS
 10
2.388760
 20
1.705000
  0
SEQEND
  8
0
  0
SOLID
  8
0
 62
     7
 10
2.648360
 20
1.705000
 11
3.285040
 21
2.074160
 12
2.781680
 22
1.524160
 13
3.418360
 23
1.893320
  0
POLYLINE
  8
0
  6
CONTINUOUS
 66
     1
 40
0.000000
 41
0.000000
  0
VERTEX
  8
0
  6
CONTINUOUS
 10
2.648360
 20
1.705000
  0
VERTEX
  8
0
  6
CONTINUOUS
 10
3.285040
 20
2.074160
  0
VERTEX
  8
0
  6
CONTINUOUS
 10
3.418360
 20
1.893320
  0
VERTEX
  8
0
  6
CONTINUOUS
 10
2.781680
 20
1.524160
  0
VERTEX
  8
0
  6
CONTINUOUS
 10
2.648360
 20
1.705000
  0
SEQEND
  8
0
  0
SOLID
  8
0
 62
    15
 10
2.781680
 20
1.524160
 11
3.418360
 21
1.893320
 12
4.148320
 22
1.281720
 13
4.785000
 23
1.650440
  0
POLYLINE
  8
0
  6
CONTINUOUS
 66
     1
 40
0.000000
 41
0.000000
  0
VERTEX
  8
0
  6
CONTINUOUS
 10
2.781680
 20
1.524160
  0
VERTEX
  8
0
  6
CONTINUOUS
 10
3.418360
 20
1.893320
  0
VERTEX
  8
0
  6
CONTINUOUS
 10
4.785000
 20
1.650440
  0
VERTEX
  8
0
  6
CONTINUOUS
 10
4.148320
 20
1.281720
  0
VERTEX
  8
0
  6
CONTINUOUS
 10
2.781680
 20
1.524160
  0
SEQEND
  8
0
  0
SOLID
  8
0
 62
    15
 10
3.994760
 20
0.963600
 11
4.631000
 21
1.332760
 12
4.000040
 22
0.964040
 13
4.636280
 23
1.333200
  0
POLYLINE
  8
0
  6
CONTINUOUS
 66
     1
 40
0.000000
 41
0.000000
  0
VERTEX
  8
0
  6
CONTINUOUS
 10
3.994760
 20
0.963600
  0
VERTEX
  8
0
  6
CONTINUOUS
 10
4.631000
 20
1.332760
  0
VERTEX
  8
0
  6
CONTINUOUS
 10
4.636280
 20
1.333200
  0
VERTEX
  8
0
  6
CONTINUOUS
 10
4.000040
 20
0.964040
  0
VERTEX
  8
0
  6
CONTINUOUS
 10
3.994760
 20
0.963600
  0
SEQEND
  8
0
  0
SOLID
  8
0
 62
    15
 10
4.148320
 20
1.281720
 11
4.785000
 21
1.650440
 12
4.148320
 22
0.963600
 13
4.785000
 23
1.332760
  0
POLYLINE
  8
0
  6
CONTINUOUS
 66
     1
 40
0.000000
 41
0.000000
  0
VERTEX
  8
0
  6
CONTINUOUS
 10
4.148320
 20
1.281720
  0
VERTEX
  8
0
  6
CONTINUOUS
 10
4.785000
 20
1.650440
  0
VERTEX
  8
0
  6
CONTINUOUS
 10
4.785000
 20
1.332760
  0
VERTEX
  8
0
  6
CONTINUOUS
 10
4.148320
 20
0.963600
  0
VERTEX
  8
0
  6
CONTINUOUS
 10
4.148320
 20
1.281720
  0
SEQEND
  8
0
  0
POLYLINE
  8
0
  6
CONTINUOUS
 66
     1
 40
0.000000
 41
0.000000
  0
VERTEX
  8
0
  6
CONTINUOUS
 10
4.000040
 20
0.964040
  0
VERTEX
  8
0
  6
CONTINUOUS
 10
3.987720
 20
0.964040
  0
VERTEX
  8
0
  6
CONTINUOUS
 10
3.985080
 20
0.986920
  0
VERTEX
  8
0
  6
CONTINUOUS
 10
3.978480
 20
1.008480
  0
VERTEX
  8
0
  6
CONTINUOUS
 10
3.967920
 20
1.027840
  0
VERTEX
  8
0
  6
CONTINUOUS
 10
3.953840
 20
1.045000
  0
VERTEX
  8
0
  6
CONTINUOUS
 10
3.937120
 20
1.059080
  0
VERTEX
  8
0
  6
CONTINUOUS
 10
3.917760
 20
1.069640
  0
VERTEX
  8
0
  6
CONTINUOUS
 10
3.896200
 20
1.076240
  0
VERTEX
  8
0
  6
CONTINUOUS
 10
3.872880
 20
1.078440
  0
VERTEX
  8
0
  6
CONTINUOUS
 10
3.850000
 20
1.076240
  0
VERTEX
  8
0
  6
CONTINUOUS
 10
3.828440
 20
1.069640
  0
VERTEX
  8
0
  6
CONTINUOUS
 10
3.809080
 20
1.059080
  0
VERTEX
  8
0
  6
CONTINUOUS
 10
3.791920
 20
1.045000
  0
VERTEX
  8
0
  6
CONTINUOUS
 10
3.778280
 20
1.027840
  0
VERTEX
  8
0
  6
CONTINUOUS
 10
3.767720
 20
1.008480
  0
VERTEX
  8
0
  6
CONTINUOUS
 10
3.760680
 20
0.986920
  0
VERTEX
  8
0
  6
CONTINUOUS
 10
3.758480
 20
0.964040
  0
VERTEX
  8
0
  6
CONTINUOUS
 10
3.610200
 20
0.963160
  0
VERTEX
  8
0
  6
CONTINUOUS
 10
3.615040
 20
0.963600
  0
VERTEX
  8
0
  6
CONTINUOUS
 10
3.602280
 20
0.963600
  0
VERTEX
  8
0
  6
CONTINUOUS
 10
3.600080
 20
0.986480
  0
VERTEX
  8
0
  6
CONTINUOUS
 10
3.593480
 20
1.008040
  0
VERTEX
  8
0
  6
CONTINUOUS
 10
3.582920
 20
1.027400
  0
VERTEX
  8
0
  6
CONTINUOUS
 10
3.568840
 20
1.044560
  0
VERTEX
  8
0
  6
CONTINUOUS
 10
3.552120
 20
1.058640
  0
VERTEX
  8
0
  6
CONTINUOUS
 10
3.532760
 20
1.069200
  0
VERTEX
  8
0
  6
CONTINUOUS
 10
3.511200
 20
1.075800
  0
VERTEX
  8
0
  6
CONTINUOUS
 10
3.487880
 20
1.078000
  0
VERTEX
  8
0
  6
CONTINUOUS
 10
3.465000
 20
1.075800
  0
VERTEX
  8
0
  6
CONTINUOUS
 10
3.443440
 20
1.069200
  0
VERTEX
  8
0
  6
CONTINUOUS
 10
3.424080
 20
1.058640
  0
VERTEX
  8
0
  6
CONTINUOUS
 10
3.406920
 20
1.044560
  0
VERTEX
  8
0
  6
CONTINUOUS
 10
3.393280
 20
1.027400
  0
VERTEX
  8
0
  6
CONTINUOUS
 10
3.382720
 20
1.008040
  0
VERTEX
  8
0
  6
CONTINUOUS
 10
3.375680
 20
0.986480
  0
VERTEX
  8
0
  6
CONTINUOUS
 10
3.373480
 20
0.963600
  0
VERTEX
  8
0
  6
CONTINUOUS
 10
2.388760
 20
0.963600
  0
VERTEX
  8
0
  6
CONTINUOUS
 10
2.388760
 20
1.705000
  0
VERTEX
  8
0
  6
CONTINUOUS
 10
2.648360
 20
1.705000
  0
VERTEX
  8
0
  6
CONTINUOUS
 10
2.781680
 20
1.524160
  0
VERTEX
  8
0
  6
CONTINUOUS
 10
4.148320
 20
1.281720
  0
VERTEX
  8
0
  6
CONTINUOUS
 10
4.148320
 20
0.963600
  0
VERTEX
  8
0
  6
CONTINUOUS
 10
3.994760
 20
0.963600
  0
VERTEX
  8
0
  6
CONTINUOUS
 10
4.000040
 20
0.964040
  0
SEQEND
  8
0
  0
TEXT
  8
0
 10
3.291200
 20
0.741840
 40
0.138208
  1
BA  783
 41
1.000000
  7
SN0
 71
     0
 72
     5
 11
3.882738
 21
0.741840
  0
TEXT
  8
0
 10
3.135440
 20
0.550000
 40
0.138208
  1
3/4" x 1-3/4"
 41
1.000000
  7
SN0
 71
     0
 72
     5
 11
4.038711
 21
0.550000
  0
POLYLINE
  8
0
  6
CONTINUOUS
 66
     1
 40
0.014080
 41
0.014080
  0
VERTEX
  8
0
  6
CONTINUOUS
 10
6.661600
 20
1.185800
  0
VERTEX
  8
0
  6
CONTINUOUS
 10
6.815160
 20
1.185800
  0
VERTEX
  8
0
  6
CONTINUOUS
 10
6.815160
 20
1.503480
  0
VERTEX
  8
0
  6
CONTINUOUS
 10
5.448520
 20
1.745920
  0
VERTEX
  8
0
  6
CONTINUOUS
 10
5.315640
 20
1.927200
  0
VERTEX
  8
0
  6
CONTINUOUS
 10
5.055600
 20
1.927200
  0
VERTEX
  8
0
  6
CONTINUOUS
 10
5.055600
 20
1.185360
  0
VERTEX
  8
0
  6
CONTINUOUS
 10
6.040320
 20
1.185360
  0
VERTEX
  8
0
  6
CONTINUOUS
 10
6.042520
 20
1.208680
  0
VERTEX
  8
0
  6
CONTINUOUS
 10
6.049560
 20
1.230240
  0
VERTEX
  8
0
  6
CONTINUOUS
 10
6.060120
 20
1.249600
  0
VERTEX
  8
0
  6
CONTINUOUS
 10
6.074200
 20
1.266320
  0
VERTEX
  8
0
  6
CONTINUOUS
 10
6.090920
 20
1.280400
  0
VERTEX
  8
0
  6
CONTINUOUS
 10
6.110280
 20
1.290960
  0
VERTEX
  8
0
  6
CONTINUOUS
 10
6.131840
 20
1.298000
  0
VERTEX
  8
0
  6
CONTINUOUS
 10
6.155160
 20
1.300200
  0
VERTEX
  8
0
  6
CONTINUOUS
 10
6.178040
 20
1.298000
  0
VERTEX
  8
0
  6
CONTINUOUS
 10
6.199600
 20
1.290960
  0
VERTEX
  8
0
  6
CONTINUOUS
 10
6.218960
 20
1.280400
  0
VERTEX
  8
0
  6
CONTINUOUS
 10
6.236120
 20
1.266320
  0
VERTEX
  8
0
  6
CONTINUOUS
 10
6.249760
 20
1.249600
  0
VERTEX
  8
0
  6
CONTINUOUS
 10
6.260320
 20
1.230240
  0
VERTEX
  8
0
  6
CONTINUOUS
 10
6.267360
 20
1.208680
  0
VERTEX
  8
0
  6
CONTINUOUS
 10
6.269560
 20
1.185360
  0
VERTEX
  8
0
  6
CONTINUOUS
 10
6.281880
 20
1.185360
  0
VERTEX
  8
0
  6
CONTINUOUS
 10
6.277040
 20
1.185360
  0
VERTEX
  8
0
  6
CONTINUOUS
 10
6.425320
 20
1.185800
  0
VERTEX
  8
0
  6
CONTINUOUS
 10
6.427520
 20
1.209120
  0
VERTEX
  8
0
  6
CONTINUOUS
 10
6.434560
 20
1.230680
  0
VERTEX
  8
0
  6
CONTINUOUS
 10
6.445120
 20
1.250040
  0
VERTEX
  8
0
  6
CONTINUOUS
 10
6.459200
 20
1.266760
  0
VERTEX
  8
0
  6
CONTINUOUS
 10
6.475920
 20
1.280840
  0
VERTEX
  8
0
  6
CONTINUOUS
 10
6.495280
 20
1.291400
  0
VERTEX
  8
0
  6
CONTINUOUS
 10
6.516840
 20
1.298440
  0
VERTEX
  8
0
  6
CONTINUOUS
 10
6.540160
 20
1.300640
  0
VERTEX
  8
0
  6
CONTINUOUS
 10
6.563040
 20
1.298440
  0
VERTEX
  8
0
  6
CONTINUOUS
 10
6.584600
 20
1.291400
  0
VERTEX
  8
0
  6
CONTINUOUS
 10
6.603960
 20
1.280840
  0
VERTEX
  8
0
  6
CONTINUOUS
 10
6.621120
 20
1.266760
  0
VERTEX
  8
0
  6
CONTINUOUS
 10
6.634760
 20
1.250040
  0
VERTEX
  8
0
  6
CONTINUOUS
 10
6.645320
 20
1.230680
  0
VERTEX
  8
0
  6
CONTINUOUS
 10
6.652360
 20
1.209120
  0
VERTEX
  8
0
  6
CONTINUOUS
 10
6.654560
 20
1.185800
  0
VERTEX
  8
0
  6
CONTINUOUS
 10
6.666880
 20
1.185800
  0
VERTEX
  8
0
  6
CONTINUOUS
 10
6.661600
 20
1.185800
  0
SEQEND
  8
0
  0
ENDSEC
  0
EOF
