  0
SECTION
  2
HEADER
  9
$ACADVER
  1
AC1006
  9
$EXTMIN
 10
5.093880
 20
0.507320
  9
$EXTMAX
 10
7.477800
 20
3.265240
  9
$LTSCALE
 40
0.044000
  9
$PDMODE
 70
    35
  9
$PDSIZE
 40
0.035200
  0
ENDSEC
  0
SECTION
  2
TABLES
  0
TABLE
  2
LTYPE
 70
     9
  0
LTYPE
  2
CONTINUOUS
 70
    64
  3
Solid line
 72
    65
 73
     0
 40
0.000000
  0
LTYPE
  2
DASHED
 70
    64
  3
__ __ __ __ __ __ __ __ __ __ __ __ __ __ __
 72
    65
 73
     2
 40
0.000330
 49
0.000220
 49
-0.000110
  0
LTYPE
  2
HIDDEN
 70
    64
  3
 _ _ _ _ _ _ _ _ _ _ _ _ _ _ _ _ _ _ _ _ _ _
 72
    65
 73
     2
 40
0.000165
 49
0.000110
 49
-0.000055
  0
LTYPE
  2
CENTER
 70
    64
  3
____ _ ____ _ ____ _ ____ _ ____ _ ____ _ ____
 72
    65
 73
     4
 40
0.000880
 49
0.000550
 49
-0.000110
 49
0.000110
 49
-0.000110
  0
LTYPE
  2
PHANTOM
 70
    64
  3
_____ _ _ _____ _ _ _____ _ _ _____ _ _ ____
 72
    65
 73
     6
 40
0.001100
 49
0.000550
 49
-0.000110
 49
0.000110
 49
-0.000110
 49
0.000110
 49
-0.000110
  0
LTYPE
  2
DOT
 70
    64
  3
...............................................
 72
    65
 73
     2
 40
0.000110
 49
0.000000
 49
-0.000110
  0
LTYPE
  2
DASHDOT
 70
    64
  3
__ . __ . __ . __ . __ . __ . __ . __ . __ . __
 72
    65
 73
     4
 40
0.000440
 49
0.000220
 49
-0.000110
 49
0.000000
 49
-0.000110
  0
LTYPE
  2
BORDER
 70
    64
  3
__ __ . __ __ . __ __ . __ __ . __ __ . __ __
 72
    65
 73
     6
 40
0.000770
 49
0.000220
 49
-0.000110
 49
0.000220
 49
-0.000110
 49
0.000000
 49
-0.000110
  0
LTYPE
  2
DIVIDE
 70
    64
  3
__ . . __ . . __ . . __ . . __ . . __ . . __
 72
    65
 73
     6
 40
0.000550
 49
0.000220
 49
-0.000110
 49
0.000000
 49
-0.000110
 49
0.000000
 49
-0.000110
  0
LTYPE
  2
DOTDOT
 70
    64
  3
 . .  . .  . .  . .  . .  . . 
 72
    65
 73
     5
 40
0.000242
 49
-0.000110
 49
0.000000
 49
-0.000110
 49
0.000000
 49
-0.000110
  0
ENDTAB
  0
TABLE
  2
STYLE
 70
     2
  0
STYLE
 70
     0
  2
SN0
 40
0.000000
 41
0.000440
 50
0.000000
 71
     0
 42
0.000000
  3
ROMAND
  0
STYLE
 70
    68
  2
SV0
 40
0.000000
 41
0.000440
 50
0.000000
 71
     0
 42
0.000000
  3
ROMAND
  0
ENDTAB
  0
TABLE
  2
LAYER
 70
     3
  0
LAYER
  2
FOREGROUND
 70
    64
 62
     7
  6
CONTINUOUS
  0
LAYER
  2
BACKGROUND
 70
    65
 62
    -7
  6
CONTINUOUS
  0
LAYER
  2
0
 70
    64
 62
     7
  6
CONTINUOUS
  0
ENDTAB
  0
ENDSEC
  0
SECTION
  2
ENTITIES
  0
POLYLINE
  8
FOREGROUND
  6
CONTINUOUS
 66
     1
 40
0.000000
 41
0.000000
  0
VERTEX
  8
FOREGROUND
  6
CONTINUOUS
 10
0.000000
 20
3.772560
  0
VERTEX
  8
FOREGROUND
  6
CONTINUOUS
 10
8.499920
 20
3.772560
  0
VERTEX
  8
FOREGROUND
  6
CONTINUOUS
 10
8.499920
 20
-7.227440
  0
VERTEX
  8
FOREGROUND
  6
CONTINUOUS
 10
0.000000
 20
-7.227440
  0
VERTEX
  8
FOREGROUND
  6
CONTINUOUS
 10
0.000000
 20
3.772560
  0
SEQEND
  8
0
  0
POLYLINE
  8
FOREGROUND
  6
CONTINUOUS
 66
     1
 40
0.000000
 41
0.000000
  0
VERTEX
  8
FOREGROUND
  6
CONTINUOUS
 10
0.000000
 20
3.772560
  0
VERTEX
  8
FOREGROUND
  6
CONTINUOUS
 10
8.499920
 20
3.772560
  0
VERTEX
  8
FOREGROUND
  6
CONTINUOUS
 10
8.499920
 20
-7.227440
  0
VERTEX
  8
FOREGROUND
  6
CONTINUOUS
 10
0.000000
 20
-7.227440
  0
VERTEX
  8
FOREGROUND
  6
CONTINUOUS
 10
0.000000
 20
3.772560
  0
SEQEND
  8
0
  0
POLYLINE
  8
0
  6
CONTINUOUS
 66
     1
 40
0.014080
 41
0.014080
  0
VERTEX
  8
0
  6
CONTINUOUS
 10
6.859160
 20
3.152160
  0
VERTEX
  8
0
  6
CONTINUOUS
 10
6.723640
 20
3.152160
  0
VERTEX
  8
0
  6
CONTINUOUS
 10
6.723640
 20
1.248720
  0
VERTEX
  8
0
  6
CONTINUOUS
 10
7.470760
 20
1.248720
  0
VERTEX
  8
0
  6
CONTINUOUS
 10
7.470760
 20
1.808400
  0
VERTEX
  8
0
  6
CONTINUOUS
 10
7.315880
 20
1.826000
  0
VERTEX
  8
0
  6
CONTINUOUS
 10
7.312800
 20
1.862520
  0
VERTEX
  8
0
  6
CONTINUOUS
 10
7.349760
 20
1.896400
  0
VERTEX
  8
0
  6
CONTINUOUS
 10
7.381000
 20
1.932920
  0
VERTEX
  8
0
  6
CONTINUOUS
 10
7.406960
 20
1.972080
  0
VERTEX
  8
0
  6
CONTINUOUS
 10
7.427640
 20
2.013000
  0
VERTEX
  8
0
  6
CONTINUOUS
 10
7.438200
 20
2.040720
  0
VERTEX
  8
0
  6
CONTINUOUS
 10
7.446560
 20
2.069320
  0
VERTEX
  8
0
  6
CONTINUOUS
 10
7.452280
 20
2.098360
  0
VERTEX
  8
0
  6
CONTINUOUS
 10
7.455800
 20
2.127400
  0
VERTEX
  8
0
  6
CONTINUOUS
 10
7.457120
 20
2.156440
  0
VERTEX
  8
0
  6
CONTINUOUS
 10
7.456240
 20
2.185920
  0
VERTEX
  8
0
  6
CONTINUOUS
 10
7.453160
 20
2.214520
  0
VERTEX
  8
0
  6
CONTINUOUS
 10
7.447440
 20
2.243120
  0
VERTEX
  8
0
  6
CONTINUOUS
 10
7.439960
 20
2.271280
  0
VERTEX
  8
0
  6
CONTINUOUS
 10
7.430280
 20
2.298560
  0
VERTEX
  8
0
  6
CONTINUOUS
 10
7.417960
 20
2.325400
  0
VERTEX
  8
0
  6
CONTINUOUS
 10
7.403880
 20
2.351360
  0
VERTEX
  8
0
  6
CONTINUOUS
 10
7.387600
 20
2.376000
  0
VERTEX
  8
0
  6
CONTINUOUS
 10
7.359000
 20
2.411200
  0
VERTEX
  8
0
  6
CONTINUOUS
 10
7.326000
 20
2.442880
  0
VERTEX
  8
0
  6
CONTINUOUS
 10
7.301360
 20
2.462240
  0
VERTEX
  8
0
  6
CONTINUOUS
 10
7.260880
 20
2.487760
  0
VERTEX
  8
0
  6
CONTINUOUS
 10
7.215560
 20
2.508880
  0
VERTEX
  8
0
  6
CONTINUOUS
 10
7.165840
 20
2.525600
  0
VERTEX
  8
0
  6
CONTINUOUS
 10
7.112160
 20
2.536600
  0
VERTEX
  8
0
  6
CONTINUOUS
 10
7.054080
 20
2.541880
  0
VERTEX
  8
0
  6
CONTINUOUS
 10
7.012720
 20
2.541880
  0
VERTEX
  8
0
  6
CONTINUOUS
 10
6.991600
 20
2.541000
  0
VERTEX
  8
0
  6
CONTINUOUS
 10
6.976640
 20
2.588520
  0
VERTEX
  8
0
  6
CONTINUOUS
 10
7.004800
 20
2.596880
  0
VERTEX
  8
0
  6
CONTINUOUS
 10
7.030320
 20
2.608320
  0
VERTEX
  8
0
  6
CONTINUOUS
 10
7.063760
 20
2.630320
  0
VERTEX
  8
0
  6
CONTINUOUS
 10
7.089720
 20
2.657160
  0
VERTEX
  8
0
  6
CONTINUOUS
 10
7.103360
 20
2.677400
  0
VERTEX
  8
0
  6
CONTINUOUS
 10
7.113480
 20
2.698520
  0
VERTEX
  8
0
  6
CONTINUOUS
 10
7.120080
 20
2.720520
  0
VERTEX
  8
0
  6
CONTINUOUS
 10
7.123160
 20
2.743400
  0
VERTEX
  8
0
  6
CONTINUOUS
 10
7.121840
 20
2.766280
  0
VERTEX
  8
0
  6
CONTINUOUS
 10
7.117000
 20
2.789160
  0
VERTEX
  8
0
  6
CONTINUOUS
 10
7.107760
 20
2.811600
  0
VERTEX
  8
0
  6
CONTINUOUS
 10
7.094560
 20
2.833160
  0
VERTEX
  8
0
  6
CONTINUOUS
 10
7.076960
 20
2.853840
  0
VERTEX
  8
0
  6
CONTINUOUS
 10
7.054520
 20
2.872760
  0
VERTEX
  8
0
  6
CONTINUOUS
 10
6.986760
 20
2.915000
  0
VERTEX
  8
0
  6
CONTINUOUS
 10
6.953320
 20
2.940960
  0
VERTEX
  8
0
  6
CONTINUOUS
 10
6.934400
 20
2.958560
  0
VERTEX
  8
0
  6
CONTINUOUS
 10
6.918560
 20
2.976160
  0
VERTEX
  8
0
  6
CONTINUOUS
 10
6.904920
 20
2.994200
  0
VERTEX
  8
0
  6
CONTINUOUS
 10
6.884680
 20
3.029840
  0
VERTEX
  8
0
  6
CONTINUOUS
 10
6.871480
 20
3.064160
  0
VERTEX
  8
0
  6
CONTINUOUS
 10
6.862240
 20
3.111680
  0
VERTEX
  8
0
  6
CONTINUOUS
 10
6.860480
 20
3.151720
  0
VERTEX
  8
0
  6
CONTINUOUS
 10
6.859160
 20
3.152160
  0
SEQEND
  8
0
  0
SOLID
  8
0
 62
     7
 10
5.347760
 20
2.322320
 11
5.987960
 21
2.701160
 12
5.362720
 22
2.274800
 13
6.002920
 23
2.653640
  0
POLYLINE
  8
0
  6
CONTINUOUS
 66
     1
 40
0.000000
 41
0.000000
  0
VERTEX
  8
0
  6
CONTINUOUS
 10
5.347760
 20
2.322320
  0
VERTEX
  8
0
  6
CONTINUOUS
 10
5.987960
 20
2.701160
  0
VERTEX
  8
0
  6
CONTINUOUS
 10
6.002920
 20
2.653640
  0
VERTEX
  8
0
  6
CONTINUOUS
 10
5.362720
 20
2.274800
  0
VERTEX
  8
0
  6
CONTINUOUS
 10
5.347760
 20
2.322320
  0
SEQEND
  8
0
  0
SOLID
  8
0
 62
    15
 10
5.232480
 20
2.860000
 11
5.872680
 21
3.238400
 12
5.235560
 22
2.830520
 13
5.875760
 23
3.208920
  0
POLYLINE
  8
0
  6
CONTINUOUS
 66
     1
 40
0.000000
 41
0.000000
  0
VERTEX
  8
0
  6
CONTINUOUS
 10
5.232480
 20
2.860000
  0
VERTEX
  8
0
  6
CONTINUOUS
 10
5.872680
 20
3.238400
  0
VERTEX
  8
0
  6
CONTINUOUS
 10
5.875760
 20
3.208920
  0
VERTEX
  8
0
  6
CONTINUOUS
 10
5.235560
 20
2.830520
  0
VERTEX
  8
0
  6
CONTINUOUS
 10
5.232480
 20
2.860000
  0
SEQEND
  8
0
  0
SOLID
  8
0
 62
    15
 10
5.235560
 20
2.830520
 11
5.875760
 21
3.208920
 12
5.242600
 22
2.797960
 13
5.883240
 23
3.176360
  0
POLYLINE
  8
0
  6
CONTINUOUS
 66
     1
 40
0.000000
 41
0.000000
  0
VERTEX
  8
0
  6
CONTINUOUS
 10
5.235560
 20
2.830520
  0
VERTEX
  8
0
  6
CONTINUOUS
 10
5.875760
 20
3.208920
  0
VERTEX
  8
0
  6
CONTINUOUS
 10
5.883240
 20
3.176360
  0
VERTEX
  8
0
  6
CONTINUOUS
 10
5.242600
 20
2.797960
  0
VERTEX
  8
0
  6
CONTINUOUS
 10
5.235560
 20
2.830520
  0
SEQEND
  8
0
  0
SOLID
  8
0
 62
     7
 10
5.242600
 20
2.797960
 11
5.883240
 21
3.176360
 12
5.255800
 22
2.763640
 13
5.896000
 23
3.142040
  0
POLYLINE
  8
0
  6
CONTINUOUS
 66
     1
 40
0.000000
 41
0.000000
  0
VERTEX
  8
0
  6
CONTINUOUS
 10
5.242600
 20
2.797960
  0
VERTEX
  8
0
  6
CONTINUOUS
 10
5.883240
 20
3.176360
  0
VERTEX
  8
0
  6
CONTINUOUS
 10
5.896000
 20
3.142040
  0
VERTEX
  8
0
  6
CONTINUOUS
 10
5.255800
 20
2.763640
  0
VERTEX
  8
0
  6
CONTINUOUS
 10
5.242600
 20
2.797960
  0
SEQEND
  8
0
  0
SOLID
  8
0
 62
     7
 10
5.255800
 20
2.763640
 11
5.896000
 21
3.142040
 12
5.276040
 22
2.728000
 13
5.916680
 23
3.106400
  0
POLYLINE
  8
0
  6
CONTINUOUS
 66
     1
 40
0.000000
 41
0.000000
  0
VERTEX
  8
0
  6
CONTINUOUS
 10
5.255800
 20
2.763640
  0
VERTEX
  8
0
  6
CONTINUOUS
 10
5.896000
 20
3.142040
  0
VERTEX
  8
0
  6
CONTINUOUS
 10
5.916680
 20
3.106400
  0
VERTEX
  8
0
  6
CONTINUOUS
 10
5.276040
 20
2.728000
  0
VERTEX
  8
0
  6
CONTINUOUS
 10
5.255800
 20
2.763640
  0
SEQEND
  8
0
  0
SOLID
  8
0
 62
    15
 10
5.276040
 20
2.728000
 11
5.916680
 21
3.106400
 12
5.305520
 22
2.692360
 13
5.946160
 23
3.070760
  0
POLYLINE
  8
0
  6
CONTINUOUS
 66
     1
 40
0.000000
 41
0.000000
  0
VERTEX
  8
0
  6
CONTINUOUS
 10
5.276040
 20
2.728000
  0
VERTEX
  8
0
  6
CONTINUOUS
 10
5.916680
 20
3.106400
  0
VERTEX
  8
0
  6
CONTINUOUS
 10
5.946160
 20
3.070760
  0
VERTEX
  8
0
  6
CONTINUOUS
 10
5.305520
 20
2.692360
  0
VERTEX
  8
0
  6
CONTINUOUS
 10
5.276040
 20
2.728000
  0
SEQEND
  8
0
  0
SOLID
  8
0
 62
    15
 10
5.305520
 20
2.692360
 11
5.946160
 21
3.070760
 12
5.346000
 22
2.657160
 13
5.986200
 23
3.035560
  0
POLYLINE
  8
0
  6
CONTINUOUS
 66
     1
 40
0.000000
 41
0.000000
  0
VERTEX
  8
0
  6
CONTINUOUS
 10
5.305520
 20
2.692360
  0
VERTEX
  8
0
  6
CONTINUOUS
 10
5.946160
 20
3.070760
  0
VERTEX
  8
0
  6
CONTINUOUS
 10
5.986200
 20
3.035560
  0
VERTEX
  8
0
  6
CONTINUOUS
 10
5.346000
 20
2.657160
  0
VERTEX
  8
0
  6
CONTINUOUS
 10
5.305520
 20
2.692360
  0
SEQEND
  8
0
  0
SOLID
  8
0
 62
    15
 10
5.346000
 20
2.657160
 11
5.986200
 21
3.035560
 12
5.398360
 22
2.623720
 13
6.038560
 23
3.002120
  0
POLYLINE
  8
0
  6
CONTINUOUS
 66
     1
 40
0.000000
 41
0.000000
  0
VERTEX
  8
0
  6
CONTINUOUS
 10
5.346000
 20
2.657160
  0
VERTEX
  8
0
  6
CONTINUOUS
 10
5.986200
 20
3.035560
  0
VERTEX
  8
0
  6
CONTINUOUS
 10
6.038560
 20
3.002120
  0
VERTEX
  8
0
  6
CONTINUOUS
 10
5.398360
 20
2.623720
  0
VERTEX
  8
0
  6
CONTINUOUS
 10
5.346000
 20
2.657160
  0
SEQEND
  8
0
  0
SOLID
  8
0
 62
    15
 10
5.398360
 20
2.623720
 11
6.038560
 21
3.002120
 12
5.425200
 22
2.606560
 13
6.065840
 23
2.984960
  0
POLYLINE
  8
0
  6
CONTINUOUS
 66
     1
 40
0.000000
 41
0.000000
  0
VERTEX
  8
0
  6
CONTINUOUS
 10
5.398360
 20
2.623720
  0
VERTEX
  8
0
  6
CONTINUOUS
 10
6.038560
 20
3.002120
  0
VERTEX
  8
0
  6
CONTINUOUS
 10
6.065840
 20
2.984960
  0
VERTEX
  8
0
  6
CONTINUOUS
 10
5.425200
 20
2.606560
  0
VERTEX
  8
0
  6
CONTINUOUS
 10
5.398360
 20
2.623720
  0
SEQEND
  8
0
  0
SOLID
  8
0
 62
    15
 10
5.425200
 20
2.606560
 11
6.065840
 21
2.984960
 12
5.447640
 22
2.587200
 13
6.088280
 23
2.966040
  0
POLYLINE
  8
0
  6
CONTINUOUS
 66
     1
 40
0.000000
 41
0.000000
  0
VERTEX
  8
0
  6
CONTINUOUS
 10
5.425200
 20
2.606560
  0
VERTEX
  8
0
  6
CONTINUOUS
 10
6.065840
 20
2.984960
  0
VERTEX
  8
0
  6
CONTINUOUS
 10
6.088280
 20
2.966040
  0
VERTEX
  8
0
  6
CONTINUOUS
 10
5.447640
 20
2.587200
  0
VERTEX
  8
0
  6
CONTINUOUS
 10
5.425200
 20
2.606560
  0
SEQEND
  8
0
  0
SOLID
  8
0
 62
    15
 10
5.447640
 20
2.587200
 11
6.088280
 21
2.966040
 12
5.465680
 22
2.566960
 13
6.105880
 23
2.945360
  0
POLYLINE
  8
0
  6
CONTINUOUS
 66
     1
 40
0.000000
 41
0.000000
  0
VERTEX
  8
0
  6
CONTINUOUS
 10
5.447640
 20
2.587200
  0
VERTEX
  8
0
  6
CONTINUOUS
 10
6.088280
 20
2.966040
  0
VERTEX
  8
0
  6
CONTINUOUS
 10
6.105880
 20
2.945360
  0
VERTEX
  8
0
  6
CONTINUOUS
 10
5.465680
 20
2.566960
  0
VERTEX
  8
0
  6
CONTINUOUS
 10
5.447640
 20
2.587200
  0
SEQEND
  8
0
  0
SOLID
  8
0
 62
    15
 10
5.465680
 20
2.566960
 11
6.105880
 21
2.945360
 12
5.478880
 22
2.545400
 13
6.119520
 23
2.923800
  0
POLYLINE
  8
0
  6
CONTINUOUS
 66
     1
 40
0.000000
 41
0.000000
  0
VERTEX
  8
0
  6
CONTINUOUS
 10
5.465680
 20
2.566960
  0
VERTEX
  8
0
  6
CONTINUOUS
 10
6.105880
 20
2.945360
  0
VERTEX
  8
0
  6
CONTINUOUS
 10
6.119520
 20
2.923800
  0
VERTEX
  8
0
  6
CONTINUOUS
 10
5.478880
 20
2.545400
  0
VERTEX
  8
0
  6
CONTINUOUS
 10
5.465680
 20
2.566960
  0
SEQEND
  8
0
  0
SOLID
  8
0
 62
    15
 10
5.478880
 20
2.545400
 11
6.119520
 21
2.923800
 12
5.488120
 22
2.522960
 13
6.128320
 23
2.901360
  0
POLYLINE
  8
0
  6
CONTINUOUS
 66
     1
 40
0.000000
 41
0.000000
  0
VERTEX
  8
0
  6
CONTINUOUS
 10
5.478880
 20
2.545400
  0
VERTEX
  8
0
  6
CONTINUOUS
 10
6.119520
 20
2.923800
  0
VERTEX
  8
0
  6
CONTINUOUS
 10
6.128320
 20
2.901360
  0
VERTEX
  8
0
  6
CONTINUOUS
 10
5.488120
 20
2.522960
  0
VERTEX
  8
0
  6
CONTINUOUS
 10
5.478880
 20
2.545400
  0
SEQEND
  8
0
  0
SOLID
  8
0
 62
    15
 10
5.488120
 20
2.522960
 11
6.128320
 21
2.901360
 12
5.492960
 22
2.500080
 13
6.133600
 23
2.878480
  0
POLYLINE
  8
0
  6
CONTINUOUS
 66
     1
 40
0.000000
 41
0.000000
  0
VERTEX
  8
0
  6
CONTINUOUS
 10
5.488120
 20
2.522960
  0
VERTEX
  8
0
  6
CONTINUOUS
 10
6.128320
 20
2.901360
  0
VERTEX
  8
0
  6
CONTINUOUS
 10
6.133600
 20
2.878480
  0
VERTEX
  8
0
  6
CONTINUOUS
 10
5.492960
 20
2.500080
  0
VERTEX
  8
0
  6
CONTINUOUS
 10
5.488120
 20
2.522960
  0
SEQEND
  8
0
  0
SOLID
  8
0
 62
    15
 10
5.492960
 20
2.500080
 11
6.133600
 21
2.878480
 12
5.493840
 22
2.477200
 13
6.134480
 23
2.855600
  0
POLYLINE
  8
0
  6
CONTINUOUS
 66
     1
 40
0.000000
 41
0.000000
  0
VERTEX
  8
0
  6
CONTINUOUS
 10
5.492960
 20
2.500080
  0
VERTEX
  8
0
  6
CONTINUOUS
 10
6.133600
 20
2.878480
  0
VERTEX
  8
0
  6
CONTINUOUS
 10
6.134480
 20
2.855600
  0
VERTEX
  8
0
  6
CONTINUOUS
 10
5.493840
 20
2.477200
  0
VERTEX
  8
0
  6
CONTINUOUS
 10
5.492960
 20
2.500080
  0
SEQEND
  8
0
  0
SOLID
  8
0
 62
    15
 10
5.493840
 20
2.477200
 11
6.134480
 21
2.855600
 12
5.491200
 22
2.454320
 13
6.131400
 23
2.833160
  0
POLYLINE
  8
0
  6
CONTINUOUS
 66
     1
 40
0.000000
 41
0.000000
  0
VERTEX
  8
0
  6
CONTINUOUS
 10
5.493840
 20
2.477200
  0
VERTEX
  8
0
  6
CONTINUOUS
 10
6.134480
 20
2.855600
  0
VERTEX
  8
0
  6
CONTINUOUS
 10
6.131400
 20
2.833160
  0
VERTEX
  8
0
  6
CONTINUOUS
 10
5.491200
 20
2.454320
  0
VERTEX
  8
0
  6
CONTINUOUS
 10
5.493840
 20
2.477200
  0
SEQEND
  8
0
  0
SOLID
  8
0
 62
    15
 10
5.491200
 20
2.454320
 11
6.131400
 21
2.833160
 12
5.484600
 22
2.432320
 13
6.124800
 23
2.810720
  0
POLYLINE
  8
0
  6
CONTINUOUS
 66
     1
 40
0.000000
 41
0.000000
  0
VERTEX
  8
0
  6
CONTINUOUS
 10
5.491200
 20
2.454320
  0
VERTEX
  8
0
  6
CONTINUOUS
 10
6.131400
 20
2.833160
  0
VERTEX
  8
0
  6
CONTINUOUS
 10
6.124800
 20
2.810720
  0
VERTEX
  8
0
  6
CONTINUOUS
 10
5.484600
 20
2.432320
  0
VERTEX
  8
0
  6
CONTINUOUS
 10
5.491200
 20
2.454320
  0
SEQEND
  8
0
  0
SOLID
  8
0
 62
    15
 10
5.484600
 20
2.432320
 11
6.124800
 21
2.810720
 12
5.474480
 22
2.410760
 13
6.114680
 23
2.789600
  0
POLYLINE
  8
0
  6
CONTINUOUS
 66
     1
 40
0.000000
 41
0.000000
  0
VERTEX
  8
0
  6
CONTINUOUS
 10
5.484600
 20
2.432320
  0
VERTEX
  8
0
  6
CONTINUOUS
 10
6.124800
 20
2.810720
  0
VERTEX
  8
0
  6
CONTINUOUS
 10
6.114680
 20
2.789600
  0
VERTEX
  8
0
  6
CONTINUOUS
 10
5.474480
 20
2.410760
  0
VERTEX
  8
0
  6
CONTINUOUS
 10
5.484600
 20
2.432320
  0
SEQEND
  8
0
  0
SOLID
  8
0
 62
    15
 10
5.474480
 20
2.410760
 11
6.114680
 21
2.789600
 12
5.460840
 22
2.390960
 13
6.101480
 23
2.769800
  0
POLYLINE
  8
0
  6
CONTINUOUS
 66
     1
 40
0.000000
 41
0.000000
  0
VERTEX
  8
0
  6
CONTINUOUS
 10
5.474480
 20
2.410760
  0
VERTEX
  8
0
  6
CONTINUOUS
 10
6.114680
 20
2.789600
  0
VERTEX
  8
0
  6
CONTINUOUS
 10
6.101480
 20
2.769800
  0
VERTEX
  8
0
  6
CONTINUOUS
 10
5.460840
 20
2.390960
  0
VERTEX
  8
0
  6
CONTINUOUS
 10
5.474480
 20
2.410760
  0
SEQEND
  8
0
  0
SOLID
  8
0
 62
    15
 10
5.460840
 20
2.390960
 11
6.101480
 21
2.769800
 12
5.444120
 22
2.372480
 13
6.084760
 23
2.751320
  0
POLYLINE
  8
0
  6
CONTINUOUS
 66
     1
 40
0.000000
 41
0.000000
  0
VERTEX
  8
0
  6
CONTINUOUS
 10
5.460840
 20
2.390960
  0
VERTEX
  8
0
  6
CONTINUOUS
 10
6.101480
 20
2.769800
  0
VERTEX
  8
0
  6
CONTINUOUS
 10
6.084760
 20
2.751320
  0
VERTEX
  8
0
  6
CONTINUOUS
 10
5.444120
 20
2.372480
  0
VERTEX
  8
0
  6
CONTINUOUS
 10
5.460840
 20
2.390960
  0
SEQEND
  8
0
  0
SOLID
  8
0
 62
    15
 10
5.444120
 20
2.372480
 11
6.084760
 21
2.751320
 12
5.424320
 22
2.356200
 13
6.064520
 23
2.735040
  0
POLYLINE
  8
0
  6
CONTINUOUS
 66
     1
 40
0.000000
 41
0.000000
  0
VERTEX
  8
0
  6
CONTINUOUS
 10
5.444120
 20
2.372480
  0
VERTEX
  8
0
  6
CONTINUOUS
 10
6.084760
 20
2.751320
  0
VERTEX
  8
0
  6
CONTINUOUS
 10
6.064520
 20
2.735040
  0
VERTEX
  8
0
  6
CONTINUOUS
 10
5.424320
 20
2.356200
  0
VERTEX
  8
0
  6
CONTINUOUS
 10
5.444120
 20
2.372480
  0
SEQEND
  8
0
  0
SOLID
  8
0
 62
    15
 10
5.424320
 20
2.356200
 11
6.064520
 21
2.735040
 12
5.401440
 22
2.342120
 13
6.042080
 23
2.720960
  0
POLYLINE
  8
0
  6
CONTINUOUS
 66
     1
 40
0.000000
 41
0.000000
  0
VERTEX
  8
0
  6
CONTINUOUS
 10
5.424320
 20
2.356200
  0
VERTEX
  8
0
  6
CONTINUOUS
 10
6.064520
 20
2.735040
  0
VERTEX
  8
0
  6
CONTINUOUS
 10
6.042080
 20
2.720960
  0
VERTEX
  8
0
  6
CONTINUOUS
 10
5.401440
 20
2.342120
  0
VERTEX
  8
0
  6
CONTINUOUS
 10
5.424320
 20
2.356200
  0
SEQEND
  8
0
  0
SOLID
  8
0
 62
    15
 10
5.231600
 20
2.885520
 11
5.871800
 21
3.263920
 12
5.232480
 22
2.860000
 13
5.872680
 23
3.238400
  0
POLYLINE
  8
0
  6
CONTINUOUS
 66
     1
 40
0.000000
 41
0.000000
  0
VERTEX
  8
0
  6
CONTINUOUS
 10
5.231600
 20
2.885520
  0
VERTEX
  8
0
  6
CONTINUOUS
 10
5.871800
 20
3.263920
  0
VERTEX
  8
0
  6
CONTINUOUS
 10
5.872680
 20
3.238400
  0
VERTEX
  8
0
  6
CONTINUOUS
 10
5.232480
 20
2.860000
  0
VERTEX
  8
0
  6
CONTINUOUS
 10
5.231600
 20
2.885520
  0
SEQEND
  8
0
  0
SOLID
  8
0
 62
    15
 10
5.362720
 20
2.274800
 11
6.002920
 21
2.653640
 12
5.444560
 22
2.274360
 13
6.085200
 23
2.653200
  0
POLYLINE
  8
0
  6
CONTINUOUS
 66
     1
 40
0.000000
 41
0.000000
  0
VERTEX
  8
0
  6
CONTINUOUS
 10
5.362720
 20
2.274800
  0
VERTEX
  8
0
  6
CONTINUOUS
 10
6.002920
 20
2.653640
  0
VERTEX
  8
0
  6
CONTINUOUS
 10
6.085200
 20
2.653200
  0
VERTEX
  8
0
  6
CONTINUOUS
 10
5.444560
 20
2.274360
  0
VERTEX
  8
0
  6
CONTINUOUS
 10
5.362720
 20
2.274800
  0
SEQEND
  8
0
  0
SOLID
  8
0
 62
    15
 10
5.444560
 20
2.274360
 11
6.085200
 21
2.653200
 12
5.519360
 22
2.263360
 13
6.160000
 23
2.642200
  0
POLYLINE
  8
0
  6
CONTINUOUS
 66
     1
 40
0.000000
 41
0.000000
  0
VERTEX
  8
0
  6
CONTINUOUS
 10
5.444560
 20
2.274360
  0
VERTEX
  8
0
  6
CONTINUOUS
 10
6.085200
 20
2.653200
  0
VERTEX
  8
0
  6
CONTINUOUS
 10
6.160000
 20
2.642200
  0
VERTEX
  8
0
  6
CONTINUOUS
 10
5.519360
 20
2.263360
  0
VERTEX
  8
0
  6
CONTINUOUS
 10
5.444560
 20
2.274360
  0
SEQEND
  8
0
  0
SOLID
  8
0
 62
    15
 10
5.519360
 20
2.263360
 11
6.160000
 21
2.642200
 12
5.586680
 22
2.242680
 13
6.226880
 23
2.621520
  0
POLYLINE
  8
0
  6
CONTINUOUS
 66
     1
 40
0.000000
 41
0.000000
  0
VERTEX
  8
0
  6
CONTINUOUS
 10
5.519360
 20
2.263360
  0
VERTEX
  8
0
  6
CONTINUOUS
 10
6.160000
 20
2.642200
  0
VERTEX
  8
0
  6
CONTINUOUS
 10
6.226880
 20
2.621520
  0
VERTEX
  8
0
  6
CONTINUOUS
 10
5.586680
 20
2.242680
  0
VERTEX
  8
0
  6
CONTINUOUS
 10
5.519360
 20
2.263360
  0
SEQEND
  8
0
  0
SOLID
  8
0
 62
    15
 10
5.586680
 20
2.242680
 11
6.226880
 21
2.621520
 12
5.645640
 22
2.213640
 13
6.286280
 23
2.592040
  0
POLYLINE
  8
0
  6
CONTINUOUS
 66
     1
 40
0.000000
 41
0.000000
  0
VERTEX
  8
0
  6
CONTINUOUS
 10
5.586680
 20
2.242680
  0
VERTEX
  8
0
  6
CONTINUOUS
 10
6.226880
 20
2.621520
  0
VERTEX
  8
0
  6
CONTINUOUS
 10
6.286280
 20
2.592040
  0
VERTEX
  8
0
  6
CONTINUOUS
 10
5.645640
 20
2.213640
  0
VERTEX
  8
0
  6
CONTINUOUS
 10
5.586680
 20
2.242680
  0
SEQEND
  8
0
  0
SOLID
  8
0
 62
    15
 10
5.645640
 20
2.213640
 11
6.286280
 21
2.592040
 12
5.697120
 22
2.176680
 13
6.337320
 23
2.555520
  0
POLYLINE
  8
0
  6
CONTINUOUS
 66
     1
 40
0.000000
 41
0.000000
  0
VERTEX
  8
0
  6
CONTINUOUS
 10
5.645640
 20
2.213640
  0
VERTEX
  8
0
  6
CONTINUOUS
 10
6.286280
 20
2.592040
  0
VERTEX
  8
0
  6
CONTINUOUS
 10
6.337320
 20
2.555520
  0
VERTEX
  8
0
  6
CONTINUOUS
 10
5.697120
 20
2.176680
  0
VERTEX
  8
0
  6
CONTINUOUS
 10
5.645640
 20
2.213640
  0
SEQEND
  8
0
  0
SOLID
  8
0
 62
    15
 10
5.697120
 20
2.176680
 11
6.337320
 21
2.555520
 12
5.740240
 22
2.133560
 13
6.380440
 23
2.512400
  0
POLYLINE
  8
0
  6
CONTINUOUS
 66
     1
 40
0.000000
 41
0.000000
  0
VERTEX
  8
0
  6
CONTINUOUS
 10
5.697120
 20
2.176680
  0
VERTEX
  8
0
  6
CONTINUOUS
 10
6.337320
 20
2.555520
  0
VERTEX
  8
0
  6
CONTINUOUS
 10
6.380440
 20
2.512400
  0
VERTEX
  8
0
  6
CONTINUOUS
 10
5.740240
 20
2.133560
  0
VERTEX
  8
0
  6
CONTINUOUS
 10
5.697120
 20
2.176680
  0
SEQEND
  8
0
  0
SOLID
  8
0
 62
    15
 10
5.740240
 20
2.133560
 11
6.380440
 21
2.512400
 12
5.775000
 22
2.085160
 13
6.415200
 23
2.464000
  0
POLYLINE
  8
0
  6
CONTINUOUS
 66
     1
 40
0.000000
 41
0.000000
  0
VERTEX
  8
0
  6
CONTINUOUS
 10
5.740240
 20
2.133560
  0
VERTEX
  8
0
  6
CONTINUOUS
 10
6.380440
 20
2.512400
  0
VERTEX
  8
0
  6
CONTINUOUS
 10
6.415200
 20
2.464000
  0
VERTEX
  8
0
  6
CONTINUOUS
 10
5.775000
 20
2.085160
  0
VERTEX
  8
0
  6
CONTINUOUS
 10
5.740240
 20
2.133560
  0
SEQEND
  8
0
  0
SOLID
  8
0
 62
    15
 10
5.775000
 20
2.085160
 11
6.415200
 21
2.464000
 12
5.800960
 22
2.032800
 13
6.441600
 23
2.411200
  0
POLYLINE
  8
0
  6
CONTINUOUS
 66
     1
 40
0.000000
 41
0.000000
  0
VERTEX
  8
0
  6
CONTINUOUS
 10
5.775000
 20
2.085160
  0
VERTEX
  8
0
  6
CONTINUOUS
 10
6.415200
 20
2.464000
  0
VERTEX
  8
0
  6
CONTINUOUS
 10
6.441600
 20
2.411200
  0
VERTEX
  8
0
  6
CONTINUOUS
 10
5.800960
 20
2.032800
  0
VERTEX
  8
0
  6
CONTINUOUS
 10
5.775000
 20
2.085160
  0
SEQEND
  8
0
  0
SOLID
  8
0
 62
    15
 10
5.800960
 20
2.032800
 11
6.441600
 21
2.411200
 12
5.818560
 22
1.976920
 13
6.458760
 23
2.355760
  0
POLYLINE
  8
0
  6
CONTINUOUS
 66
     1
 40
0.000000
 41
0.000000
  0
VERTEX
  8
0
  6
CONTINUOUS
 10
5.800960
 20
2.032800
  0
VERTEX
  8
0
  6
CONTINUOUS
 10
6.441600
 20
2.411200
  0
VERTEX
  8
0
  6
CONTINUOUS
 10
6.458760
 20
2.355760
  0
VERTEX
  8
0
  6
CONTINUOUS
 10
5.818560
 20
1.976920
  0
VERTEX
  8
0
  6
CONTINUOUS
 10
5.800960
 20
2.032800
  0
SEQEND
  8
0
  0
SOLID
  8
0
 62
    15
 10
5.818560
 20
1.976920
 11
6.458760
 21
2.355760
 12
5.827360
 22
1.919280
 13
6.467560
 23
2.298120
  0
POLYLINE
  8
0
  6
CONTINUOUS
 66
     1
 40
0.000000
 41
0.000000
  0
VERTEX
  8
0
  6
CONTINUOUS
 10
5.818560
 20
1.976920
  0
VERTEX
  8
0
  6
CONTINUOUS
 10
6.458760
 20
2.355760
  0
VERTEX
  8
0
  6
CONTINUOUS
 10
6.467560
 20
2.298120
  0
VERTEX
  8
0
  6
CONTINUOUS
 10
5.827360
 20
1.919280
  0
VERTEX
  8
0
  6
CONTINUOUS
 10
5.818560
 20
1.976920
  0
SEQEND
  8
0
  0
SOLID
  8
0
 62
    15
 10
5.827360
 20
1.919280
 11
6.467560
 21
2.298120
 12
5.826920
 22
1.861200
 13
6.467120
 23
2.240040
  0
POLYLINE
  8
0
  6
CONTINUOUS
 66
     1
 40
0.000000
 41
0.000000
  0
VERTEX
  8
0
  6
CONTINUOUS
 10
5.827360
 20
1.919280
  0
VERTEX
  8
0
  6
CONTINUOUS
 10
6.467560
 20
2.298120
  0
VERTEX
  8
0
  6
CONTINUOUS
 10
6.467120
 20
2.240040
  0
VERTEX
  8
0
  6
CONTINUOUS
 10
5.826920
 20
1.861200
  0
VERTEX
  8
0
  6
CONTINUOUS
 10
5.827360
 20
1.919280
  0
SEQEND
  8
0
  0
SOLID
  8
0
 62
    15
 10
5.826920
 20
1.861200
 11
6.467120
 21
2.240040
 12
5.817240
 22
1.803120
 13
6.457880
 23
2.181960
  0
POLYLINE
  8
0
  6
CONTINUOUS
 66
     1
 40
0.000000
 41
0.000000
  0
VERTEX
  8
0
  6
CONTINUOUS
 10
5.826920
 20
1.861200
  0
VERTEX
  8
0
  6
CONTINUOUS
 10
6.467120
 20
2.240040
  0
VERTEX
  8
0
  6
CONTINUOUS
 10
6.457880
 20
2.181960
  0
VERTEX
  8
0
  6
CONTINUOUS
 10
5.817240
 20
1.803120
  0
VERTEX
  8
0
  6
CONTINUOUS
 10
5.826920
 20
1.861200
  0
SEQEND
  8
0
  0
SOLID
  8
0
 62
    15
 10
5.817240
 20
1.803120
 11
6.457880
 21
2.181960
 12
5.798320
 22
1.746360
 13
6.438960
 23
2.125200
  0
POLYLINE
  8
0
  6
CONTINUOUS
 66
     1
 40
0.000000
 41
0.000000
  0
VERTEX
  8
0
  6
CONTINUOUS
 10
5.817240
 20
1.803120
  0
VERTEX
  8
0
  6
CONTINUOUS
 10
6.457880
 20
2.181960
  0
VERTEX
  8
0
  6
CONTINUOUS
 10
6.438960
 20
2.125200
  0
VERTEX
  8
0
  6
CONTINUOUS
 10
5.798320
 20
1.746360
  0
VERTEX
  8
0
  6
CONTINUOUS
 10
5.817240
 20
1.803120
  0
SEQEND
  8
0
  0
SOLID
  8
0
 62
    15
 10
5.798320
 20
1.746360
 11
6.438960
 21
2.125200
 12
5.770160
 22
1.692240
 13
6.410360
 23
2.071080
  0
POLYLINE
  8
0
  6
CONTINUOUS
 66
     1
 40
0.000000
 41
0.000000
  0
VERTEX
  8
0
  6
CONTINUOUS
 10
5.798320
 20
1.746360
  0
VERTEX
  8
0
  6
CONTINUOUS
 10
6.438960
 20
2.125200
  0
VERTEX
  8
0
  6
CONTINUOUS
 10
6.410360
 20
2.071080
  0
VERTEX
  8
0
  6
CONTINUOUS
 10
5.770160
 20
1.692240
  0
VERTEX
  8
0
  6
CONTINUOUS
 10
5.798320
 20
1.746360
  0
SEQEND
  8
0
  0
SOLID
  8
0
 62
    15
 10
5.770160
 20
1.692240
 11
6.410360
 21
2.071080
 12
5.731880
 22
1.642080
 13
6.372080
 23
2.020480
  0
POLYLINE
  8
0
  6
CONTINUOUS
 66
     1
 40
0.000000
 41
0.000000
  0
VERTEX
  8
0
  6
CONTINUOUS
 10
5.770160
 20
1.692240
  0
VERTEX
  8
0
  6
CONTINUOUS
 10
6.410360
 20
2.071080
  0
VERTEX
  8
0
  6
CONTINUOUS
 10
6.372080
 20
2.020480
  0
VERTEX
  8
0
  6
CONTINUOUS
 10
5.731880
 20
1.642080
  0
VERTEX
  8
0
  6
CONTINUOUS
 10
5.770160
 20
1.692240
  0
SEQEND
  8
0
  0
SOLID
  8
0
 62
    15
 10
5.731880
 20
1.642080
 11
6.372080
 21
2.020480
 12
5.683920
 22
1.596320
 13
6.324120
 23
1.975160
  0
POLYLINE
  8
0
  6
CONTINUOUS
 66
     1
 40
0.000000
 41
0.000000
  0
VERTEX
  8
0
  6
CONTINUOUS
 10
5.731880
 20
1.642080
  0
VERTEX
  8
0
  6
CONTINUOUS
 10
6.372080
 20
2.020480
  0
VERTEX
  8
0
  6
CONTINUOUS
 10
6.324120
 20
1.975160
  0
VERTEX
  8
0
  6
CONTINUOUS
 10
5.683920
 20
1.596320
  0
VERTEX
  8
0
  6
CONTINUOUS
 10
5.731880
 20
1.642080
  0
SEQEND
  8
0
  0
SOLID
  8
0
 62
    15
 10
5.683920
 20
1.596320
 11
6.324120
 21
1.975160
 12
5.687000
 22
1.559800
 13
6.327200
 23
1.938640
  0
POLYLINE
  8
0
  6
CONTINUOUS
 66
     1
 40
0.000000
 41
0.000000
  0
VERTEX
  8
0
  6
CONTINUOUS
 10
5.683920
 20
1.596320
  0
VERTEX
  8
0
  6
CONTINUOUS
 10
6.324120
 20
1.975160
  0
VERTEX
  8
0
  6
CONTINUOUS
 10
6.327200
 20
1.938640
  0
VERTEX
  8
0
  6
CONTINUOUS
 10
5.687000
 20
1.559800
  0
VERTEX
  8
0
  6
CONTINUOUS
 10
5.683920
 20
1.596320
  0
SEQEND
  8
0
  0
SOLID
  8
0
 62
    15
 10
5.687000
 20
1.559800
 11
6.327200
 21
1.938640
 12
5.841440
 22
1.542200
 13
6.482080
 23
1.920600
  0
POLYLINE
  8
0
  6
CONTINUOUS
 66
     1
 40
0.000000
 41
0.000000
  0
VERTEX
  8
0
  6
CONTINUOUS
 10
5.687000
 20
1.559800
  0
VERTEX
  8
0
  6
CONTINUOUS
 10
6.327200
 20
1.938640
  0
VERTEX
  8
0
  6
CONTINUOUS
 10
6.482080
 20
1.920600
  0
VERTEX
  8
0
  6
CONTINUOUS
 10
5.841440
 20
1.542200
  0
VERTEX
  8
0
  6
CONTINUOUS
 10
5.687000
 20
1.559800
  0
SEQEND
  8
0
  0
SOLID
  8
0
 62
    15
 10
5.841440
 20
1.542200
 11
6.482080
 21
1.920600
 12
5.841440
 22
0.982520
 13
6.482080
 23
1.361360
  0
POLYLINE
  8
0
  6
CONTINUOUS
 66
     1
 40
0.000000
 41
0.000000
  0
VERTEX
  8
0
  6
CONTINUOUS
 10
5.841440
 20
1.542200
  0
VERTEX
  8
0
  6
CONTINUOUS
 10
6.482080
 20
1.920600
  0
VERTEX
  8
0
  6
CONTINUOUS
 10
6.482080
 20
1.361360
  0
VERTEX
  8
0
  6
CONTINUOUS
 10
5.841440
 20
0.982520
  0
VERTEX
  8
0
  6
CONTINUOUS
 10
5.841440
 20
1.542200
  0
SEQEND
  8
0
  0
SOLID
  8
0
 62
    15
 10
5.094760
 20
2.885960
 11
5.734960
 21
3.264800
 12
5.230280
 22
2.885960
 13
5.870920
 23
3.264800
  0
POLYLINE
  8
0
  6
CONTINUOUS
 66
     1
 40
0.000000
 41
0.000000
  0
VERTEX
  8
0
  6
CONTINUOUS
 10
5.094760
 20
2.885960
  0
VERTEX
  8
0
  6
CONTINUOUS
 10
5.734960
 20
3.264800
  0
VERTEX
  8
0
  6
CONTINUOUS
 10
5.870920
 20
3.264800
  0
VERTEX
  8
0
  6
CONTINUOUS
 10
5.230280
 20
2.885960
  0
VERTEX
  8
0
  6
CONTINUOUS
 10
5.094760
 20
2.885960
  0
SEQEND
  8
0
  0
SOLID
  8
0
 62
    15
 10
5.230280
 20
2.885960
 11
5.870920
 21
3.264800
 12
5.231600
 22
2.885520
 13
5.871800
 23
3.263920
  0
POLYLINE
  8
0
  6
CONTINUOUS
 66
     1
 40
0.000000
 41
0.000000
  0
VERTEX
  8
0
  6
CONTINUOUS
 10
5.230280
 20
2.885960
  0
VERTEX
  8
0
  6
CONTINUOUS
 10
5.870920
 20
3.264800
  0
VERTEX
  8
0
  6
CONTINUOUS
 10
5.871800
 20
3.263920
  0
VERTEX
  8
0
  6
CONTINUOUS
 10
5.231600
 20
2.885520
  0
VERTEX
  8
0
  6
CONTINUOUS
 10
5.230280
 20
2.885960
  0
SEQEND
  8
0
  0
POLYLINE
  8
0
  6
CONTINUOUS
 66
     1
 40
0.000000
 41
0.000000
  0
VERTEX
  8
0
  6
CONTINUOUS
 10
5.231600
 20
2.885520
  0
VERTEX
  8
0
  6
CONTINUOUS
 10
5.232480
 20
2.860000
  0
VERTEX
  8
0
  6
CONTINUOUS
 10
5.235560
 20
2.830520
  0
VERTEX
  8
0
  6
CONTINUOUS
 10
5.242600
 20
2.797960
  0
VERTEX
  8
0
  6
CONTINUOUS
 10
5.255800
 20
2.763640
  0
VERTEX
  8
0
  6
CONTINUOUS
 10
5.276040
 20
2.728000
  0
VERTEX
  8
0
  6
CONTINUOUS
 10
5.305520
 20
2.692360
  0
VERTEX
  8
0
  6
CONTINUOUS
 10
5.346000
 20
2.657160
  0
VERTEX
  8
0
  6
CONTINUOUS
 10
5.398360
 20
2.623720
  0
VERTEX
  8
0
  6
CONTINUOUS
 10
5.425200
 20
2.606560
  0
VERTEX
  8
0
  6
CONTINUOUS
 10
5.447640
 20
2.587200
  0
VERTEX
  8
0
  6
CONTINUOUS
 10
5.465680
 20
2.566960
  0
VERTEX
  8
0
  6
CONTINUOUS
 10
5.478880
 20
2.545400
  0
VERTEX
  8
0
  6
CONTINUOUS
 10
5.488120
 20
2.522960
  0
VERTEX
  8
0
  6
CONTINUOUS
 10
5.492960
 20
2.500080
  0
VERTEX
  8
0
  6
CONTINUOUS
 10
5.493840
 20
2.477200
  0
VERTEX
  8
0
  6
CONTINUOUS
 10
5.491200
 20
2.454320
  0
VERTEX
  8
0
  6
CONTINUOUS
 10
5.484600
 20
2.432320
  0
VERTEX
  8
0
  6
CONTINUOUS
 10
5.474480
 20
2.410760
  0
VERTEX
  8
0
  6
CONTINUOUS
 10
5.460840
 20
2.390960
  0
VERTEX
  8
0
  6
CONTINUOUS
 10
5.444120
 20
2.372480
  0
VERTEX
  8
0
  6
CONTINUOUS
 10
5.424320
 20
2.356200
  0
VERTEX
  8
0
  6
CONTINUOUS
 10
5.401440
 20
2.342120
  0
VERTEX
  8
0
  6
CONTINUOUS
 10
5.375920
 20
2.330680
  0
VERTEX
  8
0
  6
CONTINUOUS
 10
5.347760
 20
2.322320
  0
VERTEX
  8
0
  6
CONTINUOUS
 10
5.362720
 20
2.274800
  0
VERTEX
  8
0
  6
CONTINUOUS
 10
5.444560
 20
2.274360
  0
VERTEX
  8
0
  6
CONTINUOUS
 10
5.519360
 20
2.263360
  0
VERTEX
  8
0
  6
CONTINUOUS
 10
5.586680
 20
2.242680
  0
VERTEX
  8
0
  6
CONTINUOUS
 10
5.645640
 20
2.213640
  0
VERTEX
  8
0
  6
CONTINUOUS
 10
5.697120
 20
2.176680
  0
VERTEX
  8
0
  6
CONTINUOUS
 10
5.740240
 20
2.133560
  0
VERTEX
  8
0
  6
CONTINUOUS
 10
5.775000
 20
2.085160
  0
VERTEX
  8
0
  6
CONTINUOUS
 10
5.800960
 20
2.032800
  0
VERTEX
  8
0
  6
CONTINUOUS
 10
5.818560
 20
1.976920
  0
VERTEX
  8
0
  6
CONTINUOUS
 10
5.827360
 20
1.919280
  0
VERTEX
  8
0
  6
CONTINUOUS
 10
5.826920
 20
1.861200
  0
VERTEX
  8
0
  6
CONTINUOUS
 10
5.817240
 20
1.803120
  0
VERTEX
  8
0
  6
CONTINUOUS
 10
5.798320
 20
1.746360
  0
VERTEX
  8
0
  6
CONTINUOUS
 10
5.770160
 20
1.692240
  0
VERTEX
  8
0
  6
CONTINUOUS
 10
5.731880
 20
1.642080
  0
VERTEX
  8
0
  6
CONTINUOUS
 10
5.683920
 20
1.596320
  0
VERTEX
  8
0
  6
CONTINUOUS
 10
5.687000
 20
1.559800
  0
VERTEX
  8
0
  6
CONTINUOUS
 10
5.841440
 20
1.542200
  0
VERTEX
  8
0
  6
CONTINUOUS
 10
5.841440
 20
0.982520
  0
VERTEX
  8
0
  6
CONTINUOUS
 10
5.094760
 20
0.982520
  0
VERTEX
  8
0
  6
CONTINUOUS
 10
5.094760
 20
2.885960
  0
VERTEX
  8
0
  6
CONTINUOUS
 10
5.230280
 20
2.885960
  0
VERTEX
  8
0
  6
CONTINUOUS
 10
5.231600
 20
2.885520
  0
SEQEND
  8
0
  0
TEXT
  8
0
 10
5.491640
 20
0.742720
 40
0.138165
  1
BA  782
 41
1.000000
  7
SN0
 71
     0
 72
     5
 11
6.081145
 21
0.742720
  0
TEXT
  8
0
 10
5.335880
 20
0.551320
 40
0.138165
  1
3/4" x 1-7/8"
 41
1.000000
  7
SN0
 71
     0
 72
     5
 11
6.235100
 21
0.551320
  0
ENDSEC
  0
EOF
