  0
SECTION
  2
HEADER
  9
$ACADVER
  1
AC1006
  9
$EXTMIN
 10
1.250040
 20
0.337920
  9
$EXTMAX
 10
6.706040
 20
10.615440
  9
$LTSCALE
 40
0.044000
  9
$PDMODE
 70
    35
  9
$PDSIZE
 40
0.035200
  0
ENDSEC
  0
SECTION
  2
TABLES
  0
TABLE
  2
LTYPE
 70
     9
  0
LTYPE
  2
CONTINUOUS
 70
    64
  3
Solid line
 72
    65
 73
     0
 40
0.000000
  0
LTYPE
  2
DASHED
 70
    64
  3
__ __ __ __ __ __ __ __ __ __ __ __ __ __ __
 72
    65
 73
     2
 40
0.000330
 49
0.000220
 49
-0.000110
  0
LTYPE
  2
HIDDEN
 70
    64
  3
 _ _ _ _ _ _ _ _ _ _ _ _ _ _ _ _ _ _ _ _ _ _
 72
    65
 73
     2
 40
0.000165
 49
0.000110
 49
-0.000055
  0
LTYPE
  2
CENTER
 70
    64
  3
____ _ ____ _ ____ _ ____ _ ____ _ ____ _ ____
 72
    65
 73
     4
 40
0.000880
 49
0.000550
 49
-0.000110
 49
0.000110
 49
-0.000110
  0
LTYPE
  2
PHANTOM
 70
    64
  3
_____ _ _ _____ _ _ _____ _ _ _____ _ _ ____
 72
    65
 73
     6
 40
0.001100
 49
0.000550
 49
-0.000110
 49
0.000110
 49
-0.000110
 49
0.000110
 49
-0.000110
  0
LTYPE
  2
DOT
 70
    64
  3
...............................................
 72
    65
 73
     2
 40
0.000110
 49
0.000000
 49
-0.000110
  0
LTYPE
  2
DASHDOT
 70
    64
  3
__ . __ . __ . __ . __ . __ . __ . __ . __ . __
 72
    65
 73
     4
 40
0.000440
 49
0.000220
 49
-0.000110
 49
0.000000
 49
-0.000110
  0
LTYPE
  2
BORDER
 70
    64
  3
__ __ . __ __ . __ __ . __ __ . __ __ . __ __
 72
    65
 73
     6
 40
0.000770
 49
0.000220
 49
-0.000110
 49
0.000220
 49
-0.000110
 49
0.000000
 49
-0.000110
  0
LTYPE
  2
DIVIDE
 70
    64
  3
__ . . __ . . __ . . __ . . __ . . __ . . __
 72
    65
 73
     6
 40
0.000550
 49
0.000220
 49
-0.000110
 49
0.000000
 49
-0.000110
 49
0.000000
 49
-0.000110
  0
LTYPE
  2
DOTDOT
 70
    64
  3
 . .  . .  . .  . .  . .  . . 
 72
    65
 73
     5
 40
0.000242
 49
-0.000110
 49
0.000000
 49
-0.000110
 49
0.000000
 49
-0.000110
  0
ENDTAB
  0
TABLE
  2
STYLE
 70
     2
  0
STYLE
 70
     0
  2
SN0
 40
0.000000
 41
0.000440
 50
0.000000
 71
     0
 42
0.000000
  3
ROMAND
  0
STYLE
 70
    68
  2
SV0
 40
0.000000
 41
0.000440
 50
0.000000
 71
     0
 42
0.000000
  3
ROMAND
  0
ENDTAB
  0
TABLE
  2
LAYER
 70
     3
  0
LAYER
  2
FOREGROUND
 70
    64
 62
     7
  6
CONTINUOUS
  0
LAYER
  2
BACKGROUND
 70
    65
 62
    -7
  6
CONTINUOUS
  0
LAYER
  2
0
 70
    64
 62
     7
  6
CONTINUOUS
  0
ENDTAB
  0
ENDSEC
  0
SECTION
  2
ENTITIES
  0
POLYLINE
  8
FOREGROUND
  6
CONTINUOUS
 66
     1
 40
0.000000
 41
0.000000
  0
VERTEX
  8
FOREGROUND
  6
CONTINUOUS
 10
0.000000
 20
10.953360
  0
VERTEX
  8
FOREGROUND
  6
CONTINUOUS
 10
8.499920
 20
10.953360
  0
VERTEX
  8
FOREGROUND
  6
CONTINUOUS
 10
8.499920
 20
-0.046640
  0
VERTEX
  8
FOREGROUND
  6
CONTINUOUS
 10
0.000000
 20
-0.046640
  0
VERTEX
  8
FOREGROUND
  6
CONTINUOUS
 10
0.000000
 20
10.953360
  0
SEQEND
  8
0
  0
POLYLINE
  8
FOREGROUND
  6
CONTINUOUS
 66
     1
 40
0.000000
 41
0.000000
  0
VERTEX
  8
FOREGROUND
  6
CONTINUOUS
 10
0.000000
 20
10.953360
  0
VERTEX
  8
FOREGROUND
  6
CONTINUOUS
 10
8.499920
 20
10.953360
  0
VERTEX
  8
FOREGROUND
  6
CONTINUOUS
 10
8.499920
 20
-0.046640
  0
VERTEX
  8
FOREGROUND
  6
CONTINUOUS
 10
0.000000
 20
-0.046640
  0
VERTEX
  8
FOREGROUND
  6
CONTINUOUS
 10
0.000000
 20
10.953360
  0
SEQEND
  8
0
  0
POLYLINE
  8
0
  6
CONTINUOUS
 66
     1
 40
0.014080
 41
0.014080
  0
VERTEX
  8
0
  6
CONTINUOUS
 10
5.175280
 20
9.289720
  0
VERTEX
  8
0
  6
CONTINUOUS
 10
6.238760
 20
9.290160
  0
VERTEX
  8
0
  6
CONTINUOUS
 10
6.262520
 20
9.287080
  0
VERTEX
  8
0
  6
CONTINUOUS
 10
6.289360
 20
9.277840
  0
VERTEX
  8
0
  6
CONTINUOUS
 10
6.318400
 20
9.262440
  0
VERTEX
  8
0
  6
CONTINUOUS
 10
6.348320
 20
9.241320
  0
VERTEX
  8
0
  6
CONTINUOUS
 10
6.377800
 20
9.215360
  0
VERTEX
  8
0
  6
CONTINUOUS
 10
6.405960
 20
9.183680
  0
VERTEX
  8
0
  6
CONTINUOUS
 10
6.419600
 20
9.166520
  0
VERTEX
  8
0
  6
CONTINUOUS
 10
6.443360
 20
9.127800
  0
VERTEX
  8
0
  6
CONTINUOUS
 10
6.454360
 20
9.106680
  0
VERTEX
  8
0
  6
CONTINUOUS
 10
6.471520
 20
9.061800
  0
VERTEX
  8
0
  6
CONTINUOUS
 10
6.483400
 20
9.012520
  0
VERTEX
  8
0
  6
CONTINUOUS
 10
6.486480
 20
8.986560
  0
VERTEX
  8
0
  6
CONTINUOUS
 10
6.487800
 20
8.959720
  0
VERTEX
  8
0
  6
CONTINUOUS
 10
6.487360
 20
8.932000
  0
VERTEX
  8
0
  6
CONTINUOUS
 10
6.484720
 20
8.903400
  0
VERTEX
  8
0
  6
CONTINUOUS
 10
6.475920
 20
8.858960
  0
VERTEX
  8
0
  6
CONTINUOUS
 10
6.461840
 20
8.813200
  0
VERTEX
  8
0
  6
CONTINUOUS
 10
6.433240
 20
8.748960
  0
VERTEX
  8
0
  6
CONTINUOUS
 10
6.403760
 20
8.699680
  0
VERTEX
  8
0
  6
CONTINUOUS
 10
6.367240
 20
8.648640
  0
VERTEX
  8
0
  6
CONTINUOUS
 10
6.330720
 20
8.598480
  0
VERTEX
  8
0
  6
CONTINUOUS
 10
6.302120
 20
8.550960
  0
VERTEX
  8
0
  6
CONTINUOUS
 10
6.281000
 20
8.505640
  0
VERTEX
  8
0
  6
CONTINUOUS
 10
6.266920
 20
8.463400
  0
VERTEX
  8
0
  6
CONTINUOUS
 10
6.259440
 20
8.423360
  0
VERTEX
  8
0
  6
CONTINUOUS
 10
6.257680
 20
8.397840
  0
VERTEX
  8
0
  6
CONTINUOUS
 10
6.258560
 20
8.373640
  0
VERTEX
  8
0
  6
CONTINUOUS
 10
6.261640
 20
8.350320
  0
VERTEX
  8
0
  6
CONTINUOUS
 10
6.271320
 20
8.317320
  0
VERTEX
  8
0
  6
CONTINUOUS
 10
6.280120
 20
8.296640
  0
VERTEX
  8
0
  6
CONTINUOUS
 10
6.291120
 20
8.277280
  0
VERTEX
  8
0
  6
CONTINUOUS
 10
6.304320
 20
8.258360
  0
VERTEX
  8
0
  6
CONTINUOUS
 10
6.335560
 20
8.224040
  0
VERTEX
  8
0
  6
CONTINUOUS
 10
6.372960
 20
8.193680
  0
VERTEX
  8
0
  6
CONTINUOUS
 10
6.415200
 20
8.166840
  0
VERTEX
  8
0
  6
CONTINUOUS
 10
6.461840
 20
8.143520
  0
VERTEX
  8
0
  6
CONTINUOUS
 10
6.512000
 20
8.123720
  0
VERTEX
  8
0
  6
CONTINUOUS
 10
6.563920
 20
8.107000
  0
VERTEX
  8
0
  6
CONTINUOUS
 10
6.617160
 20
8.093800
  0
VERTEX
  8
0
  6
CONTINUOUS
 10
6.697240
 20
8.080160
  0
VERTEX
  8
0
  6
CONTINUOUS
 10
6.698560
 20
8.070920
  0
VERTEX
  8
0
  6
CONTINUOUS
 10
6.698560
 20
3.765960
  0
VERTEX
  8
0
  6
CONTINUOUS
 10
6.618920
 20
3.752320
  0
VERTEX
  8
0
  6
CONTINUOUS
 10
6.565680
 20
3.739120
  0
VERTEX
  8
0
  6
CONTINUOUS
 10
6.513320
 20
3.722840
  0
VERTEX
  8
0
  6
CONTINUOUS
 10
6.463600
 20
3.703040
  0
VERTEX
  8
0
  6
CONTINUOUS
 10
6.416960
 20
3.679720
  0
VERTEX
  8
0
  6
CONTINUOUS
 10
6.394960
 20
3.666960
  0
VERTEX
  8
0
  6
CONTINUOUS
 10
6.354920
 20
3.637920
  0
VERTEX
  8
0
  6
CONTINUOUS
 10
6.320600
 20
3.605800
  0
VERTEX
  8
0
  6
CONTINUOUS
 10
6.292880
 20
3.569280
  0
VERTEX
  8
0
  6
CONTINUOUS
 10
6.281880
 20
3.549920
  0
VERTEX
  8
0
  6
CONTINUOUS
 10
6.269120
 20
3.518240
  0
VERTEX
  8
0
  6
CONTINUOUS
 10
6.261640
 20
3.484800
  0
VERTEX
  8
0
  6
CONTINUOUS
 10
6.259440
 20
3.461040
  0
VERTEX
  8
0
  6
CONTINUOUS
 10
6.259880
 20
3.435960
  0
VERTEX
  8
0
  6
CONTINUOUS
 10
6.265600
 20
3.396800
  0
VERTEX
  8
0
  6
CONTINUOUS
 10
6.277480
 20
3.355440
  0
VERTEX
  8
0
  6
CONTINUOUS
 10
6.296400
 20
3.311000
  0
VERTEX
  8
0
  6
CONTINUOUS
 10
6.312680
 20
3.280200
  0
VERTEX
  8
0
  6
CONTINUOUS
 10
6.343920
 20
3.231800
  0
VERTEX
  8
0
  6
CONTINUOUS
 10
6.394080
 20
3.164040
  0
VERTEX
  8
0
  6
CONTINUOUS
 10
6.425760
 20
3.113880
  0
VERTEX
  8
0
  6
CONTINUOUS
 10
6.442920
 20
3.081320
  0
VERTEX
  8
0
  6
CONTINUOUS
 10
6.463600
 20
3.033360
  0
VERTEX
  8
0
  6
CONTINUOUS
 10
6.477680
 20
2.987600
  0
VERTEX
  8
0
  6
CONTINUOUS
 10
6.486480
 20
2.943160
  0
VERTEX
  8
0
  6
CONTINUOUS
 10
6.489120
 20
2.914560
  0
VERTEX
  8
0
  6
CONTINUOUS
 10
6.489560
 20
2.886840
  0
VERTEX
  8
0
  6
CONTINUOUS
 10
6.488240
 20
2.860000
  0
VERTEX
  8
0
  6
CONTINUOUS
 10
6.485160
 20
2.834040
  0
VERTEX
  8
0
  6
CONTINUOUS
 10
6.473280
 20
2.784760
  0
VERTEX
  8
0
  6
CONTINUOUS
 10
6.456120
 20
2.739880
  0
VERTEX
  8
0
  6
CONTINUOUS
 10
6.433680
 20
2.698960
  0
VERTEX
  8
0
  6
CONTINUOUS
 10
6.421360
 20
2.680040
  0
VERTEX
  8
0
  6
CONTINUOUS
 10
6.394080
 20
2.646600
  0
VERTEX
  8
0
  6
CONTINUOUS
 10
6.365040
 20
2.617560
  0
VERTEX
  8
0
  6
CONTINUOUS
 10
6.335120
 20
2.593800
  0
VERTEX
  8
0
  6
CONTINUOUS
 10
6.305640
 20
2.575760
  0
VERTEX
  8
0
  6
CONTINUOUS
 10
6.277480
 20
2.563440
  0
VERTEX
  8
0
  6
CONTINUOUS
 10
6.251960
 20
2.557280
  0
VERTEX
  8
0
  6
CONTINUOUS
 10
6.240520
 20
2.556400
  0
VERTEX
  8
0
  6
CONTINUOUS
 10
5.170000
 20
2.559920
  0
VERTEX
  8
0
  6
CONTINUOUS
 10
5.175280
 20
9.289720
  0
SEQEND
  8
0
  0
TEXT
  8
0
 10
3.681040
 20
1.401400
 40
0.138024
  1
BA  781A
 41
1.000000
  7
SN0
 71
     0
 72
     5
 11
4.384022
 21
1.401400
  0
TEXT
  8
0
 10
3.414400
 20
1.209560
 40
0.138024
  1
1-7/16" x 1-7/16"
 41
1.000000
  7
SN0
 71
     0
 72
     5
 11
4.651813
 21
1.209560
  0
SOLID
  8
0
 62
     7
 10
2.582360
 20
9.576160
 11
2.959880
 21
8.933320
 12
2.500960
 22
9.477600
 13
2.878480
 23
8.834760
  0
POLYLINE
  8
0
  6
CONTINUOUS
 66
     1
 40
0.000000
 41
0.000000
  0
VERTEX
  8
0
  6
CONTINUOUS
 10
2.582360
 20
9.576160
  0
VERTEX
  8
0
  6
CONTINUOUS
 10
2.959880
 20
8.933320
  0
VERTEX
  8
0
  6
CONTINUOUS
 10
2.878480
 20
8.834760
  0
VERTEX
  8
0
  6
CONTINUOUS
 10
2.500960
 20
9.477600
  0
VERTEX
  8
0
  6
CONTINUOUS
 10
2.582360
 20
9.576160
  0
SEQEND
  8
0
  0
SOLID
  8
0
 62
    15
 10
2.582360
 20
10.321080
 11
2.959880
 21
9.678240
 12
2.643960
 22
10.208000
 13
3.021040
 23
9.565160
  0
POLYLINE
  8
0
  6
CONTINUOUS
 66
     1
 40
0.000000
 41
0.000000
  0
VERTEX
  8
0
  6
CONTINUOUS
 10
2.582360
 20
10.321080
  0
VERTEX
  8
0
  6
CONTINUOUS
 10
2.959880
 20
9.678240
  0
VERTEX
  8
0
  6
CONTINUOUS
 10
3.021040
 20
9.565160
  0
VERTEX
  8
0
  6
CONTINUOUS
 10
2.643960
 20
10.208000
  0
VERTEX
  8
0
  6
CONTINUOUS
 10
2.582360
 20
10.321080
  0
SEQEND
  8
0
  0
SOLID
  8
0
 62
    15
 10
2.682680
 20
10.083040
 11
3.059760
 21
9.440200
 12
2.692800
 22
10.016600
 13
3.069880
 23
9.373760
  0
POLYLINE
  8
0
  6
CONTINUOUS
 66
     1
 40
0.000000
 41
0.000000
  0
VERTEX
  8
0
  6
CONTINUOUS
 10
2.682680
 20
10.083040
  0
VERTEX
  8
0
  6
CONTINUOUS
 10
3.059760
 20
9.440200
  0
VERTEX
  8
0
  6
CONTINUOUS
 10
3.069880
 20
9.373760
  0
VERTEX
  8
0
  6
CONTINUOUS
 10
2.692800
 20
10.016600
  0
VERTEX
  8
0
  6
CONTINUOUS
 10
2.682680
 20
10.083040
  0
SEQEND
  8
0
  0
SOLID
  8
0
 62
    15
 10
2.692800
 20
10.016600
 11
3.069880
 21
9.373760
 12
2.696320
 22
9.948840
 13
3.073400
 23
9.305560
  0
POLYLINE
  8
0
  6
CONTINUOUS
 66
     1
 40
0.000000
 41
0.000000
  0
VERTEX
  8
0
  6
CONTINUOUS
 10
2.692800
 20
10.016600
  0
VERTEX
  8
0
  6
CONTINUOUS
 10
3.069880
 20
9.373760
  0
VERTEX
  8
0
  6
CONTINUOUS
 10
3.073400
 20
9.305560
  0
VERTEX
  8
0
  6
CONTINUOUS
 10
2.696320
 20
9.948840
  0
VERTEX
  8
0
  6
CONTINUOUS
 10
2.692800
 20
10.016600
  0
SEQEND
  8
0
  0
SOLID
  8
0
 62
    15
 10
2.696320
 20
9.948840
 11
3.073400
 21
9.305560
 12
2.692800
 22
9.880640
 13
3.069880
 23
9.237800
  0
POLYLINE
  8
0
  6
CONTINUOUS
 66
     1
 40
0.000000
 41
0.000000
  0
VERTEX
  8
0
  6
CONTINUOUS
 10
2.696320
 20
9.948840
  0
VERTEX
  8
0
  6
CONTINUOUS
 10
3.073400
 20
9.305560
  0
VERTEX
  8
0
  6
CONTINUOUS
 10
3.069880
 20
9.237800
  0
VERTEX
  8
0
  6
CONTINUOUS
 10
2.692800
 20
9.880640
  0
VERTEX
  8
0
  6
CONTINUOUS
 10
2.696320
 20
9.948840
  0
SEQEND
  8
0
  0
SOLID
  8
0
 62
    15
 10
2.692800
 20
9.880640
 11
3.069880
 21
9.237800
 12
2.682680
 22
9.814640
 13
3.059760
 23
9.171360
  0
POLYLINE
  8
0
  6
CONTINUOUS
 66
     1
 40
0.000000
 41
0.000000
  0
VERTEX
  8
0
  6
CONTINUOUS
 10
2.692800
 20
9.880640
  0
VERTEX
  8
0
  6
CONTINUOUS
 10
3.069880
 20
9.237800
  0
VERTEX
  8
0
  6
CONTINUOUS
 10
3.059760
 20
9.171360
  0
VERTEX
  8
0
  6
CONTINUOUS
 10
2.682680
 20
9.814640
  0
VERTEX
  8
0
  6
CONTINUOUS
 10
2.692800
 20
9.880640
  0
SEQEND
  8
0
  0
SOLID
  8
0
 62
    15
 10
2.682680
 20
9.814640
 11
3.059760
 21
9.171360
 12
2.643960
 22
9.689240
 13
3.021040
 23
9.046400
  0
POLYLINE
  8
0
  6
CONTINUOUS
 66
     1
 40
0.000000
 41
0.000000
  0
VERTEX
  8
0
  6
CONTINUOUS
 10
2.682680
 20
9.814640
  0
VERTEX
  8
0
  6
CONTINUOUS
 10
3.059760
 20
9.171360
  0
VERTEX
  8
0
  6
CONTINUOUS
 10
3.021040
 20
9.046400
  0
VERTEX
  8
0
  6
CONTINUOUS
 10
2.643960
 20
9.689240
  0
VERTEX
  8
0
  6
CONTINUOUS
 10
2.682680
 20
9.814640
  0
SEQEND
  8
0
  0
SOLID
  8
0
 62
    15
 10
2.643960
 20
9.689240
 11
3.021040
 21
9.046400
 12
2.582360
 22
9.576160
 13
2.959880
 23
8.933320
  0
POLYLINE
  8
0
  6
CONTINUOUS
 66
     1
 40
0.000000
 41
0.000000
  0
VERTEX
  8
0
  6
CONTINUOUS
 10
2.643960
 20
9.689240
  0
VERTEX
  8
0
  6
CONTINUOUS
 10
3.021040
 20
9.046400
  0
VERTEX
  8
0
  6
CONTINUOUS
 10
2.959880
 20
8.933320
  0
VERTEX
  8
0
  6
CONTINUOUS
 10
2.582360
 20
9.576160
  0
VERTEX
  8
0
  6
CONTINUOUS
 10
2.643960
 20
9.689240
  0
SEQEND
  8
0
  0
SOLID
  8
0
 62
    15
 10
2.643960
 20
10.208000
 11
3.021040
 21
9.565160
 12
2.682680
 22
10.083040
 13
3.059760
 23
9.440200
  0
POLYLINE
  8
0
  6
CONTINUOUS
 66
     1
 40
0.000000
 41
0.000000
  0
VERTEX
  8
0
  6
CONTINUOUS
 10
2.643960
 20
10.208000
  0
VERTEX
  8
0
  6
CONTINUOUS
 10
3.021040
 20
9.565160
  0
VERTEX
  8
0
  6
CONTINUOUS
 10
3.059760
 20
9.440200
  0
VERTEX
  8
0
  6
CONTINUOUS
 10
2.682680
 20
10.083040
  0
VERTEX
  8
0
  6
CONTINUOUS
 10
2.643960
 20
10.208000
  0
SEQEND
  8
0
  0
SOLID
  8
0
 62
     7
 10
2.500960
 20
9.477600
 11
2.878480
 21
8.834760
 12
2.402400
 22
9.396200
 13
2.779920
 23
8.753360
  0
POLYLINE
  8
0
  6
CONTINUOUS
 66
     1
 40
0.000000
 41
0.000000
  0
VERTEX
  8
0
  6
CONTINUOUS
 10
2.500960
 20
9.477600
  0
VERTEX
  8
0
  6
CONTINUOUS
 10
2.878480
 20
8.834760
  0
VERTEX
  8
0
  6
CONTINUOUS
 10
2.779920
 20
8.753360
  0
VERTEX
  8
0
  6
CONTINUOUS
 10
2.402400
 20
9.396200
  0
VERTEX
  8
0
  6
CONTINUOUS
 10
2.500960
 20
9.477600
  0
SEQEND
  8
0
  0
SOLID
  8
0
 62
     7
 10
2.402400
 20
9.396200
 11
2.779920
 21
8.753360
 12
2.289320
 22
9.335040
 13
2.666840
 23
8.692200
  0
POLYLINE
  8
0
  6
CONTINUOUS
 66
     1
 40
0.000000
 41
0.000000
  0
VERTEX
  8
0
  6
CONTINUOUS
 10
2.402400
 20
9.396200
  0
VERTEX
  8
0
  6
CONTINUOUS
 10
2.779920
 20
8.753360
  0
VERTEX
  8
0
  6
CONTINUOUS
 10
2.666840
 20
8.692200
  0
VERTEX
  8
0
  6
CONTINUOUS
 10
2.289320
 20
9.335040
  0
VERTEX
  8
0
  6
CONTINUOUS
 10
2.402400
 20
9.396200
  0
SEQEND
  8
0
  0
SOLID
  8
0
 62
     7
 10
2.289320
 20
9.335040
 11
2.666840
 21
8.692200
 12
2.164360
 22
9.295880
 13
2.541440
 23
8.653040
  0
POLYLINE
  8
0
  6
CONTINUOUS
 66
     1
 40
0.000000
 41
0.000000
  0
VERTEX
  8
0
  6
CONTINUOUS
 10
2.289320
 20
9.335040
  0
VERTEX
  8
0
  6
CONTINUOUS
 10
2.666840
 20
8.692200
  0
VERTEX
  8
0
  6
CONTINUOUS
 10
2.541440
 20
8.653040
  0
VERTEX
  8
0
  6
CONTINUOUS
 10
2.164360
 20
9.295880
  0
VERTEX
  8
0
  6
CONTINUOUS
 10
2.289320
 20
9.335040
  0
SEQEND
  8
0
  0
SOLID
  8
0
 62
    15
 10
2.164360
 20
9.295880
 11
2.541440
 21
8.653040
 12
2.098360
 22
9.285760
 13
2.475440
 23
8.642920
  0
POLYLINE
  8
0
  6
CONTINUOUS
 66
     1
 40
0.000000
 41
0.000000
  0
VERTEX
  8
0
  6
CONTINUOUS
 10
2.164360
 20
9.295880
  0
VERTEX
  8
0
  6
CONTINUOUS
 10
2.541440
 20
8.653040
  0
VERTEX
  8
0
  6
CONTINUOUS
 10
2.475440
 20
8.642920
  0
VERTEX
  8
0
  6
CONTINUOUS
 10
2.098360
 20
9.285760
  0
VERTEX
  8
0
  6
CONTINUOUS
 10
2.164360
 20
9.295880
  0
SEQEND
  8
0
  0
SOLID
  8
0
 62
    15
 10
2.098360
 20
9.285760
 11
2.475440
 21
8.642920
 12
2.030160
 22
9.282680
 13
2.407240
 23
8.639400
  0
POLYLINE
  8
0
  6
CONTINUOUS
 66
     1
 40
0.000000
 41
0.000000
  0
VERTEX
  8
0
  6
CONTINUOUS
 10
2.098360
 20
9.285760
  0
VERTEX
  8
0
  6
CONTINUOUS
 10
2.475440
 20
8.642920
  0
VERTEX
  8
0
  6
CONTINUOUS
 10
2.407240
 20
8.639400
  0
VERTEX
  8
0
  6
CONTINUOUS
 10
2.030160
 20
9.282680
  0
VERTEX
  8
0
  6
CONTINUOUS
 10
2.098360
 20
9.285760
  0
SEQEND
  8
0
  0
SOLID
  8
0
 62
    15
 10
2.030160
 20
9.282680
 11
2.407240
 21
8.639400
 12
2.030160
 22
9.148480
 13
2.407240
 23
8.505640
  0
POLYLINE
  8
0
  6
CONTINUOUS
 66
     1
 40
0.000000
 41
0.000000
  0
VERTEX
  8
0
  6
CONTINUOUS
 10
2.030160
 20
9.282680
  0
VERTEX
  8
0
  6
CONTINUOUS
 10
2.407240
 20
8.639400
  0
VERTEX
  8
0
  6
CONTINUOUS
 10
2.407240
 20
8.505640
  0
VERTEX
  8
0
  6
CONTINUOUS
 10
2.030160
 20
9.148480
  0
VERTEX
  8
0
  6
CONTINUOUS
 10
2.030160
 20
9.282680
  0
SEQEND
  8
0
  0
SOLID
  8
0
 62
    15
 10
2.030160
 20
9.148480
 11
2.407240
 21
8.505640
 12
1.252680
 22
9.148480
 13
1.629760
 23
8.505640
  0
POLYLINE
  8
0
  6
CONTINUOUS
 66
     1
 40
0.000000
 41
0.000000
  0
VERTEX
  8
0
  6
CONTINUOUS
 10
2.030160
 20
9.148480
  0
VERTEX
  8
0
  6
CONTINUOUS
 10
2.407240
 20
8.505640
  0
VERTEX
  8
0
  6
CONTINUOUS
 10
1.629760
 20
8.505640
  0
VERTEX
  8
0
  6
CONTINUOUS
 10
1.252680
 20
9.148480
  0
VERTEX
  8
0
  6
CONTINUOUS
 10
2.030160
 20
9.148480
  0
SEQEND
  8
0
  0
POLYLINE
  8
0
  6
CONTINUOUS
 66
     1
 40
0.000000
 41
0.000000
  0
VERTEX
  8
0
  6
CONTINUOUS
 10
1.389080
 20
9.944880
  0
VERTEX
  8
0
  6
CONTINUOUS
 10
1.392160
 20
10.021000
  0
VERTEX
  8
0
  6
CONTINUOUS
 10
1.401840
 20
10.093160
  0
VERTEX
  8
0
  6
CONTINUOUS
 10
1.416800
 20
10.161360
  0
VERTEX
  8
0
  6
CONTINUOUS
 10
1.437480
 20
10.225160
  0
VERTEX
  8
0
  6
CONTINUOUS
 10
1.495120
 20
10.340000
  0
VERTEX
  8
0
  6
CONTINUOUS
 10
1.571680
 20
10.435920
  0
VERTEX
  8
0
  6
CONTINUOUS
 10
1.665840
 20
10.512480
  0
VERTEX
  8
0
  6
CONTINUOUS
 10
1.774960
 20
10.568800
  0
VERTEX
  8
0
  6
CONTINUOUS
 10
1.896840
 20
10.603120
  0
VERTEX
  8
0
  6
CONTINUOUS
 10
2.030160
 20
10.615000
  0
VERTEX
  8
0
  6
CONTINUOUS
 10
2.098360
 20
10.611480
  0
VERTEX
  8
0
  6
CONTINUOUS
 10
2.164360
 20
10.601360
  0
VERTEX
  8
0
  6
CONTINUOUS
 10
2.289320
 20
10.562640
  0
VERTEX
  8
0
  6
CONTINUOUS
 10
2.402400
 20
10.501040
  0
VERTEX
  8
0
  6
CONTINUOUS
 10
2.500960
 20
10.419640
  0
VERTEX
  8
0
  6
CONTINUOUS
 10
2.582360
 20
10.321080
  0
VERTEX
  8
0
  6
CONTINUOUS
 10
2.643960
 20
10.208000
  0
VERTEX
  8
0
  6
CONTINUOUS
 10
2.682680
 20
10.083040
  0
VERTEX
  8
0
  6
CONTINUOUS
 10
2.692800
 20
10.016600
  0
VERTEX
  8
0
  6
CONTINUOUS
 10
2.696320
 20
9.948840
  0
VERTEX
  8
0
  6
CONTINUOUS
 10
2.692800
 20
9.880640
  0
VERTEX
  8
0
  6
CONTINUOUS
 10
2.682680
 20
9.814640
  0
VERTEX
  8
0
  6
CONTINUOUS
 10
2.643960
 20
9.689240
  0
VERTEX
  8
0
  6
CONTINUOUS
 10
2.582360
 20
9.576160
  0
VERTEX
  8
0
  6
CONTINUOUS
 10
2.500960
 20
9.477600
  0
VERTEX
  8
0
  6
CONTINUOUS
 10
2.402400
 20
9.396200
  0
VERTEX
  8
0
  6
CONTINUOUS
 10
2.289320
 20
9.335040
  0
VERTEX
  8
0
  6
CONTINUOUS
 10
2.164360
 20
9.295880
  0
VERTEX
  8
0
  6
CONTINUOUS
 10
2.098360
 20
9.285760
  0
VERTEX
  8
0
  6
CONTINUOUS
 10
2.030160
 20
9.282680
  0
VERTEX
  8
0
  6
CONTINUOUS
 10
2.030160
 20
9.148480
  0
VERTEX
  8
0
  6
CONTINUOUS
 10
1.252680
 20
9.148480
  0
VERTEX
  8
0
  6
CONTINUOUS
 10
1.252680
 20
9.940920
  0
VERTEX
  8
0
  6
CONTINUOUS
 10
1.389080
 20
9.940920
  0
VERTEX
  8
0
  6
CONTINUOUS
 10
1.389080
 20
9.944880
  0
SEQEND
  8
0
  0
SOLID
  8
0
 62
    15
 10
2.474120
 20
3.527920
 11
2.852960
 21
2.875400
 12
2.399320
 22
3.466760
 13
2.778600
 23
2.814240
  0
POLYLINE
  8
0
  6
CONTINUOUS
 66
     1
 40
0.000000
 41
0.000000
  0
VERTEX
  8
0
  6
CONTINUOUS
 10
2.474120
 20
3.527920
  0
VERTEX
  8
0
  6
CONTINUOUS
 10
2.852960
 20
2.875400
  0
VERTEX
  8
0
  6
CONTINUOUS
 10
2.778600
 20
2.814240
  0
VERTEX
  8
0
  6
CONTINUOUS
 10
2.399320
 20
3.466760
  0
VERTEX
  8
0
  6
CONTINUOUS
 10
2.474120
 20
3.527920
  0
SEQEND
  8
0
  0
SOLID
  8
0
 62
    15
 10
2.536160
 20
8.967640
 11
2.915440
 21
8.315560
 12
2.565640
 22
8.873480
 13
2.944480
 23
8.221400
  0
POLYLINE
  8
0
  6
CONTINUOUS
 66
     1
 40
0.000000
 41
0.000000
  0
VERTEX
  8
0
  6
CONTINUOUS
 10
2.536160
 20
8.967640
  0
VERTEX
  8
0
  6
CONTINUOUS
 10
2.915440
 20
8.315560
  0
VERTEX
  8
0
  6
CONTINUOUS
 10
2.944480
 20
8.221400
  0
VERTEX
  8
0
  6
CONTINUOUS
 10
2.565640
 20
8.873480
  0
VERTEX
  8
0
  6
CONTINUOUS
 10
2.536160
 20
8.967640
  0
SEQEND
  8
0
  0
SOLID
  8
0
 62
    15
 10
2.570040
 20
8.820680
 11
2.949320
 21
8.168600
 12
2.566520
 22
8.764360
 13
2.945800
 23
8.112280
  0
POLYLINE
  8
0
  6
CONTINUOUS
 66
     1
 40
0.000000
 41
0.000000
  0
VERTEX
  8
0
  6
CONTINUOUS
 10
2.570040
 20
8.820680
  0
VERTEX
  8
0
  6
CONTINUOUS
 10
2.949320
 20
8.168600
  0
VERTEX
  8
0
  6
CONTINUOUS
 10
2.945800
 20
8.112280
  0
VERTEX
  8
0
  6
CONTINUOUS
 10
2.566520
 20
8.764360
  0
VERTEX
  8
0
  6
CONTINUOUS
 10
2.570040
 20
8.820680
  0
SEQEND
  8
0
  0
SOLID
  8
0
 62
    15
 10
2.566520
 20
8.764360
 11
2.945800
 21
8.112280
 12
2.554200
 22
8.704960
 13
2.933040
 23
8.052440
  0
POLYLINE
  8
0
  6
CONTINUOUS
 66
     1
 40
0.000000
 41
0.000000
  0
VERTEX
  8
0
  6
CONTINUOUS
 10
2.566520
 20
8.764360
  0
VERTEX
  8
0
  6
CONTINUOUS
 10
2.945800
 20
8.112280
  0
VERTEX
  8
0
  6
CONTINUOUS
 10
2.933040
 20
8.052440
  0
VERTEX
  8
0
  6
CONTINUOUS
 10
2.554200
 20
8.704960
  0
VERTEX
  8
0
  6
CONTINUOUS
 10
2.566520
 20
8.764360
  0
SEQEND
  8
0
  0
SOLID
  8
0
 62
    15
 10
2.554200
 20
8.704960
 11
2.933040
 21
8.052440
 12
2.530880
 22
8.642480
 13
2.910160
 23
7.989960
  0
POLYLINE
  8
0
  6
CONTINUOUS
 66
     1
 40
0.000000
 41
0.000000
  0
VERTEX
  8
0
  6
CONTINUOUS
 10
2.554200
 20
8.704960
  0
VERTEX
  8
0
  6
CONTINUOUS
 10
2.933040
 20
8.052440
  0
VERTEX
  8
0
  6
CONTINUOUS
 10
2.910160
 20
7.989960
  0
VERTEX
  8
0
  6
CONTINUOUS
 10
2.530880
 20
8.642480
  0
VERTEX
  8
0
  6
CONTINUOUS
 10
2.554200
 20
8.704960
  0
SEQEND
  8
0
  0
SOLID
  8
0
 62
    15
 10
2.530880
 20
8.642480
 11
2.910160
 21
7.989960
 12
2.496560
 22
8.576920
 13
2.875400
 23
7.924840
  0
POLYLINE
  8
0
  6
CONTINUOUS
 66
     1
 40
0.000000
 41
0.000000
  0
VERTEX
  8
0
  6
CONTINUOUS
 10
2.530880
 20
8.642480
  0
VERTEX
  8
0
  6
CONTINUOUS
 10
2.910160
 20
7.989960
  0
VERTEX
  8
0
  6
CONTINUOUS
 10
2.875400
 20
7.924840
  0
VERTEX
  8
0
  6
CONTINUOUS
 10
2.496560
 20
8.576920
  0
VERTEX
  8
0
  6
CONTINUOUS
 10
2.530880
 20
8.642480
  0
SEQEND
  8
0
  0
SOLID
  8
0
 62
    15
 10
2.496560
 20
8.576920
 11
2.875400
 21
7.924840
 12
2.449040
 22
8.509600
 13
2.828320
 23
7.857080
  0
POLYLINE
  8
0
  6
CONTINUOUS
 66
     1
 40
0.000000
 41
0.000000
  0
VERTEX
  8
0
  6
CONTINUOUS
 10
2.496560
 20
8.576920
  0
VERTEX
  8
0
  6
CONTINUOUS
 10
2.875400
 20
7.924840
  0
VERTEX
  8
0
  6
CONTINUOUS
 10
2.828320
 20
7.857080
  0
VERTEX
  8
0
  6
CONTINUOUS
 10
2.449040
 20
8.509600
  0
VERTEX
  8
0
  6
CONTINUOUS
 10
2.496560
 20
8.576920
  0
SEQEND
  8
0
  0
SOLID
  8
0
 62
    15
 10
2.449040
 20
8.509600
 11
2.828320
 21
7.857080
 12
2.402400
 22
8.443160
 13
2.781680
 23
7.791080
  0
POLYLINE
  8
0
  6
CONTINUOUS
 66
     1
 40
0.000000
 41
0.000000
  0
VERTEX
  8
0
  6
CONTINUOUS
 10
2.449040
 20
8.509600
  0
VERTEX
  8
0
  6
CONTINUOUS
 10
2.828320
 20
7.857080
  0
VERTEX
  8
0
  6
CONTINUOUS
 10
2.781680
 20
7.791080
  0
VERTEX
  8
0
  6
CONTINUOUS
 10
2.402400
 20
8.443160
  0
VERTEX
  8
0
  6
CONTINUOUS
 10
2.449040
 20
8.509600
  0
SEQEND
  8
0
  0
SOLID
  8
0
 62
    15
 10
2.402400
 20
8.443160
 11
2.781680
 21
7.791080
 12
2.369400
 22
8.381560
 13
2.748680
 23
7.729040
  0
POLYLINE
  8
0
  6
CONTINUOUS
 66
     1
 40
0.000000
 41
0.000000
  0
VERTEX
  8
0
  6
CONTINUOUS
 10
2.402400
 20
8.443160
  0
VERTEX
  8
0
  6
CONTINUOUS
 10
2.781680
 20
7.791080
  0
VERTEX
  8
0
  6
CONTINUOUS
 10
2.748680
 20
7.729040
  0
VERTEX
  8
0
  6
CONTINUOUS
 10
2.369400
 20
8.381560
  0
VERTEX
  8
0
  6
CONTINUOUS
 10
2.402400
 20
8.443160
  0
SEQEND
  8
0
  0
SOLID
  8
0
 62
    15
 10
2.369400
 20
8.381560
 11
2.748680
 21
7.729040
 12
2.349160
 22
8.324360
 13
2.728000
 23
7.671840
  0
POLYLINE
  8
0
  6
CONTINUOUS
 66
     1
 40
0.000000
 41
0.000000
  0
VERTEX
  8
0
  6
CONTINUOUS
 10
2.369400
 20
8.381560
  0
VERTEX
  8
0
  6
CONTINUOUS
 10
2.748680
 20
7.729040
  0
VERTEX
  8
0
  6
CONTINUOUS
 10
2.728000
 20
7.671840
  0
VERTEX
  8
0
  6
CONTINUOUS
 10
2.349160
 20
8.324360
  0
VERTEX
  8
0
  6
CONTINUOUS
 10
2.369400
 20
8.381560
  0
SEQEND
  8
0
  0
SOLID
  8
0
 62
    15
 10
2.349160
 20
8.324360
 11
2.728000
 21
7.671840
 12
2.340360
 22
8.271120
 13
2.719200
 23
7.619040
  0
POLYLINE
  8
0
  6
CONTINUOUS
 66
     1
 40
0.000000
 41
0.000000
  0
VERTEX
  8
0
  6
CONTINUOUS
 10
2.349160
 20
8.324360
  0
VERTEX
  8
0
  6
CONTINUOUS
 10
2.728000
 20
7.671840
  0
VERTEX
  8
0
  6
CONTINUOUS
 10
2.719200
 20
7.619040
  0
VERTEX
  8
0
  6
CONTINUOUS
 10
2.340360
 20
8.271120
  0
VERTEX
  8
0
  6
CONTINUOUS
 10
2.349160
 20
8.324360
  0
SEQEND
  8
0
  0
SOLID
  8
0
 62
    15
 10
2.340360
 20
8.271120
 11
2.719200
 21
7.619040
 12
2.342120
 22
8.222720
 13
2.720960
 23
7.570640
  0
POLYLINE
  8
0
  6
CONTINUOUS
 66
     1
 40
0.000000
 41
0.000000
  0
VERTEX
  8
0
  6
CONTINUOUS
 10
2.340360
 20
8.271120
  0
VERTEX
  8
0
  6
CONTINUOUS
 10
2.719200
 20
7.619040
  0
VERTEX
  8
0
  6
CONTINUOUS
 10
2.720960
 20
7.570640
  0
VERTEX
  8
0
  6
CONTINUOUS
 10
2.342120
 20
8.222720
  0
VERTEX
  8
0
  6
CONTINUOUS
 10
2.340360
 20
8.271120
  0
SEQEND
  8
0
  0
SOLID
  8
0
 62
    15
 10
2.342120
 20
8.222720
 11
2.720960
 21
7.570640
 12
2.353560
 22
8.178280
 13
2.732400
 23
7.526200
  0
POLYLINE
  8
0
  6
CONTINUOUS
 66
     1
 40
0.000000
 41
0.000000
  0
VERTEX
  8
0
  6
CONTINUOUS
 10
2.342120
 20
8.222720
  0
VERTEX
  8
0
  6
CONTINUOUS
 10
2.720960
 20
7.570640
  0
VERTEX
  8
0
  6
CONTINUOUS
 10
2.732400
 20
7.526200
  0
VERTEX
  8
0
  6
CONTINUOUS
 10
2.353560
 20
8.178280
  0
VERTEX
  8
0
  6
CONTINUOUS
 10
2.342120
 20
8.222720
  0
SEQEND
  8
0
  0
SOLID
  8
0
 62
    15
 10
2.353560
 20
8.178280
 11
2.732400
 21
7.526200
 12
2.373360
 22
8.138240
 13
2.752640
 23
7.485720
  0
POLYLINE
  8
0
  6
CONTINUOUS
 66
     1
 40
0.000000
 41
0.000000
  0
VERTEX
  8
0
  6
CONTINUOUS
 10
2.353560
 20
8.178280
  0
VERTEX
  8
0
  6
CONTINUOUS
 10
2.732400
 20
7.526200
  0
VERTEX
  8
0
  6
CONTINUOUS
 10
2.752640
 20
7.485720
  0
VERTEX
  8
0
  6
CONTINUOUS
 10
2.373360
 20
8.138240
  0
VERTEX
  8
0
  6
CONTINUOUS
 10
2.353560
 20
8.178280
  0
SEQEND
  8
0
  0
SOLID
  8
0
 62
    15
 10
2.779040
 20
7.941120
 11
3.158320
 21
7.289040
 12
2.779040
 22
3.636160
 13
3.158320
 23
2.984080
  0
POLYLINE
  8
0
  6
CONTINUOUS
 66
     1
 40
0.000000
 41
0.000000
  0
VERTEX
  8
0
  6
CONTINUOUS
 10
2.779040
 20
7.941120
  0
VERTEX
  8
0
  6
CONTINUOUS
 10
3.158320
 20
7.289040
  0
VERTEX
  8
0
  6
CONTINUOUS
 10
3.158320
 20
2.984080
  0
VERTEX
  8
0
  6
CONTINUOUS
 10
2.779040
 20
3.636160
  0
VERTEX
  8
0
  6
CONTINUOUS
 10
2.779040
 20
7.941120
  0
SEQEND
  8
0
  0
SOLID
  8
0
 62
    15
 10
2.779040
 20
3.636160
 11
3.158320
 21
2.984080
 12
2.777720
 22
3.626920
 13
3.156560
 23
2.974840
  0
POLYLINE
  8
0
  6
CONTINUOUS
 66
     1
 40
0.000000
 41
0.000000
  0
VERTEX
  8
0
  6
CONTINUOUS
 10
2.779040
 20
3.636160
  0
VERTEX
  8
0
  6
CONTINUOUS
 10
3.158320
 20
2.984080
  0
VERTEX
  8
0
  6
CONTINUOUS
 10
3.156560
 20
2.974840
  0
VERTEX
  8
0
  6
CONTINUOUS
 10
2.777720
 20
3.626920
  0
VERTEX
  8
0
  6
CONTINUOUS
 10
2.779040
 20
3.636160
  0
SEQEND
  8
0
  0
SOLID
  8
0
 62
    15
 10
2.777720
 20
3.626920
 11
3.156560
 21
2.974840
 12
2.670800
 22
3.607120
 13
3.050080
 23
2.954600
  0
POLYLINE
  8
0
  6
CONTINUOUS
 66
     1
 40
0.000000
 41
0.000000
  0
VERTEX
  8
0
  6
CONTINUOUS
 10
2.777720
 20
3.626920
  0
VERTEX
  8
0
  6
CONTINUOUS
 10
3.156560
 20
2.974840
  0
VERTEX
  8
0
  6
CONTINUOUS
 10
3.050080
 20
2.954600
  0
VERTEX
  8
0
  6
CONTINUOUS
 10
2.670800
 20
3.607120
  0
VERTEX
  8
0
  6
CONTINUOUS
 10
2.777720
 20
3.626920
  0
SEQEND
  8
0
  0
SOLID
  8
0
 62
    15
 10
2.670800
 20
3.607120
 11
3.050080
 21
2.954600
 12
2.566960
 22
3.574120
 13
2.946240
 23
2.922040
  0
POLYLINE
  8
0
  6
CONTINUOUS
 66
     1
 40
0.000000
 41
0.000000
  0
VERTEX
  8
0
  6
CONTINUOUS
 10
2.670800
 20
3.607120
  0
VERTEX
  8
0
  6
CONTINUOUS
 10
3.050080
 20
2.954600
  0
VERTEX
  8
0
  6
CONTINUOUS
 10
2.946240
 20
2.922040
  0
VERTEX
  8
0
  6
CONTINUOUS
 10
2.566960
 20
3.574120
  0
VERTEX
  8
0
  6
CONTINUOUS
 10
2.670800
 20
3.607120
  0
SEQEND
  8
0
  0
SOLID
  8
0
 62
    15
 10
2.566960
 20
3.574120
 11
2.946240
 21
2.922040
 12
2.474120
 22
3.527920
 13
2.852960
 23
2.875400
  0
POLYLINE
  8
0
  6
CONTINUOUS
 66
     1
 40
0.000000
 41
0.000000
  0
VERTEX
  8
0
  6
CONTINUOUS
 10
2.566960
 20
3.574120
  0
VERTEX
  8
0
  6
CONTINUOUS
 10
2.946240
 20
2.922040
  0
VERTEX
  8
0
  6
CONTINUOUS
 10
2.852960
 20
2.875400
  0
VERTEX
  8
0
  6
CONTINUOUS
 10
2.474120
 20
3.527920
  0
VERTEX
  8
0
  6
CONTINUOUS
 10
2.566960
 20
3.574120
  0
SEQEND
  8
0
  0
SOLID
  8
0
 62
    15
 10
2.565640
 20
8.873480
 11
2.944480
 21
8.221400
 12
2.570040
 22
8.820680
 13
2.949320
 23
8.168600
  0
POLYLINE
  8
0
  6
CONTINUOUS
 66
     1
 40
0.000000
 41
0.000000
  0
VERTEX
  8
0
  6
CONTINUOUS
 10
2.565640
 20
8.873480
  0
VERTEX
  8
0
  6
CONTINUOUS
 10
2.944480
 20
8.221400
  0
VERTEX
  8
0
  6
CONTINUOUS
 10
2.949320
 20
8.168600
  0
VERTEX
  8
0
  6
CONTINUOUS
 10
2.570040
 20
8.820680
  0
VERTEX
  8
0
  6
CONTINUOUS
 10
2.565640
 20
8.873480
  0
SEQEND
  8
0
  0
SOLID
  8
0
 62
    15
 10
2.399320
 20
3.466760
 11
2.778600
 21
2.814240
 12
2.372040
 22
3.430240
 13
2.750880
 23
2.778160
  0
POLYLINE
  8
0
  6
CONTINUOUS
 66
     1
 40
0.000000
 41
0.000000
  0
VERTEX
  8
0
  6
CONTINUOUS
 10
2.399320
 20
3.466760
  0
VERTEX
  8
0
  6
CONTINUOUS
 10
2.778600
 20
2.814240
  0
VERTEX
  8
0
  6
CONTINUOUS
 10
2.750880
 20
2.778160
  0
VERTEX
  8
0
  6
CONTINUOUS
 10
2.372040
 20
3.430240
  0
VERTEX
  8
0
  6
CONTINUOUS
 10
2.399320
 20
3.466760
  0
SEQEND
  8
0
  0
SOLID
  8
0
 62
    15
 10
2.372040
 20
3.430240
 11
2.750880
 21
2.778160
 12
2.351800
 22
3.390200
 13
2.730640
 23
2.737680
  0
POLYLINE
  8
0
  6
CONTINUOUS
 66
     1
 40
0.000000
 41
0.000000
  0
VERTEX
  8
0
  6
CONTINUOUS
 10
2.372040
 20
3.430240
  0
VERTEX
  8
0
  6
CONTINUOUS
 10
2.750880
 20
2.778160
  0
VERTEX
  8
0
  6
CONTINUOUS
 10
2.730640
 20
2.737680
  0
VERTEX
  8
0
  6
CONTINUOUS
 10
2.351800
 20
3.390200
  0
VERTEX
  8
0
  6
CONTINUOUS
 10
2.372040
 20
3.430240
  0
SEQEND
  8
0
  0
SOLID
  8
0
 62
    15
 10
2.351800
 20
3.390200
 11
2.730640
 21
2.737680
 12
2.340360
 22
3.345760
 13
2.719200
 23
2.693240
  0
POLYLINE
  8
0
  6
CONTINUOUS
 66
     1
 40
0.000000
 41
0.000000
  0
VERTEX
  8
0
  6
CONTINUOUS
 10
2.351800
 20
3.390200
  0
VERTEX
  8
0
  6
CONTINUOUS
 10
2.730640
 20
2.737680
  0
VERTEX
  8
0
  6
CONTINUOUS
 10
2.719200
 20
2.693240
  0
VERTEX
  8
0
  6
CONTINUOUS
 10
2.340360
 20
3.345760
  0
VERTEX
  8
0
  6
CONTINUOUS
 10
2.351800
 20
3.390200
  0
SEQEND
  8
0
  0
SOLID
  8
0
 62
    15
 10
2.340360
 20
3.345760
 11
2.719200
 21
2.693240
 12
2.338600
 22
3.296920
 13
2.717440
 23
2.644840
  0
POLYLINE
  8
0
  6
CONTINUOUS
 66
     1
 40
0.000000
 41
0.000000
  0
VERTEX
  8
0
  6
CONTINUOUS
 10
2.340360
 20
3.345760
  0
VERTEX
  8
0
  6
CONTINUOUS
 10
2.719200
 20
2.693240
  0
VERTEX
  8
0
  6
CONTINUOUS
 10
2.717440
 20
2.644840
  0
VERTEX
  8
0
  6
CONTINUOUS
 10
2.338600
 20
3.296920
  0
VERTEX
  8
0
  6
CONTINUOUS
 10
2.340360
 20
3.345760
  0
SEQEND
  8
0
  0
SOLID
  8
0
 62
    15
 10
2.338600
 20
3.296920
 11
2.717440
 21
2.644840
 12
2.347400
 22
3.244120
 13
2.726240
 23
2.592040
  0
POLYLINE
  8
0
  6
CONTINUOUS
 66
     1
 40
0.000000
 41
0.000000
  0
VERTEX
  8
0
  6
CONTINUOUS
 10
2.338600
 20
3.296920
  0
VERTEX
  8
0
  6
CONTINUOUS
 10
2.717440
 20
2.644840
  0
VERTEX
  8
0
  6
CONTINUOUS
 10
2.726240
 20
2.592040
  0
VERTEX
  8
0
  6
CONTINUOUS
 10
2.347400
 20
3.244120
  0
VERTEX
  8
0
  6
CONTINUOUS
 10
2.338600
 20
3.296920
  0
SEQEND
  8
0
  0
SOLID
  8
0
 62
    15
 10
2.347400
 20
3.244120
 11
2.726240
 21
2.592040
 12
2.368080
 22
3.186920
 13
2.746920
 23
2.534400
  0
POLYLINE
  8
0
  6
CONTINUOUS
 66
     1
 40
0.000000
 41
0.000000
  0
VERTEX
  8
0
  6
CONTINUOUS
 10
2.347400
 20
3.244120
  0
VERTEX
  8
0
  6
CONTINUOUS
 10
2.726240
 20
2.592040
  0
VERTEX
  8
0
  6
CONTINUOUS
 10
2.746920
 20
2.534400
  0
VERTEX
  8
0
  6
CONTINUOUS
 10
2.368080
 20
3.186920
  0
VERTEX
  8
0
  6
CONTINUOUS
 10
2.347400
 20
3.244120
  0
SEQEND
  8
0
  0
SOLID
  8
0
 62
    15
 10
2.368080
 20
3.186920
 11
2.746920
 21
2.534400
 12
2.401080
 22
3.125320
 13
2.779920
 23
2.472800
  0
POLYLINE
  8
0
  6
CONTINUOUS
 66
     1
 40
0.000000
 41
0.000000
  0
VERTEX
  8
0
  6
CONTINUOUS
 10
2.368080
 20
3.186920
  0
VERTEX
  8
0
  6
CONTINUOUS
 10
2.746920
 20
2.534400
  0
VERTEX
  8
0
  6
CONTINUOUS
 10
2.779920
 20
2.472800
  0
VERTEX
  8
0
  6
CONTINUOUS
 10
2.401080
 20
3.125320
  0
VERTEX
  8
0
  6
CONTINUOUS
 10
2.368080
 20
3.186920
  0
SEQEND
  8
0
  0
SOLID
  8
0
 62
    15
 10
2.494800
 20
2.991120
 11
2.873640
 21
2.339040
 12
2.529560
 22
2.926000
 13
2.908400
 23
2.273480
  0
POLYLINE
  8
0
  6
CONTINUOUS
 66
     1
 40
0.000000
 41
0.000000
  0
VERTEX
  8
0
  6
CONTINUOUS
 10
2.494800
 20
2.991120
  0
VERTEX
  8
0
  6
CONTINUOUS
 10
2.873640
 20
2.339040
  0
VERTEX
  8
0
  6
CONTINUOUS
 10
2.908400
 20
2.273480
  0
VERTEX
  8
0
  6
CONTINUOUS
 10
2.529560
 20
2.926000
  0
VERTEX
  8
0
  6
CONTINUOUS
 10
2.494800
 20
2.991120
  0
SEQEND
  8
0
  0
SOLID
  8
0
 62
    15
 10
2.529560
 20
2.926000
 11
2.908400
 21
2.273480
 12
2.552440
 22
2.863520
 13
2.931280
 23
2.211000
  0
POLYLINE
  8
0
  6
CONTINUOUS
 66
     1
 40
0.000000
 41
0.000000
  0
VERTEX
  8
0
  6
CONTINUOUS
 10
2.529560
 20
2.926000
  0
VERTEX
  8
0
  6
CONTINUOUS
 10
2.908400
 20
2.273480
  0
VERTEX
  8
0
  6
CONTINUOUS
 10
2.931280
 20
2.211000
  0
VERTEX
  8
0
  6
CONTINUOUS
 10
2.552440
 20
2.863520
  0
VERTEX
  8
0
  6
CONTINUOUS
 10
2.529560
 20
2.926000
  0
SEQEND
  8
0
  0
SOLID
  8
0
 62
    15
 10
2.552440
 20
2.863520
 11
2.931280
 21
2.211000
 12
2.565200
 22
2.803680
 13
2.944040
 23
2.151600
  0
POLYLINE
  8
0
  6
CONTINUOUS
 66
     1
 40
0.000000
 41
0.000000
  0
VERTEX
  8
0
  6
CONTINUOUS
 10
2.552440
 20
2.863520
  0
VERTEX
  8
0
  6
CONTINUOUS
 10
2.931280
 20
2.211000
  0
VERTEX
  8
0
  6
CONTINUOUS
 10
2.944040
 20
2.151600
  0
VERTEX
  8
0
  6
CONTINUOUS
 10
2.565200
 20
2.803680
  0
VERTEX
  8
0
  6
CONTINUOUS
 10
2.552440
 20
2.863520
  0
SEQEND
  8
0
  0
SOLID
  8
0
 62
    15
 10
2.565200
 20
2.803680
 11
2.944040
 21
2.151600
 12
2.568720
 22
2.747360
 13
2.947560
 23
2.095280
  0
POLYLINE
  8
0
  6
CONTINUOUS
 66
     1
 40
0.000000
 41
0.000000
  0
VERTEX
  8
0
  6
CONTINUOUS
 10
2.565200
 20
2.803680
  0
VERTEX
  8
0
  6
CONTINUOUS
 10
2.944040
 20
2.151600
  0
VERTEX
  8
0
  6
CONTINUOUS
 10
2.947560
 20
2.095280
  0
VERTEX
  8
0
  6
CONTINUOUS
 10
2.568720
 20
2.747360
  0
VERTEX
  8
0
  6
CONTINUOUS
 10
2.565200
 20
2.803680
  0
SEQEND
  8
0
  0
SOLID
  8
0
 62
    15
 10
2.568720
 20
2.747360
 11
2.947560
 21
2.095280
 12
2.563880
 22
2.694560
 13
2.942720
 23
2.042480
  0
POLYLINE
  8
0
  6
CONTINUOUS
 66
     1
 40
0.000000
 41
0.000000
  0
VERTEX
  8
0
  6
CONTINUOUS
 10
2.568720
 20
2.747360
  0
VERTEX
  8
0
  6
CONTINUOUS
 10
2.947560
 20
2.095280
  0
VERTEX
  8
0
  6
CONTINUOUS
 10
2.942720
 20
2.042480
  0
VERTEX
  8
0
  6
CONTINUOUS
 10
2.563880
 20
2.694560
  0
VERTEX
  8
0
  6
CONTINUOUS
 10
2.568720
 20
2.747360
  0
SEQEND
  8
0
  0
SOLID
  8
0
 62
    15
 10
2.563880
 20
2.694560
 11
2.942720
 21
2.042480
 12
2.534840
 22
2.600400
 13
2.913680
 23
1.948320
  0
POLYLINE
  8
0
  6
CONTINUOUS
 66
     1
 40
0.000000
 41
0.000000
  0
VERTEX
  8
0
  6
CONTINUOUS
 10
2.563880
 20
2.694560
  0
VERTEX
  8
0
  6
CONTINUOUS
 10
2.942720
 20
2.042480
  0
VERTEX
  8
0
  6
CONTINUOUS
 10
2.913680
 20
1.948320
  0
VERTEX
  8
0
  6
CONTINUOUS
 10
2.534840
 20
2.600400
  0
VERTEX
  8
0
  6
CONTINUOUS
 10
2.563880
 20
2.694560
  0
SEQEND
  8
0
  0
SOLID
  8
0
 62
    15
 10
2.534840
 20
2.600400
 11
2.913680
 21
1.948320
 12
2.486880
 22
2.523400
 13
2.865720
 23
1.871320
  0
POLYLINE
  8
0
  6
CONTINUOUS
 66
     1
 40
0.000000
 41
0.000000
  0
VERTEX
  8
0
  6
CONTINUOUS
 10
2.534840
 20
2.600400
  0
VERTEX
  8
0
  6
CONTINUOUS
 10
2.913680
 20
1.948320
  0
VERTEX
  8
0
  6
CONTINUOUS
 10
2.865720
 20
1.871320
  0
VERTEX
  8
0
  6
CONTINUOUS
 10
2.486880
 20
2.523400
  0
VERTEX
  8
0
  6
CONTINUOUS
 10
2.534840
 20
2.600400
  0
SEQEND
  8
0
  0
SOLID
  8
0
 62
    15
 10
2.486880
 20
2.523400
 11
2.865720
 21
1.871320
 12
2.428800
 22
2.465760
 13
2.807640
 23
1.813680
  0
POLYLINE
  8
0
  6
CONTINUOUS
 66
     1
 40
0.000000
 41
0.000000
  0
VERTEX
  8
0
  6
CONTINUOUS
 10
2.486880
 20
2.523400
  0
VERTEX
  8
0
  6
CONTINUOUS
 10
2.865720
 20
1.871320
  0
VERTEX
  8
0
  6
CONTINUOUS
 10
2.807640
 20
1.813680
  0
VERTEX
  8
0
  6
CONTINUOUS
 10
2.428800
 20
2.465760
  0
VERTEX
  8
0
  6
CONTINUOUS
 10
2.486880
 20
2.523400
  0
SEQEND
  8
0
  0
SOLID
  8
0
 62
    15
 10
2.428800
 20
2.465760
 11
2.807640
 21
1.813680
 12
2.369840
 22
2.429680
 13
2.749120
 23
1.777600
  0
POLYLINE
  8
0
  6
CONTINUOUS
 66
     1
 40
0.000000
 41
0.000000
  0
VERTEX
  8
0
  6
CONTINUOUS
 10
2.428800
 20
2.465760
  0
VERTEX
  8
0
  6
CONTINUOUS
 10
2.807640
 20
1.813680
  0
VERTEX
  8
0
  6
CONTINUOUS
 10
2.749120
 20
1.777600
  0
VERTEX
  8
0
  6
CONTINUOUS
 10
2.369840
 20
2.429680
  0
VERTEX
  8
0
  6
CONTINUOUS
 10
2.428800
 20
2.465760
  0
SEQEND
  8
0
  0
SOLID
  8
0
 62
    15
 10
2.319240
 20
2.416920
 11
2.698520
 21
1.764840
 12
1.255760
 22
2.417360
 13
1.635040
 23
1.765280
  0
POLYLINE
  8
0
  6
CONTINUOUS
 66
     1
 40
0.000000
 41
0.000000
  0
VERTEX
  8
0
  6
CONTINUOUS
 10
2.319240
 20
2.416920
  0
VERTEX
  8
0
  6
CONTINUOUS
 10
2.698520
 20
1.764840
  0
VERTEX
  8
0
  6
CONTINUOUS
 10
1.635040
 20
1.765280
  0
VERTEX
  8
0
  6
CONTINUOUS
 10
1.255760
 20
2.417360
  0
VERTEX
  8
0
  6
CONTINUOUS
 10
2.319240
 20
2.416920
  0
SEQEND
  8
0
  0
SOLID
  8
0
 62
    15
 10
2.369840
 20
2.429680
 11
2.749120
 21
1.777600
 12
2.319240
 22
2.416920
 13
2.698520
 23
1.764840
  0
POLYLINE
  8
0
  6
CONTINUOUS
 66
     1
 40
0.000000
 41
0.000000
  0
VERTEX
  8
0
  6
CONTINUOUS
 10
2.369840
 20
2.429680
  0
VERTEX
  8
0
  6
CONTINUOUS
 10
2.749120
 20
1.777600
  0
VERTEX
  8
0
  6
CONTINUOUS
 10
2.698520
 20
1.764840
  0
VERTEX
  8
0
  6
CONTINUOUS
 10
2.319240
 20
2.416920
  0
VERTEX
  8
0
  6
CONTINUOUS
 10
2.369840
 20
2.429680
  0
SEQEND
  8
0
  0
POLYLINE
  8
0
  6
CONTINUOUS
 66
     1
 40
0.000000
 41
0.000000
  0
VERTEX
  8
0
  6
CONTINUOUS
 10
1.250480
 20
9.147160
  0
VERTEX
  8
0
  6
CONTINUOUS
 10
2.321000
 20
9.151120
  0
VERTEX
  8
0
  6
CONTINUOUS
 10
2.371600
 20
9.138360
  0
VERTEX
  8
0
  6
CONTINUOUS
 10
2.430560
 20
9.102280
  0
VERTEX
  8
0
  6
CONTINUOUS
 10
2.488200
 20
9.044640
  0
VERTEX
  8
0
  6
CONTINUOUS
 10
2.536160
 20
8.967640
  0
VERTEX
  8
0
  6
CONTINUOUS
 10
2.565640
 20
8.873480
  0
VERTEX
  8
0
  6
CONTINUOUS
 10
2.570040
 20
8.820680
  0
VERTEX
  8
0
  6
CONTINUOUS
 10
2.566520
 20
8.764360
  0
VERTEX
  8
0
  6
CONTINUOUS
 10
2.554200
 20
8.704960
  0
VERTEX
  8
0
  6
CONTINUOUS
 10
2.530880
 20
8.642480
  0
VERTEX
  8
0
  6
CONTINUOUS
 10
2.496560
 20
8.576920
  0
VERTEX
  8
0
  6
CONTINUOUS
 10
2.402400
 20
8.443160
  0
VERTEX
  8
0
  6
CONTINUOUS
 10
2.369400
 20
8.381560
  0
VERTEX
  8
0
  6
CONTINUOUS
 10
2.349160
 20
8.324360
  0
VERTEX
  8
0
  6
CONTINUOUS
 10
2.340360
 20
8.271120
  0
VERTEX
  8
0
  6
CONTINUOUS
 10
2.342120
 20
8.222720
  0
VERTEX
  8
0
  6
CONTINUOUS
 10
2.353560
 20
8.178280
  0
VERTEX
  8
0
  6
CONTINUOUS
 10
2.373360
 20
8.138240
  0
VERTEX
  8
0
  6
CONTINUOUS
 10
2.401080
 20
8.101720
  0
VERTEX
  8
0
  6
CONTINUOUS
 10
2.475880
 20
8.040560
  0
VERTEX
  8
0
  6
CONTINUOUS
 10
2.568720
 20
7.993920
  0
VERTEX
  8
0
  6
CONTINUOUS
 10
2.672560
 20
7.961360
  0
VERTEX
  8
0
  6
CONTINUOUS
 10
2.779040
 20
7.941120
  0
VERTEX
  8
0
  6
CONTINUOUS
 10
2.779040
 20
3.636160
  0
VERTEX
  8
0
  6
CONTINUOUS
 10
2.777720
 20
3.626920
  0
VERTEX
  8
0
  6
CONTINUOUS
 10
2.670800
 20
3.607120
  0
VERTEX
  8
0
  6
CONTINUOUS
 10
2.566960
 20
3.574120
  0
VERTEX
  8
0
  6
CONTINUOUS
 10
2.474120
 20
3.527920
  0
VERTEX
  8
0
  6
CONTINUOUS
 10
2.399320
 20
3.466760
  0
VERTEX
  8
0
  6
CONTINUOUS
 10
2.372040
 20
3.430240
  0
VERTEX
  8
0
  6
CONTINUOUS
 10
2.351800
 20
3.390200
  0
VERTEX
  8
0
  6
CONTINUOUS
 10
2.340360
 20
3.345760
  0
VERTEX
  8
0
  6
CONTINUOUS
 10
2.338600
 20
3.296920
  0
VERTEX
  8
0
  6
CONTINUOUS
 10
2.347400
 20
3.244120
  0
VERTEX
  8
0
  6
CONTINUOUS
 10
2.368080
 20
3.186920
  0
VERTEX
  8
0
  6
CONTINUOUS
 10
2.401080
 20
3.125320
  0
VERTEX
  8
0
  6
CONTINUOUS
 10
2.494800
 20
2.991120
  0
VERTEX
  8
0
  6
CONTINUOUS
 10
2.529560
 20
2.926000
  0
VERTEX
  8
0
  6
CONTINUOUS
 10
2.552440
 20
2.863520
  0
VERTEX
  8
0
  6
CONTINUOUS
 10
2.565200
 20
2.803680
  0
VERTEX
  8
0
  6
CONTINUOUS
 10
2.568720
 20
2.747360
  0
VERTEX
  8
0
  6
CONTINUOUS
 10
2.563880
 20
2.694560
  0
VERTEX
  8
0
  6
CONTINUOUS
 10
2.534840
 20
2.600400
  0
VERTEX
  8
0
  6
CONTINUOUS
 10
2.486880
 20
2.523400
  0
VERTEX
  8
0
  6
CONTINUOUS
 10
2.428800
 20
2.465760
  0
VERTEX
  8
0
  6
CONTINUOUS
 10
2.369840
 20
2.429680
  0
VERTEX
  8
0
  6
CONTINUOUS
 10
2.319240
 20
2.416920
  0
VERTEX
  8
0
  6
CONTINUOUS
 10
1.255760
 20
2.417360
  0
VERTEX
  8
0
  6
CONTINUOUS
 10
1.250480
 20
9.147160
  0
SEQEND
  8
0
  0
SOLID
  8
0
 62
     7
 10
2.315720
 20
1.027840
 11
2.696760
 21
0.390720
 12
2.190760
 22
0.989120
 13
2.571800
 23
0.352000
  0
POLYLINE
  8
0
  6
CONTINUOUS
 66
     1
 40
0.000000
 41
0.000000
  0
VERTEX
  8
0
  6
CONTINUOUS
 10
2.315720
 20
1.027840
  0
VERTEX
  8
0
  6
CONTINUOUS
 10
2.696760
 20
0.390720
  0
VERTEX
  8
0
  6
CONTINUOUS
 10
2.571800
 20
0.352000
  0
VERTEX
  8
0
  6
CONTINUOUS
 10
2.190760
 20
0.989120
  0
VERTEX
  8
0
  6
CONTINUOUS
 10
2.315720
 20
1.027840
  0
SEQEND
  8
0
  0
SOLID
  8
0
 62
    15
 10
2.676520
 20
1.896840
 11
3.057560
 21
1.259720
 12
2.710840
 22
1.774960
 13
3.091880
 23
1.137400
  0
POLYLINE
  8
0
  6
CONTINUOUS
 66
     1
 40
0.000000
 41
0.000000
  0
VERTEX
  8
0
  6
CONTINUOUS
 10
2.676520
 20
1.896840
  0
VERTEX
  8
0
  6
CONTINUOUS
 10
3.057560
 20
1.259720
  0
VERTEX
  8
0
  6
CONTINUOUS
 10
3.091880
 20
1.137400
  0
VERTEX
  8
0
  6
CONTINUOUS
 10
2.710840
 20
1.774960
  0
VERTEX
  8
0
  6
CONTINUOUS
 10
2.676520
 20
1.896840
  0
SEQEND
  8
0
  0
SOLID
  8
0
 62
    15
 10
2.710840
 20
1.774960
 11
3.091880
 21
1.137400
 12
2.722720
 22
1.641640
 13
3.103760
 23
1.004520
  0
POLYLINE
  8
0
  6
CONTINUOUS
 66
     1
 40
0.000000
 41
0.000000
  0
VERTEX
  8
0
  6
CONTINUOUS
 10
2.710840
 20
1.774960
  0
VERTEX
  8
0
  6
CONTINUOUS
 10
3.091880
 20
1.137400
  0
VERTEX
  8
0
  6
CONTINUOUS
 10
3.103760
 20
1.004520
  0
VERTEX
  8
0
  6
CONTINUOUS
 10
2.722720
 20
1.641640
  0
VERTEX
  8
0
  6
CONTINUOUS
 10
2.710840
 20
1.774960
  0
SEQEND
  8
0
  0
SOLID
  8
0
 62
    15
 10
2.722720
 20
1.641640
 11
3.103760
 21
1.004520
 12
2.719200
 22
1.573440
 13
3.100240
 23
0.936320
  0
POLYLINE
  8
0
  6
CONTINUOUS
 66
     1
 40
0.000000
 41
0.000000
  0
VERTEX
  8
0
  6
CONTINUOUS
 10
2.722720
 20
1.641640
  0
VERTEX
  8
0
  6
CONTINUOUS
 10
3.103760
 20
1.004520
  0
VERTEX
  8
0
  6
CONTINUOUS
 10
3.100240
 20
0.936320
  0
VERTEX
  8
0
  6
CONTINUOUS
 10
2.719200
 20
1.573440
  0
VERTEX
  8
0
  6
CONTINUOUS
 10
2.722720
 20
1.641640
  0
SEQEND
  8
0
  0
SOLID
  8
0
 62
    15
 10
2.719200
 20
1.573440
 11
3.100240
 21
0.936320
 12
2.709080
 22
1.507440
 13
3.090120
 23
0.870320
  0
POLYLINE
  8
0
  6
CONTINUOUS
 66
     1
 40
0.000000
 41
0.000000
  0
VERTEX
  8
0
  6
CONTINUOUS
 10
2.719200
 20
1.573440
  0
VERTEX
  8
0
  6
CONTINUOUS
 10
3.100240
 20
0.936320
  0
VERTEX
  8
0
  6
CONTINUOUS
 10
3.090120
 20
0.870320
  0
VERTEX
  8
0
  6
CONTINUOUS
 10
2.709080
 20
1.507440
  0
VERTEX
  8
0
  6
CONTINUOUS
 10
2.719200
 20
1.573440
  0
SEQEND
  8
0
  0
SOLID
  8
0
 62
    15
 10
2.709080
 20
1.507440
 11
3.090120
 21
0.870320
 12
2.670360
 22
1.382480
 13
3.051400
 23
0.745360
  0
POLYLINE
  8
0
  6
CONTINUOUS
 66
     1
 40
0.000000
 41
0.000000
  0
VERTEX
  8
0
  6
CONTINUOUS
 10
2.709080
 20
1.507440
  0
VERTEX
  8
0
  6
CONTINUOUS
 10
3.090120
 20
0.870320
  0
VERTEX
  8
0
  6
CONTINUOUS
 10
3.051400
 20
0.745360
  0
VERTEX
  8
0
  6
CONTINUOUS
 10
2.670360
 20
1.382480
  0
VERTEX
  8
0
  6
CONTINUOUS
 10
2.709080
 20
1.507440
  0
SEQEND
  8
0
  0
SOLID
  8
0
 62
    15
 10
2.670360
 20
1.382480
 11
3.051400
 21
0.745360
 12
2.608760
 22
1.269400
 13
2.989800
 23
0.631840
  0
POLYLINE
  8
0
  6
CONTINUOUS
 66
     1
 40
0.000000
 41
0.000000
  0
VERTEX
  8
0
  6
CONTINUOUS
 10
2.670360
 20
1.382480
  0
VERTEX
  8
0
  6
CONTINUOUS
 10
3.051400
 20
0.745360
  0
VERTEX
  8
0
  6
CONTINUOUS
 10
2.989800
 20
0.631840
  0
VERTEX
  8
0
  6
CONTINUOUS
 10
2.608760
 20
1.269400
  0
VERTEX
  8
0
  6
CONTINUOUS
 10
2.670360
 20
1.382480
  0
SEQEND
  8
0
  0
SOLID
  8
0
 62
    15
 10
2.608760
 20
1.269400
 11
2.989800
 21
0.631840
 12
2.527800
 22
1.170840
 13
2.908400
 23
0.533280
  0
POLYLINE
  8
0
  6
CONTINUOUS
 66
     1
 40
0.000000
 41
0.000000
  0
VERTEX
  8
0
  6
CONTINUOUS
 10
2.608760
 20
1.269400
  0
VERTEX
  8
0
  6
CONTINUOUS
 10
2.989800
 20
0.631840
  0
VERTEX
  8
0
  6
CONTINUOUS
 10
2.908400
 20
0.533280
  0
VERTEX
  8
0
  6
CONTINUOUS
 10
2.527800
 20
1.170840
  0
VERTEX
  8
0
  6
CONTINUOUS
 10
2.608760
 20
1.269400
  0
SEQEND
  8
0
  0
SOLID
  8
0
 62
     7
 10
2.527800
 20
1.170840
 11
2.908400
 21
0.533280
 12
2.428800
 22
1.089440
 13
2.809840
 23
0.452320
  0
POLYLINE
  8
0
  6
CONTINUOUS
 66
     1
 40
0.000000
 41
0.000000
  0
VERTEX
  8
0
  6
CONTINUOUS
 10
2.527800
 20
1.170840
  0
VERTEX
  8
0
  6
CONTINUOUS
 10
2.908400
 20
0.533280
  0
VERTEX
  8
0
  6
CONTINUOUS
 10
2.809840
 20
0.452320
  0
VERTEX
  8
0
  6
CONTINUOUS
 10
2.428800
 20
1.089440
  0
VERTEX
  8
0
  6
CONTINUOUS
 10
2.527800
 20
1.170840
  0
SEQEND
  8
0
  0
SOLID
  8
0
 62
     7
 10
2.428800
 20
1.089440
 11
2.809840
 21
0.452320
 12
2.315720
 22
1.027840
 13
2.696760
 23
0.390720
  0
POLYLINE
  8
0
  6
CONTINUOUS
 66
     1
 40
0.000000
 41
0.000000
  0
VERTEX
  8
0
  6
CONTINUOUS
 10
2.428800
 20
1.089440
  0
VERTEX
  8
0
  6
CONTINUOUS
 10
2.809840
 20
0.452320
  0
VERTEX
  8
0
  6
CONTINUOUS
 10
2.696760
 20
0.390720
  0
VERTEX
  8
0
  6
CONTINUOUS
 10
2.315720
 20
1.027840
  0
VERTEX
  8
0
  6
CONTINUOUS
 10
2.428800
 20
1.089440
  0
SEQEND
  8
0
  0
SOLID
  8
0
 62
    15
 10
2.620640
 20
2.005960
 11
3.001240
 21
1.368840
 12
2.676520
 22
1.896840
 13
3.057560
 23
1.259720
  0
POLYLINE
  8
0
  6
CONTINUOUS
 66
     1
 40
0.000000
 41
0.000000
  0
VERTEX
  8
0
  6
CONTINUOUS
 10
2.620640
 20
2.005960
  0
VERTEX
  8
0
  6
CONTINUOUS
 10
3.001240
 20
1.368840
  0
VERTEX
  8
0
  6
CONTINUOUS
 10
3.057560
 20
1.259720
  0
VERTEX
  8
0
  6
CONTINUOUS
 10
2.676520
 20
1.896840
  0
VERTEX
  8
0
  6
CONTINUOUS
 10
2.620640
 20
2.005960
  0
SEQEND
  8
0
  0
SOLID
  8
0
 62
    15
 10
2.190760
 20
0.989120
 11
2.571800
 21
0.352000
 12
2.124760
 22
0.979000
 13
2.505360
 23
0.341880
  0
POLYLINE
  8
0
  6
CONTINUOUS
 66
     1
 40
0.000000
 41
0.000000
  0
VERTEX
  8
0
  6
CONTINUOUS
 10
2.190760
 20
0.989120
  0
VERTEX
  8
0
  6
CONTINUOUS
 10
2.571800
 20
0.352000
  0
VERTEX
  8
0
  6
CONTINUOUS
 10
2.505360
 20
0.341880
  0
VERTEX
  8
0
  6
CONTINUOUS
 10
2.124760
 20
0.979000
  0
VERTEX
  8
0
  6
CONTINUOUS
 10
2.190760
 20
0.989120
  0
SEQEND
  8
0
  0
SOLID
  8
0
 62
    15
 10
2.124760
 20
0.979000
 11
2.505360
 21
0.341880
 12
2.056560
 22
0.975480
 13
2.437600
 23
0.338360
  0
POLYLINE
  8
0
  6
CONTINUOUS
 66
     1
 40
0.000000
 41
0.000000
  0
VERTEX
  8
0
  6
CONTINUOUS
 10
2.124760
 20
0.979000
  0
VERTEX
  8
0
  6
CONTINUOUS
 10
2.505360
 20
0.341880
  0
VERTEX
  8
0
  6
CONTINUOUS
 10
2.437600
 20
0.338360
  0
VERTEX
  8
0
  6
CONTINUOUS
 10
2.056560
 20
0.975480
  0
VERTEX
  8
0
  6
CONTINUOUS
 10
2.124760
 20
0.979000
  0
SEQEND
  8
0
  0
SOLID
  8
0
 62
    15
 10
2.056560
 20
0.975480
 11
2.437600
 21
0.338360
 12
1.988360
 22
0.979000
 13
2.369400
 23
0.341880
  0
POLYLINE
  8
0
  6
CONTINUOUS
 66
     1
 40
0.000000
 41
0.000000
  0
VERTEX
  8
0
  6
CONTINUOUS
 10
2.056560
 20
0.975480
  0
VERTEX
  8
0
  6
CONTINUOUS
 10
2.437600
 20
0.338360
  0
VERTEX
  8
0
  6
CONTINUOUS
 10
2.369400
 20
0.341880
  0
VERTEX
  8
0
  6
CONTINUOUS
 10
1.988360
 20
0.979000
  0
VERTEX
  8
0
  6
CONTINUOUS
 10
2.056560
 20
0.975480
  0
SEQEND
  8
0
  0
SOLID
  8
0
 62
    15
 10
1.988360
 20
0.979000
 11
2.369400
 21
0.341880
 12
1.922360
 22
0.989120
 13
2.303400
 23
0.352000
  0
POLYLINE
  8
0
  6
CONTINUOUS
 66
     1
 40
0.000000
 41
0.000000
  0
VERTEX
  8
0
  6
CONTINUOUS
 10
1.988360
 20
0.979000
  0
VERTEX
  8
0
  6
CONTINUOUS
 10
2.369400
 20
0.341880
  0
VERTEX
  8
0
  6
CONTINUOUS
 10
2.303400
 20
0.352000
  0
VERTEX
  8
0
  6
CONTINUOUS
 10
1.922360
 20
0.989120
  0
VERTEX
  8
0
  6
CONTINUOUS
 10
1.988360
 20
0.979000
  0
SEQEND
  8
0
  0
SOLID
  8
0
 62
    15
 10
1.922360
 20
0.989120
 11
2.303400
 21
0.352000
 12
1.797400
 22
1.027840
 13
2.178000
 23
0.390720
  0
POLYLINE
  8
0
  6
CONTINUOUS
 66
     1
 40
0.000000
 41
0.000000
  0
VERTEX
  8
0
  6
CONTINUOUS
 10
1.922360
 20
0.989120
  0
VERTEX
  8
0
  6
CONTINUOUS
 10
2.303400
 20
0.352000
  0
VERTEX
  8
0
  6
CONTINUOUS
 10
2.178000
 20
0.390720
  0
VERTEX
  8
0
  6
CONTINUOUS
 10
1.797400
 20
1.027840
  0
VERTEX
  8
0
  6
CONTINUOUS
 10
1.922360
 20
0.989120
  0
SEQEND
  8
0
  0
SOLID
  8
0
 62
    15
 10
1.390400
 20
1.641640
 11
1.771440
 21
1.004520
 12
1.256200
 22
1.641640
 13
1.637240
 23
1.004520
  0
POLYLINE
  8
0
  6
CONTINUOUS
 66
     1
 40
0.000000
 41
0.000000
  0
VERTEX
  8
0
  6
CONTINUOUS
 10
1.390400
 20
1.641640
  0
VERTEX
  8
0
  6
CONTINUOUS
 10
1.771440
 20
1.004520
  0
VERTEX
  8
0
  6
CONTINUOUS
 10
1.637240
 20
1.004520
  0
VERTEX
  8
0
  6
CONTINUOUS
 10
1.256200
 20
1.641640
  0
VERTEX
  8
0
  6
CONTINUOUS
 10
1.390400
 20
1.641640
  0
SEQEND
  8
0
  0
SOLID
  8
0
 62
    15
 10
1.684320
 20
1.089440
 11
2.064920
 21
0.452320
 12
1.585760
 22
1.170840
 13
1.966360
 23
0.533280
  0
POLYLINE
  8
0
  6
CONTINUOUS
 66
     1
 40
0.000000
 41
0.000000
  0
VERTEX
  8
0
  6
CONTINUOUS
 10
1.684320
 20
1.089440
  0
VERTEX
  8
0
  6
CONTINUOUS
 10
2.064920
 20
0.452320
  0
VERTEX
  8
0
  6
CONTINUOUS
 10
1.966360
 20
0.533280
  0
VERTEX
  8
0
  6
CONTINUOUS
 10
1.585760
 20
1.170840
  0
VERTEX
  8
0
  6
CONTINUOUS
 10
1.684320
 20
1.089440
  0
SEQEND
  8
0
  0
SOLID
  8
0
 62
    15
 10
1.585760
 20
1.170840
 11
1.966360
 21
0.533280
 12
1.504360
 22
1.269400
 13
1.884960
 23
0.631840
  0
POLYLINE
  8
0
  6
CONTINUOUS
 66
     1
 40
0.000000
 41
0.000000
  0
VERTEX
  8
0
  6
CONTINUOUS
 10
1.585760
 20
1.170840
  0
VERTEX
  8
0
  6
CONTINUOUS
 10
1.966360
 20
0.533280
  0
VERTEX
  8
0
  6
CONTINUOUS
 10
1.884960
 20
0.631840
  0
VERTEX
  8
0
  6
CONTINUOUS
 10
1.504360
 20
1.269400
  0
VERTEX
  8
0
  6
CONTINUOUS
 10
1.585760
 20
1.170840
  0
SEQEND
  8
0
  0
SOLID
  8
0
 62
    15
 10
1.797400
 20
1.027840
 11
2.178000
 21
0.390720
 12
1.684320
 22
1.089440
 13
2.064920
 23
0.452320
  0
POLYLINE
  8
0
  6
CONTINUOUS
 66
     1
 40
0.000000
 41
0.000000
  0
VERTEX
  8
0
  6
CONTINUOUS
 10
1.797400
 20
1.027840
  0
VERTEX
  8
0
  6
CONTINUOUS
 10
2.178000
 20
0.390720
  0
VERTEX
  8
0
  6
CONTINUOUS
 10
2.064920
 20
0.452320
  0
VERTEX
  8
0
  6
CONTINUOUS
 10
1.684320
 20
1.089440
  0
VERTEX
  8
0
  6
CONTINUOUS
 10
1.797400
 20
1.027840
  0
SEQEND
  8
0
  0
SOLID
  8
0
 62
    15
 10
2.049080
 20
2.419120
 11
2.429680
 21
1.782000
 12
2.049080
 22
2.282720
 13
2.429680
 23
1.645160
  0
POLYLINE
  8
0
  6
CONTINUOUS
 66
     1
 40
0.000000
 41
0.000000
  0
VERTEX
  8
0
  6
CONTINUOUS
 10
2.049080
 20
2.419120
  0
VERTEX
  8
0
  6
CONTINUOUS
 10
2.429680
 20
1.782000
  0
VERTEX
  8
0
  6
CONTINUOUS
 10
2.429680
 20
1.645160
  0
VERTEX
  8
0
  6
CONTINUOUS
 10
2.049080
 20
2.282720
  0
VERTEX
  8
0
  6
CONTINUOUS
 10
2.049080
 20
2.419120
  0
SEQEND
  8
0
  0
POLYLINE
  8
0
  6
CONTINUOUS
 66
     1
 40
0.000000
 41
0.000000
  0
VERTEX
  8
0
  6
CONTINUOUS
 10
2.052600
 20
2.282720
  0
VERTEX
  8
0
  6
CONTINUOUS
 10
2.128720
 20
2.279640
  0
VERTEX
  8
0
  6
CONTINUOUS
 10
2.201320
 20
2.269960
  0
VERTEX
  8
0
  6
CONTINUOUS
 10
2.269080
 20
2.255000
  0
VERTEX
  8
0
  6
CONTINUOUS
 10
2.333320
 20
2.234320
  0
VERTEX
  8
0
  6
CONTINUOUS
 10
2.447720
 20
2.176680
  0
VERTEX
  8
0
  6
CONTINUOUS
 10
2.544080
 20
2.100120
  0
VERTEX
  8
0
  6
CONTINUOUS
 10
2.620640
 20
2.005960
  0
VERTEX
  8
0
  6
CONTINUOUS
 10
2.676520
 20
1.896840
  0
VERTEX
  8
0
  6
CONTINUOUS
 10
2.710840
 20
1.774960
  0
VERTEX
  8
0
  6
CONTINUOUS
 10
2.722720
 20
1.641640
  0
VERTEX
  8
0
  6
CONTINUOUS
 10
2.719200
 20
1.573440
  0
VERTEX
  8
0
  6
CONTINUOUS
 10
2.709080
 20
1.507440
  0
VERTEX
  8
0
  6
CONTINUOUS
 10
2.670360
 20
1.382480
  0
VERTEX
  8
0
  6
CONTINUOUS
 10
2.608760
 20
1.269400
  0
VERTEX
  8
0
  6
CONTINUOUS
 10
2.527800
 20
1.170840
  0
VERTEX
  8
0
  6
CONTINUOUS
 10
2.428800
 20
1.089440
  0
VERTEX
  8
0
  6
CONTINUOUS
 10
2.315720
 20
1.027840
  0
VERTEX
  8
0
  6
CONTINUOUS
 10
2.190760
 20
0.989120
  0
VERTEX
  8
0
  6
CONTINUOUS
 10
2.124760
 20
0.979000
  0
VERTEX
  8
0
  6
CONTINUOUS
 10
2.056560
 20
0.975480
  0
VERTEX
  8
0
  6
CONTINUOUS
 10
1.988360
 20
0.979000
  0
VERTEX
  8
0
  6
CONTINUOUS
 10
1.922360
 20
0.989120
  0
VERTEX
  8
0
  6
CONTINUOUS
 10
1.797400
 20
1.027840
  0
VERTEX
  8
0
  6
CONTINUOUS
 10
1.684320
 20
1.089440
  0
VERTEX
  8
0
  6
CONTINUOUS
 10
1.585760
 20
1.170840
  0
VERTEX
  8
0
  6
CONTINUOUS
 10
1.504360
 20
1.269400
  0
VERTEX
  8
0
  6
CONTINUOUS
 10
1.442760
 20
1.382480
  0
VERTEX
  8
0
  6
CONTINUOUS
 10
1.404040
 20
1.507440
  0
VERTEX
  8
0
  6
CONTINUOUS
 10
1.393920
 20
1.573440
  0
VERTEX
  8
0
  6
CONTINUOUS
 10
1.390400
 20
1.641640
  0
VERTEX
  8
0
  6
CONTINUOUS
 10
1.256200
 20
1.641640
  0
VERTEX
  8
0
  6
CONTINUOUS
 10
1.256200
 20
2.419120
  0
VERTEX
  8
0
  6
CONTINUOUS
 10
2.049080
 20
2.419120
  0
VERTEX
  8
0
  6
CONTINUOUS
 10
2.049080
 20
2.282720
  0
VERTEX
  8
0
  6
CONTINUOUS
 10
2.052600
 20
2.282720
  0
SEQEND
  8
0
  0
TEXT
  8
0
 10
3.680160
 20
2.628120
 40
0.138024
  1
BA  781B
 41
1.000000
  7
SN0
 71
     0
 72
     5
 11
4.383142
 21
2.628120
  0
TEXT
  8
0
 10
3.413960
 20
2.436280
 40
0.138024
  1
1-1/2" x 6-11/16"
 41
1.000000
  7
SN0
 71
     0
 72
     5
 11
4.651373
 21
2.436280
  0
TEXT
  8
0
 10
1.326600
 20
2.501840
 40
0.138024
  1
B
 41
1.000000
  7
SN0
 71
     0
 72
     5
 11
1.437597
 21
2.501840
  0
TEXT
  8
0
 10
1.326600
 20
2.185040
 40
0.138024
  1
A
 41
1.000000
  7
SN0
 71
     0
 72
     5
 11
1.437597
 21
2.185040
  0
ENDSEC
  0
EOF
