  0
SECTION
  2
HEADER
  9
$ACADVER
  1
AC1006
  9
$EXTMIN
 10
2.192960
 20
4.327400
  9
$EXTMAX
 10
6.183320
 20
6.672160
  9
$LTSCALE
 40
0.044000
  9
$PDMODE
 70
    35
  9
$PDSIZE
 40
0.035200
  0
ENDSEC
  0
SECTION
  2
TABLES
  0
TABLE
  2
LTYPE
 70
     9
  0
LTYPE
  2
CONTINUOUS
 70
    64
  3
Solid line
 72
    65
 73
     0
 40
0.000000
  0
LTYPE
  2
DASHED
 70
    64
  3
__ __ __ __ __ __ __ __ __ __ __ __ __ __ __
 72
    65
 73
     2
 40
0.000330
 49
0.000220
 49
-0.000110
  0
LTYPE
  2
HIDDEN
 70
    64
  3
 _ _ _ _ _ _ _ _ _ _ _ _ _ _ _ _ _ _ _ _ _ _
 72
    65
 73
     2
 40
0.000165
 49
0.000110
 49
-0.000055
  0
LTYPE
  2
CENTER
 70
    64
  3
____ _ ____ _ ____ _ ____ _ ____ _ ____ _ ____
 72
    65
 73
     4
 40
0.000880
 49
0.000550
 49
-0.000110
 49
0.000110
 49
-0.000110
  0
LTYPE
  2
PHANTOM
 70
    64
  3
_____ _ _ _____ _ _ _____ _ _ _____ _ _ ____
 72
    65
 73
     6
 40
0.001100
 49
0.000550
 49
-0.000110
 49
0.000110
 49
-0.000110
 49
0.000110
 49
-0.000110
  0
LTYPE
  2
DOT
 70
    64
  3
...............................................
 72
    65
 73
     2
 40
0.000110
 49
0.000000
 49
-0.000110
  0
LTYPE
  2
DASHDOT
 70
    64
  3
__ . __ . __ . __ . __ . __ . __ . __ . __ . __
 72
    65
 73
     4
 40
0.000440
 49
0.000220
 49
-0.000110
 49
0.000000
 49
-0.000110
  0
LTYPE
  2
BORDER
 70
    64
  3
__ __ . __ __ . __ __ . __ __ . __ __ . __ __
 72
    65
 73
     6
 40
0.000770
 49
0.000220
 49
-0.000110
 49
0.000220
 49
-0.000110
 49
0.000000
 49
-0.000110
  0
LTYPE
  2
DIVIDE
 70
    64
  3
__ . . __ . . __ . . __ . . __ . . __ . . __
 72
    65
 73
     6
 40
0.000550
 49
0.000220
 49
-0.000110
 49
0.000000
 49
-0.000110
 49
0.000000
 49
-0.000110
  0
LTYPE
  2
DOTDOT
 70
    64
  3
 . .  . .  . .  . .  . .  . . 
 72
    65
 73
     5
 40
0.000242
 49
-0.000110
 49
0.000000
 49
-0.000110
 49
0.000000
 49
-0.000110
  0
ENDTAB
  0
TABLE
  2
STYLE
 70
     2
  0
STYLE
 70
     0
  2
SN0
 40
0.000000
 41
0.000440
 50
0.000000
 71
     0
 42
0.000000
  3
ROMAND
  0
STYLE
 70
    68
  2
SV0
 40
0.000000
 41
0.000440
 50
0.000000
 71
     0
 42
0.000000
  3
ROMAND
  0
ENDTAB
  0
TABLE
  2
LAYER
 70
     3
  0
LAYER
  2
FOREGROUND
 70
    64
 62
     7
  6
CONTINUOUS
  0
LAYER
  2
BACKGROUND
 70
    65
 62
    -7
  6
CONTINUOUS
  0
LAYER
  2
0
 70
    64
 62
     7
  6
CONTINUOUS
  0
ENDTAB
  0
ENDSEC
  0
SECTION
  2
ENTITIES
  0
POLYLINE
  8
FOREGROUND
  6
CONTINUOUS
 66
     1
 40
0.000000
 41
0.000000
  0
VERTEX
  8
FOREGROUND
  6
CONTINUOUS
 10
0.000000
 20
10.999560
  0
VERTEX
  8
FOREGROUND
  6
CONTINUOUS
 10
8.499920
 20
10.999560
  0
VERTEX
  8
FOREGROUND
  6
CONTINUOUS
 10
8.499920
 20
-0.000440
  0
VERTEX
  8
FOREGROUND
  6
CONTINUOUS
 10
0.000000
 20
-0.000440
  0
VERTEX
  8
FOREGROUND
  6
CONTINUOUS
 10
0.000000
 20
10.999560
  0
SEQEND
  8
0
  0
POLYLINE
  8
FOREGROUND
  6
CONTINUOUS
 66
     1
 40
0.000000
 41
0.000000
  0
VERTEX
  8
FOREGROUND
  6
CONTINUOUS
 10
0.000000
 20
10.999560
  0
VERTEX
  8
FOREGROUND
  6
CONTINUOUS
 10
8.499920
 20
10.999560
  0
VERTEX
  8
FOREGROUND
  6
CONTINUOUS
 10
8.499920
 20
-0.000440
  0
VERTEX
  8
FOREGROUND
  6
CONTINUOUS
 10
0.000000
 20
-0.000440
  0
VERTEX
  8
FOREGROUND
  6
CONTINUOUS
 10
0.000000
 20
10.999560
  0
SEQEND
  8
0
  0
TEXT
  8
0
 10
5.214880
 20
4.924480
 40
0.138088
  1
BA  781A
 41
1.000000
  7
SN0
 71
     0
 72
     5
 11
5.915188
 21
4.924480
  0
TEXT
  8
0
 10
4.948240
 20
4.732640
 40
0.138088
  1
1-7/16" x 1-7/16"
 41
1.000000
  7
SN0
 71
     0
 72
     5
 11
6.179865
 21
4.732640
  0
POLYLINE
  8
0
  6
CONTINUOUS
 66
     1
 40
0.014080
 41
0.014080
  0
VERTEX
  8
0
  6
CONTINUOUS
 10
5.309040
 20
5.357440
  0
VERTEX
  8
0
  6
CONTINUOUS
 10
5.270320
 20
5.358320
  0
VERTEX
  8
0
  6
CONTINUOUS
 10
5.232920
 20
5.360520
  0
VERTEX
  8
0
  6
CONTINUOUS
 10
5.160760
 20
5.369760
  0
VERTEX
  8
0
  6
CONTINUOUS
 10
5.126000
 20
5.376800
  0
VERTEX
  8
0
  6
CONTINUOUS
 10
5.060000
 20
5.394840
  0
VERTEX
  8
0
  6
CONTINUOUS
 10
4.998400
 20
5.418160
  0
VERTEX
  8
0
  6
CONTINUOUS
 10
4.968920
 20
5.431800
  0
VERTEX
  8
0
  6
CONTINUOUS
 10
4.940760
 20
5.446760
  0
VERTEX
  8
0
  6
CONTINUOUS
 10
4.887960
 20
5.480640
  0
VERTEX
  8
0
  6
CONTINUOUS
 10
4.863320
 20
5.499120
  0
VERTEX
  8
0
  6
CONTINUOUS
 10
4.817560
 20
5.539600
  0
VERTEX
  8
0
  6
CONTINUOUS
 10
4.777080
 20
5.584920
  0
VERTEX
  8
0
  6
CONTINUOUS
 10
4.758160
 20
5.608680
  0
VERTEX
  8
0
  6
CONTINUOUS
 10
4.725160
 20
5.659720
  0
VERTEX
  8
0
  6
CONTINUOUS
 10
4.710200
 20
5.686560
  0
VERTEX
  8
0
  6
CONTINUOUS
 10
4.685120
 20
5.742880
  0
VERTEX
  8
0
  6
CONTINUOUS
 10
4.664880
 20
5.802280
  0
VERTEX
  8
0
  6
CONTINUOUS
 10
4.656960
 20
5.833080
  0
VERTEX
  8
0
  6
CONTINUOUS
 10
4.645520
 20
5.897320
  0
VERTEX
  8
0
  6
CONTINUOUS
 10
4.639800
 20
5.963760
  0
VERTEX
  8
0
  6
CONTINUOUS
 10
4.638920
 20
5.998080
  0
VERTEX
  8
0
  6
CONTINUOUS
 10
4.639800
 20
6.032400
  0
VERTEX
  8
0
  6
CONTINUOUS
 10
4.646400
 20
6.099720
  0
VERTEX
  8
0
  6
CONTINUOUS
 10
4.660040
 20
6.164400
  0
VERTEX
  8
0
  6
CONTINUOUS
 10
4.668840
 20
6.196080
  0
VERTEX
  8
0
  6
CONTINUOUS
 10
4.679400
 20
6.227320
  0
VERTEX
  8
0
  6
CONTINUOUS
 10
4.704480
 20
6.286720
  0
VERTEX
  8
0
  6
CONTINUOUS
 10
4.735280
 20
6.343480
  0
VERTEX
  8
0
  6
CONTINUOUS
 10
4.771360
 20
6.396720
  0
VERTEX
  8
0
  6
CONTINUOUS
 10
4.811840
 20
6.446000
  0
VERTEX
  8
0
  6
CONTINUOUS
 10
4.857160
 20
6.491320
  0
VERTEX
  8
0
  6
CONTINUOUS
 10
4.906440
 20
6.531800
  0
VERTEX
  8
0
  6
CONTINUOUS
 10
4.959680
 20
6.567880
  0
VERTEX
  8
0
  6
CONTINUOUS
 10
5.016440
 20
6.598680
  0
VERTEX
  8
0
  6
CONTINUOUS
 10
5.075840
 20
6.623760
  0
VERTEX
  8
0
  6
CONTINUOUS
 10
5.107080
 20
6.634320
  0
VERTEX
  8
0
  6
CONTINUOUS
 10
5.170880
 20
6.650600
  0
VERTEX
  8
0
  6
CONTINUOUS
 10
5.203440
 20
6.656760
  0
VERTEX
  8
0
  6
CONTINUOUS
 10
5.270760
 20
6.663360
  0
VERTEX
  8
0
  6
CONTINUOUS
 10
5.305080
 20
6.664240
  0
VERTEX
  8
0
  6
CONTINUOUS
 10
5.339400
 20
6.663360
  0
VERTEX
  8
0
  6
CONTINUOUS
 10
5.406720
 20
6.656760
  0
VERTEX
  8
0
  6
CONTINUOUS
 10
5.471400
 20
6.643120
  0
VERTEX
  8
0
  6
CONTINUOUS
 10
5.503080
 20
6.634320
  0
VERTEX
  8
0
  6
CONTINUOUS
 10
5.534320
 20
6.623760
  0
VERTEX
  8
0
  6
CONTINUOUS
 10
5.593720
 20
6.598680
  0
VERTEX
  8
0
  6
CONTINUOUS
 10
5.650480
 20
6.567880
  0
VERTEX
  8
0
  6
CONTINUOUS
 10
5.703720
 20
6.531800
  0
VERTEX
  8
0
  6
CONTINUOUS
 10
5.753000
 20
6.491320
  0
VERTEX
  8
0
  6
CONTINUOUS
 10
5.798320
 20
6.446000
  0
VERTEX
  8
0
  6
CONTINUOUS
 10
5.838800
 20
6.396720
  0
VERTEX
  8
0
  6
CONTINUOUS
 10
5.874880
 20
6.343480
  0
VERTEX
  8
0
  6
CONTINUOUS
 10
5.905680
 20
6.286720
  0
VERTEX
  8
0
  6
CONTINUOUS
 10
5.930760
 20
6.227320
  0
VERTEX
  8
0
  6
CONTINUOUS
 10
5.941320
 20
6.196080
  0
VERTEX
  8
0
  6
CONTINUOUS
 10
5.957600
 20
6.132280
  0
VERTEX
  8
0
  6
CONTINUOUS
 10
5.963760
 20
6.099720
  0
VERTEX
  8
0
  6
CONTINUOUS
 10
5.970360
 20
6.032400
  0
VERTEX
  8
0
  6
CONTINUOUS
 10
5.971240
 20
5.998080
  0
VERTEX
  8
0
  6
CONTINUOUS
 10
6.105440
 20
5.998080
  0
VERTEX
  8
0
  6
CONTINUOUS
 10
6.105440
 20
5.220600
  0
VERTEX
  8
0
  6
CONTINUOUS
 10
5.312560
 20
5.220600
  0
VERTEX
  8
0
  6
CONTINUOUS
 10
5.312560
 20
5.357440
  0
VERTEX
  8
0
  6
CONTINUOUS
 10
5.309040
 20
5.357440
  0
SEQEND
  8
0
  0
SOLID
  8
0
 62
    15
 10
3.648480
 20
5.628920
 11
4.299680
 21
6.002480
 12
3.659920
 22
5.495600
 13
4.311120
 23
5.869160
  0
POLYLINE
  8
0
  6
CONTINUOUS
 66
     1
 40
0.000000
 41
0.000000
  0
VERTEX
  8
0
  6
CONTINUOUS
 10
3.648480
 20
5.628920
  0
VERTEX
  8
0
  6
CONTINUOUS
 10
4.299680
 20
6.002480
  0
VERTEX
  8
0
  6
CONTINUOUS
 10
4.311120
 20
5.869160
  0
VERTEX
  8
0
  6
CONTINUOUS
 10
3.659920
 20
5.495600
  0
VERTEX
  8
0
  6
CONTINUOUS
 10
3.648480
 20
5.628920
  0
SEQEND
  8
0
  0
SOLID
  8
0
 62
    15
 10
3.066360
 20
6.133160
 11
3.717560
 21
6.506720
 12
3.138520
 22
6.123920
 13
3.789720
 23
6.497480
  0
POLYLINE
  8
0
  6
CONTINUOUS
 66
     1
 40
0.000000
 41
0.000000
  0
VERTEX
  8
0
  6
CONTINUOUS
 10
3.066360
 20
6.133160
  0
VERTEX
  8
0
  6
CONTINUOUS
 10
3.717560
 20
6.506720
  0
VERTEX
  8
0
  6
CONTINUOUS
 10
3.789720
 20
6.497480
  0
VERTEX
  8
0
  6
CONTINUOUS
 10
3.138520
 20
6.123920
  0
VERTEX
  8
0
  6
CONTINUOUS
 10
3.066360
 20
6.133160
  0
SEQEND
  8
0
  0
SOLID
  8
0
 62
    15
 10
3.138520
 20
6.123920
 11
3.789720
 21
6.497480
 12
3.206720
 22
6.108960
 13
3.857920
 23
6.482520
  0
POLYLINE
  8
0
  6
CONTINUOUS
 66
     1
 40
0.000000
 41
0.000000
  0
VERTEX
  8
0
  6
CONTINUOUS
 10
3.138520
 20
6.123920
  0
VERTEX
  8
0
  6
CONTINUOUS
 10
3.789720
 20
6.497480
  0
VERTEX
  8
0
  6
CONTINUOUS
 10
3.857920
 20
6.482520
  0
VERTEX
  8
0
  6
CONTINUOUS
 10
3.206720
 20
6.108960
  0
VERTEX
  8
0
  6
CONTINUOUS
 10
3.138520
 20
6.123920
  0
SEQEND
  8
0
  0
SOLID
  8
0
 62
    15
 10
3.206720
 20
6.108960
 11
3.857920
 21
6.482520
 12
3.270520
 22
6.088280
 13
3.921720
 23
6.461840
  0
POLYLINE
  8
0
  6
CONTINUOUS
 66
     1
 40
0.000000
 41
0.000000
  0
VERTEX
  8
0
  6
CONTINUOUS
 10
3.206720
 20
6.108960
  0
VERTEX
  8
0
  6
CONTINUOUS
 10
3.857920
 20
6.482520
  0
VERTEX
  8
0
  6
CONTINUOUS
 10
3.921720
 20
6.461840
  0
VERTEX
  8
0
  6
CONTINUOUS
 10
3.270520
 20
6.088280
  0
VERTEX
  8
0
  6
CONTINUOUS
 10
3.206720
 20
6.108960
  0
SEQEND
  8
0
  0
SOLID
  8
0
 62
    15
 10
3.270520
 20
6.088280
 11
3.921720
 21
6.461840
 12
3.385360
 22
6.030640
 13
4.036560
 23
6.404200
  0
POLYLINE
  8
0
  6
CONTINUOUS
 66
     1
 40
0.000000
 41
0.000000
  0
VERTEX
  8
0
  6
CONTINUOUS
 10
3.270520
 20
6.088280
  0
VERTEX
  8
0
  6
CONTINUOUS
 10
3.921720
 20
6.461840
  0
VERTEX
  8
0
  6
CONTINUOUS
 10
4.036560
 20
6.404200
  0
VERTEX
  8
0
  6
CONTINUOUS
 10
3.385360
 20
6.030640
  0
VERTEX
  8
0
  6
CONTINUOUS
 10
3.270520
 20
6.088280
  0
SEQEND
  8
0
  0
SOLID
  8
0
 62
    15
 10
3.385360
 20
6.030640
 11
4.036560
 21
6.404200
 12
3.481280
 22
5.954080
 13
4.132480
 23
6.327640
  0
POLYLINE
  8
0
  6
CONTINUOUS
 66
     1
 40
0.000000
 41
0.000000
  0
VERTEX
  8
0
  6
CONTINUOUS
 10
3.385360
 20
6.030640
  0
VERTEX
  8
0
  6
CONTINUOUS
 10
4.036560
 20
6.404200
  0
VERTEX
  8
0
  6
CONTINUOUS
 10
4.132480
 20
6.327640
  0
VERTEX
  8
0
  6
CONTINUOUS
 10
3.481280
 20
5.954080
  0
VERTEX
  8
0
  6
CONTINUOUS
 10
3.385360
 20
6.030640
  0
SEQEND
  8
0
  0
SOLID
  8
0
 62
    15
 10
3.481280
 20
5.954080
 11
4.132480
 21
6.327640
 12
3.557840
 22
5.859920
 13
4.209040
 23
6.233480
  0
POLYLINE
  8
0
  6
CONTINUOUS
 66
     1
 40
0.000000
 41
0.000000
  0
VERTEX
  8
0
  6
CONTINUOUS
 10
3.481280
 20
5.954080
  0
VERTEX
  8
0
  6
CONTINUOUS
 10
4.132480
 20
6.327640
  0
VERTEX
  8
0
  6
CONTINUOUS
 10
4.209040
 20
6.233480
  0
VERTEX
  8
0
  6
CONTINUOUS
 10
3.557840
 20
5.859920
  0
VERTEX
  8
0
  6
CONTINUOUS
 10
3.481280
 20
5.954080
  0
SEQEND
  8
0
  0
SOLID
  8
0
 62
    15
 10
3.557840
 20
5.859920
 11
4.209040
 21
6.233480
 12
3.614160
 22
5.750800
 13
4.265360
 23
6.124360
  0
POLYLINE
  8
0
  6
CONTINUOUS
 66
     1
 40
0.000000
 41
0.000000
  0
VERTEX
  8
0
  6
CONTINUOUS
 10
3.557840
 20
5.859920
  0
VERTEX
  8
0
  6
CONTINUOUS
 10
4.209040
 20
6.233480
  0
VERTEX
  8
0
  6
CONTINUOUS
 10
4.265360
 20
6.124360
  0
VERTEX
  8
0
  6
CONTINUOUS
 10
3.614160
 20
5.750800
  0
VERTEX
  8
0
  6
CONTINUOUS
 10
3.557840
 20
5.859920
  0
SEQEND
  8
0
  0
SOLID
  8
0
 62
    15
 10
3.614160
 20
5.750800
 11
4.265360
 21
6.124360
 12
3.648480
 22
5.628920
 13
4.299680
 23
6.002480
  0
POLYLINE
  8
0
  6
CONTINUOUS
 66
     1
 40
0.000000
 41
0.000000
  0
VERTEX
  8
0
  6
CONTINUOUS
 10
3.614160
 20
5.750800
  0
VERTEX
  8
0
  6
CONTINUOUS
 10
4.265360
 20
6.124360
  0
VERTEX
  8
0
  6
CONTINUOUS
 10
4.299680
 20
6.002480
  0
VERTEX
  8
0
  6
CONTINUOUS
 10
3.648480
 20
5.628920
  0
VERTEX
  8
0
  6
CONTINUOUS
 10
3.614160
 20
5.750800
  0
SEQEND
  8
0
  0
SOLID
  8
0
 62
    15
 10
2.990240
 20
6.136680
 11
3.641440
 21
6.510240
 12
3.066360
 22
6.133160
 13
3.717560
 23
6.506720
  0
POLYLINE
  8
0
  6
CONTINUOUS
 66
     1
 40
0.000000
 41
0.000000
  0
VERTEX
  8
0
  6
CONTINUOUS
 10
2.990240
 20
6.136680
  0
VERTEX
  8
0
  6
CONTINUOUS
 10
3.641440
 20
6.510240
  0
VERTEX
  8
0
  6
CONTINUOUS
 10
3.717560
 20
6.506720
  0
VERTEX
  8
0
  6
CONTINUOUS
 10
3.066360
 20
6.133160
  0
VERTEX
  8
0
  6
CONTINUOUS
 10
2.990240
 20
6.136680
  0
SEQEND
  8
0
  0
SOLID
  8
0
 62
    15
 10
3.659920
 20
5.495600
 11
4.311120
 21
5.869160
 12
3.656840
 22
5.427400
 13
4.308040
 23
5.800960
  0
POLYLINE
  8
0
  6
CONTINUOUS
 66
     1
 40
0.000000
 41
0.000000
  0
VERTEX
  8
0
  6
CONTINUOUS
 10
3.659920
 20
5.495600
  0
VERTEX
  8
0
  6
CONTINUOUS
 10
4.311120
 20
5.869160
  0
VERTEX
  8
0
  6
CONTINUOUS
 10
4.308040
 20
5.800960
  0
VERTEX
  8
0
  6
CONTINUOUS
 10
3.656840
 20
5.427400
  0
VERTEX
  8
0
  6
CONTINUOUS
 10
3.659920
 20
5.495600
  0
SEQEND
  8
0
  0
SOLID
  8
0
 62
    15
 10
3.656840
 20
5.427400
 11
4.308040
 21
5.800960
 12
3.646720
 22
5.361400
 13
4.297920
 23
5.734960
  0
POLYLINE
  8
0
  6
CONTINUOUS
 66
     1
 40
0.000000
 41
0.000000
  0
VERTEX
  8
0
  6
CONTINUOUS
 10
3.656840
 20
5.427400
  0
VERTEX
  8
0
  6
CONTINUOUS
 10
4.308040
 20
5.800960
  0
VERTEX
  8
0
  6
CONTINUOUS
 10
4.297920
 20
5.734960
  0
VERTEX
  8
0
  6
CONTINUOUS
 10
3.646720
 20
5.361400
  0
VERTEX
  8
0
  6
CONTINUOUS
 10
3.656840
 20
5.427400
  0
SEQEND
  8
0
  0
SOLID
  8
0
 62
    15
 10
3.646720
 20
5.361400
 11
4.297920
 21
5.734960
 12
3.607560
 22
5.236440
 13
4.258760
 23
5.610000
  0
POLYLINE
  8
0
  6
CONTINUOUS
 66
     1
 40
0.000000
 41
0.000000
  0
VERTEX
  8
0
  6
CONTINUOUS
 10
3.646720
 20
5.361400
  0
VERTEX
  8
0
  6
CONTINUOUS
 10
4.297920
 20
5.734960
  0
VERTEX
  8
0
  6
CONTINUOUS
 10
4.258760
 20
5.610000
  0
VERTEX
  8
0
  6
CONTINUOUS
 10
3.607560
 20
5.236440
  0
VERTEX
  8
0
  6
CONTINUOUS
 10
3.646720
 20
5.361400
  0
SEQEND
  8
0
  0
SOLID
  8
0
 62
    15
 10
3.607560
 20
5.236440
 11
4.258760
 21
5.610000
 12
3.546400
 22
5.123360
 13
4.197600
 23
5.496920
  0
POLYLINE
  8
0
  6
CONTINUOUS
 66
     1
 40
0.000000
 41
0.000000
  0
VERTEX
  8
0
  6
CONTINUOUS
 10
3.607560
 20
5.236440
  0
VERTEX
  8
0
  6
CONTINUOUS
 10
4.258760
 20
5.610000
  0
VERTEX
  8
0
  6
CONTINUOUS
 10
4.197600
 20
5.496920
  0
VERTEX
  8
0
  6
CONTINUOUS
 10
3.546400
 20
5.123360
  0
VERTEX
  8
0
  6
CONTINUOUS
 10
3.607560
 20
5.236440
  0
SEQEND
  8
0
  0
SOLID
  8
0
 62
    15
 10
3.546400
 20
5.123360
 11
4.197600
 21
5.496920
 12
3.465000
 22
5.024360
 13
4.116200
 23
5.398360
  0
POLYLINE
  8
0
  6
CONTINUOUS
 66
     1
 40
0.000000
 41
0.000000
  0
VERTEX
  8
0
  6
CONTINUOUS
 10
3.546400
 20
5.123360
  0
VERTEX
  8
0
  6
CONTINUOUS
 10
4.197600
 20
5.496920
  0
VERTEX
  8
0
  6
CONTINUOUS
 10
4.116200
 20
5.398360
  0
VERTEX
  8
0
  6
CONTINUOUS
 10
3.465000
 20
5.024360
  0
VERTEX
  8
0
  6
CONTINUOUS
 10
3.546400
 20
5.123360
  0
SEQEND
  8
0
  0
SOLID
  8
0
 62
    15
 10
3.465000
 20
5.024360
 11
4.116200
 21
5.398360
 12
3.366440
 22
4.943400
 13
4.017640
 23
5.316960
  0
POLYLINE
  8
0
  6
CONTINUOUS
 66
     1
 40
0.000000
 41
0.000000
  0
VERTEX
  8
0
  6
CONTINUOUS
 10
3.465000
 20
5.024360
  0
VERTEX
  8
0
  6
CONTINUOUS
 10
4.116200
 20
5.398360
  0
VERTEX
  8
0
  6
CONTINUOUS
 10
4.017640
 20
5.316960
  0
VERTEX
  8
0
  6
CONTINUOUS
 10
3.366440
 20
4.943400
  0
VERTEX
  8
0
  6
CONTINUOUS
 10
3.465000
 20
5.024360
  0
SEQEND
  8
0
  0
SOLID
  8
0
 62
    15
 10
2.193840
 20
6.273080
 11
2.845040
 21
6.646640
 12
2.986280
 22
6.273080
 13
3.637480
 23
6.646640
  0
POLYLINE
  8
0
  6
CONTINUOUS
 66
     1
 40
0.000000
 41
0.000000
  0
VERTEX
  8
0
  6
CONTINUOUS
 10
2.193840
 20
6.273080
  0
VERTEX
  8
0
  6
CONTINUOUS
 10
2.845040
 20
6.646640
  0
VERTEX
  8
0
  6
CONTINUOUS
 10
3.637480
 20
6.646640
  0
VERTEX
  8
0
  6
CONTINUOUS
 10
2.986280
 20
6.273080
  0
VERTEX
  8
0
  6
CONTINUOUS
 10
2.193840
 20
6.273080
  0
SEQEND
  8
0
  0
SOLID
  8
0
 62
    15
 10
2.986280
 20
6.273080
 11
3.637480
 21
6.646640
 12
2.986280
 22
6.136680
 13
3.637480
 23
6.510240
  0
POLYLINE
  8
0
  6
CONTINUOUS
 66
     1
 40
0.000000
 41
0.000000
  0
VERTEX
  8
0
  6
CONTINUOUS
 10
2.986280
 20
6.273080
  0
VERTEX
  8
0
  6
CONTINUOUS
 10
3.637480
 20
6.646640
  0
VERTEX
  8
0
  6
CONTINUOUS
 10
3.637480
 20
6.510240
  0
VERTEX
  8
0
  6
CONTINUOUS
 10
2.986280
 20
6.136680
  0
VERTEX
  8
0
  6
CONTINUOUS
 10
2.986280
 20
6.273080
  0
SEQEND
  8
0
  0
SOLID
  8
0
 62
    15
 10
2.986280
 20
6.136680
 11
3.637480
 21
6.510240
 12
2.990240
 22
6.136680
 13
3.641440
 23
6.510240
  0
POLYLINE
  8
0
  6
CONTINUOUS
 66
     1
 40
0.000000
 41
0.000000
  0
VERTEX
  8
0
  6
CONTINUOUS
 10
2.986280
 20
6.136680
  0
VERTEX
  8
0
  6
CONTINUOUS
 10
3.637480
 20
6.510240
  0
VERTEX
  8
0
  6
CONTINUOUS
 10
3.641440
 20
6.510240
  0
VERTEX
  8
0
  6
CONTINUOUS
 10
2.990240
 20
6.136680
  0
VERTEX
  8
0
  6
CONTINUOUS
 10
2.986280
 20
6.136680
  0
SEQEND
  8
0
  0
POLYLINE
  8
0
  6
CONTINUOUS
 66
     1
 40
0.000000
 41
0.000000
  0
VERTEX
  8
0
  6
CONTINUOUS
 10
2.990240
 20
6.136680
  0
VERTEX
  8
0
  6
CONTINUOUS
 10
3.066360
 20
6.133160
  0
VERTEX
  8
0
  6
CONTINUOUS
 10
3.138520
 20
6.123920
  0
VERTEX
  8
0
  6
CONTINUOUS
 10
3.206720
 20
6.108960
  0
VERTEX
  8
0
  6
CONTINUOUS
 10
3.270520
 20
6.088280
  0
VERTEX
  8
0
  6
CONTINUOUS
 10
3.385360
 20
6.030640
  0
VERTEX
  8
0
  6
CONTINUOUS
 10
3.481280
 20
5.954080
  0
VERTEX
  8
0
  6
CONTINUOUS
 10
3.557840
 20
5.859920
  0
VERTEX
  8
0
  6
CONTINUOUS
 10
3.614160
 20
5.750800
  0
VERTEX
  8
0
  6
CONTINUOUS
 10
3.648480
 20
5.628920
  0
VERTEX
  8
0
  6
CONTINUOUS
 10
3.659920
 20
5.495600
  0
VERTEX
  8
0
  6
CONTINUOUS
 10
3.656840
 20
5.427400
  0
VERTEX
  8
0
  6
CONTINUOUS
 10
3.646720
 20
5.361400
  0
VERTEX
  8
0
  6
CONTINUOUS
 10
3.607560
 20
5.236440
  0
VERTEX
  8
0
  6
CONTINUOUS
 10
3.546400
 20
5.123360
  0
VERTEX
  8
0
  6
CONTINUOUS
 10
3.465000
 20
5.024360
  0
VERTEX
  8
0
  6
CONTINUOUS
 10
3.366440
 20
4.943400
  0
VERTEX
  8
0
  6
CONTINUOUS
 10
3.253360
 20
4.881800
  0
VERTEX
  8
0
  6
CONTINUOUS
 10
3.128400
 20
4.843080
  0
VERTEX
  8
0
  6
CONTINUOUS
 10
3.061960
 20
4.832960
  0
VERTEX
  8
0
  6
CONTINUOUS
 10
2.993760
 20
4.829440
  0
VERTEX
  8
0
  6
CONTINUOUS
 10
2.926000
 20
4.832960
  0
VERTEX
  8
0
  6
CONTINUOUS
 10
2.859560
 20
4.843080
  0
VERTEX
  8
0
  6
CONTINUOUS
 10
2.734600
 20
4.881800
  0
VERTEX
  8
0
  6
CONTINUOUS
 10
2.621520
 20
4.943400
  0
VERTEX
  8
0
  6
CONTINUOUS
 10
2.522960
 20
5.024360
  0
VERTEX
  8
0
  6
CONTINUOUS
 10
2.441560
 20
5.123360
  0
VERTEX
  8
0
  6
CONTINUOUS
 10
2.380400
 20
5.236440
  0
VERTEX
  8
0
  6
CONTINUOUS
 10
2.341240
 20
5.361400
  0
VERTEX
  8
0
  6
CONTINUOUS
 10
2.331120
 20
5.427400
  0
VERTEX
  8
0
  6
CONTINUOUS
 10
2.328040
 20
5.495600
  0
VERTEX
  8
0
  6
CONTINUOUS
 10
2.193840
 20
5.495600
  0
VERTEX
  8
0
  6
CONTINUOUS
 10
2.193840
 20
6.273080
  0
VERTEX
  8
0
  6
CONTINUOUS
 10
2.986280
 20
6.273080
  0
VERTEX
  8
0
  6
CONTINUOUS
 10
2.986280
 20
6.136680
  0
VERTEX
  8
0
  6
CONTINUOUS
 10
2.990240
 20
6.136680
  0
SEQEND
  8
0
  0
TEXT
  8
0
 10
2.902680
 20
4.562800
 40
0.138088
  1
BA  781A
 41
1.000000
  7
SN0
 71
     0
 72
     5
 11
3.602988
 21
4.562800
  0
TEXT
  8
0
 10
2.636040
 20
4.370960
 40
0.138088
  1
1-7/16" x 1-7/16"
 41
1.000000
  7
SN0
 71
     0
 72
     5
 11
3.867665
 21
4.370960
  0
ENDSEC
  0
EOF
