  0
SECTION
  2
HEADER
  9
$ACADVER
  1
AC1006
  9
$EXTMIN
 10
1.882760
 20
0.502040
  9
$EXTMAX
 10
7.106440
 20
5.552360
  9
$LTSCALE
 40
0.044000
  9
$PDMODE
 70
    35
  9
$PDSIZE
 40
0.035200
  0
ENDSEC
  0
SECTION
  2
TABLES
  0
TABLE
  2
LTYPE
 70
     9
  0
LTYPE
  2
CONTINUOUS
 70
    64
  3
Solid line
 72
    65
 73
     0
 40
0.000000
  0
LTYPE
  2
DASHED
 70
    64
  3
__ __ __ __ __ __ __ __ __ __ __ __ __ __ __
 72
    65
 73
     2
 40
0.000330
 49
0.000220
 49
-0.000110
  0
LTYPE
  2
HIDDEN
 70
    64
  3
 _ _ _ _ _ _ _ _ _ _ _ _ _ _ _ _ _ _ _ _ _ _
 72
    65
 73
     2
 40
0.000165
 49
0.000110
 49
-0.000055
  0
LTYPE
  2
CENTER
 70
    64
  3
____ _ ____ _ ____ _ ____ _ ____ _ ____ _ ____
 72
    65
 73
     4
 40
0.000880
 49
0.000550
 49
-0.000110
 49
0.000110
 49
-0.000110
  0
LTYPE
  2
PHANTOM
 70
    64
  3
_____ _ _ _____ _ _ _____ _ _ _____ _ _ ____
 72
    65
 73
     6
 40
0.001100
 49
0.000550
 49
-0.000110
 49
0.000110
 49
-0.000110
 49
0.000110
 49
-0.000110
  0
LTYPE
  2
DOT
 70
    64
  3
...............................................
 72
    65
 73
     2
 40
0.000110
 49
0.000000
 49
-0.000110
  0
LTYPE
  2
DASHDOT
 70
    64
  3
__ . __ . __ . __ . __ . __ . __ . __ . __ . __
 72
    65
 73
     4
 40
0.000440
 49
0.000220
 49
-0.000110
 49
0.000000
 49
-0.000110
  0
LTYPE
  2
BORDER
 70
    64
  3
__ __ . __ __ . __ __ . __ __ . __ __ . __ __
 72
    65
 73
     6
 40
0.000770
 49
0.000220
 49
-0.000110
 49
0.000220
 49
-0.000110
 49
0.000000
 49
-0.000110
  0
LTYPE
  2
DIVIDE
 70
    64
  3
__ . . __ . . __ . . __ . . __ . . __ . . __
 72
    65
 73
     6
 40
0.000550
 49
0.000220
 49
-0.000110
 49
0.000000
 49
-0.000110
 49
0.000000
 49
-0.000110
  0
LTYPE
  2
DOTDOT
 70
    64
  3
 . .  . .  . .  . .  . .  . . 
 72
    65
 73
     5
 40
0.000242
 49
-0.000110
 49
0.000000
 49
-0.000110
 49
0.000000
 49
-0.000110
  0
ENDTAB
  0
TABLE
  2
STYLE
 70
     2
  0
STYLE
 70
     0
  2
SN0
 40
0.000000
 41
0.000440
 50
0.000000
 71
     0
 42
0.000000
  3
ROMAND
  0
STYLE
 70
    68
  2
SV0
 40
0.000000
 41
0.000440
 50
0.000000
 71
     0
 42
0.000000
  3
ROMAND
  0
ENDTAB
  0
TABLE
  2
LAYER
 70
     3
  0
LAYER
  2
FOREGROUND
 70
    64
 62
     7
  6
CONTINUOUS
  0
LAYER
  2
BACKGROUND
 70
    65
 62
    -7
  6
CONTINUOUS
  0
LAYER
  2
0
 70
    64
 62
     7
  6
CONTINUOUS
  0
ENDTAB
  0
ENDSEC
  0
SECTION
  2
ENTITIES
  0
POLYLINE
  8
FOREGROUND
  6
CONTINUOUS
 66
     1
 40
0.000000
 41
0.000000
  0
VERTEX
  8
FOREGROUND
  6
CONTINUOUS
 10
0.000000
 20
6.054400
  0
VERTEX
  8
FOREGROUND
  6
CONTINUOUS
 10
8.499920
 20
6.054400
  0
VERTEX
  8
FOREGROUND
  6
CONTINUOUS
 10
8.499920
 20
-4.945600
  0
VERTEX
  8
FOREGROUND
  6
CONTINUOUS
 10
0.000000
 20
-4.945600
  0
VERTEX
  8
FOREGROUND
  6
CONTINUOUS
 10
0.000000
 20
6.054400
  0
SEQEND
  8
0
  0
POLYLINE
  8
FOREGROUND
  6
CONTINUOUS
 66
     1
 40
0.000000
 41
0.000000
  0
VERTEX
  8
FOREGROUND
  6
CONTINUOUS
 10
0.000000
 20
6.054400
  0
VERTEX
  8
FOREGROUND
  6
CONTINUOUS
 10
8.499920
 20
6.054400
  0
VERTEX
  8
FOREGROUND
  6
CONTINUOUS
 10
8.499920
 20
-4.945600
  0
VERTEX
  8
FOREGROUND
  6
CONTINUOUS
 10
0.000000
 20
-4.945600
  0
VERTEX
  8
FOREGROUND
  6
CONTINUOUS
 10
0.000000
 20
6.054400
  0
SEQEND
  8
0
  0
POLYLINE
  8
0
  6
CONTINUOUS
 66
     1
 40
0.014080
 41
0.014080
  0
VERTEX
  8
0
  6
CONTINUOUS
 10
2.997720
 20
5.544880
  0
VERTEX
  8
0
  6
CONTINUOUS
 10
3.007400
 20
5.544440
  0
VERTEX
  8
0
  6
CONTINUOUS
 10
3.023240
 20
5.539600
  0
VERTEX
  8
0
  6
CONTINUOUS
 10
3.042160
 20
5.528160
  0
VERTEX
  8
0
  6
CONTINUOUS
 10
3.083080
 20
5.492080
  0
VERTEX
  8
0
  6
CONTINUOUS
 10
3.134120
 20
5.447200
  0
VERTEX
  8
0
  6
CONTINUOUS
 10
3.165800
 20
5.423880
  0
VERTEX
  8
0
  6
CONTINUOUS
 10
3.216840
 20
5.395280
  0
VERTEX
  8
0
  6
CONTINUOUS
 10
3.262600
 20
5.377240
  0
VERTEX
  8
0
  6
CONTINUOUS
 10
3.306160
 20
5.365360
  0
VERTEX
  8
0
  6
CONTINUOUS
 10
3.424960
 20
5.341600
  0
VERTEX
  8
0
  6
CONTINUOUS
 10
3.478640
 20
5.326200
  0
VERTEX
  8
0
  6
CONTINUOUS
 10
3.504160
 20
5.314760
  0
VERTEX
  8
0
  6
CONTINUOUS
 10
3.530120
 20
5.297600
  0
VERTEX
  8
0
  6
CONTINUOUS
 10
3.553440
 20
5.274720
  0
VERTEX
  8
0
  6
CONTINUOUS
 10
3.580280
 20
5.239080
  0
VERTEX
  8
0
  6
CONTINUOUS
 10
3.623400
 20
5.170000
  0
VERTEX
  8
0
  6
CONTINUOUS
 10
3.627800
 20
5.162080
  0
VERTEX
  8
0
  6
CONTINUOUS
 10
3.641880
 20
5.162080
  0
VERTEX
  8
0
  6
CONTINUOUS
 10
3.648480
 20
5.180560
  0
VERTEX
  8
0
  6
CONTINUOUS
 10
3.660360
 20
5.201240
  0
VERTEX
  8
0
  6
CONTINUOUS
 10
3.675760
 20
5.218840
  0
VERTEX
  8
0
  6
CONTINUOUS
 10
3.698200
 20
5.235560
  0
VERTEX
  8
0
  6
CONTINUOUS
 10
3.723280
 20
5.247440
  0
VERTEX
  8
0
  6
CONTINUOUS
 10
3.745720
 20
5.252280
  0
VERTEX
  8
0
  6
CONTINUOUS
 10
3.763760
 20
5.253160
  0
VERTEX
  8
0
  6
CONTINUOUS
 10
3.786200
 20
5.249640
  0
VERTEX
  8
0
  6
CONTINUOUS
 10
3.803360
 20
5.243480
  0
VERTEX
  8
0
  6
CONTINUOUS
 10
3.823600
 20
5.230720
  0
VERTEX
  8
0
  6
CONTINUOUS
 10
3.838120
 20
5.216200
  0
VERTEX
  8
0
  6
CONTINUOUS
 10
3.856600
 20
5.187160
  0
VERTEX
  8
0
  6
CONTINUOUS
 10
3.868040
 20
5.155480
  0
VERTEX
  8
0
  6
CONTINUOUS
 10
3.918640
 20
5.143160
  0
VERTEX
  8
0
  6
CONTINUOUS
 10
3.936680
 20
5.135240
  0
VERTEX
  8
0
  6
CONTINUOUS
 10
3.949000
 20
5.124680
  0
VERTEX
  8
0
  6
CONTINUOUS
 10
3.958240
 20
5.109280
  0
VERTEX
  8
0
  6
CONTINUOUS
 10
3.964840
 20
5.089920
  0
VERTEX
  8
0
  6
CONTINUOUS
 10
3.974520
 20
5.074520
  0
VERTEX
  8
0
  6
CONTINUOUS
 10
3.988160
 20
5.063960
  0
VERTEX
  8
0
  6
CONTINUOUS
 10
4.007960
 20
5.055600
  0
VERTEX
  8
0
  6
CONTINUOUS
 10
4.027760
 20
5.052080
  0
VERTEX
  8
0
  6
CONTINUOUS
 10
4.053720
 20
5.050320
  0
VERTEX
  8
0
  6
CONTINUOUS
 10
4.958800
 20
5.051200
  0
VERTEX
  8
0
  6
CONTINUOUS
 10
4.975080
 20
4.930200
  0
VERTEX
  8
0
  6
CONTINUOUS
 10
4.992680
 20
4.930200
  0
VERTEX
  8
0
  6
CONTINUOUS
 10
5.002360
 20
4.953520
  0
VERTEX
  8
0
  6
CONTINUOUS
 10
5.014680
 20
4.973320
  0
VERTEX
  8
0
  6
CONTINUOUS
 10
5.033600
 20
4.994000
  0
VERTEX
  8
0
  6
CONTINUOUS
 10
5.055600
 20
5.009400
  0
VERTEX
  8
0
  6
CONTINUOUS
 10
5.079800
 20
5.019960
  0
VERTEX
  8
0
  6
CONTINUOUS
 10
5.099600
 20
5.024800
  0
VERTEX
  8
0
  6
CONTINUOUS
 10
5.120280
 20
5.026120
  0
VERTEX
  8
0
  6
CONTINUOUS
 10
5.145800
 20
5.023040
  0
VERTEX
  8
0
  6
CONTINUOUS
 10
5.170000
 20
5.014680
  0
VERTEX
  8
0
  6
CONTINUOUS
 10
5.196840
 20
4.997520
  0
VERTEX
  8
0
  6
CONTINUOUS
 10
5.215760
 20
4.976840
  0
VERTEX
  8
0
  6
CONTINUOUS
 10
5.228080
 20
4.956600
  0
VERTEX
  8
0
  6
CONTINUOUS
 10
5.237760
 20
4.932840
  0
VERTEX
  8
0
  6
CONTINUOUS
 10
5.243920
 20
4.905120
  0
VERTEX
  8
0
  6
CONTINUOUS
 10
5.276920
 20
4.899400
  0
VERTEX
  8
0
  6
CONTINUOUS
 10
5.295400
 20
4.892800
  0
VERTEX
  8
0
  6
CONTINUOUS
 10
5.311240
 20
4.883120
  0
VERTEX
  8
0
  6
CONTINUOUS
 10
5.328840
 20
4.865960
  0
VERTEX
  8
0
  6
CONTINUOUS
 10
5.366680
 20
4.817120
  0
VERTEX
  8
0
  6
CONTINUOUS
 10
5.380760
 20
4.806120
  0
VERTEX
  8
0
  6
CONTINUOUS
 10
5.398800
 20
4.799520
  0
VERTEX
  8
0
  6
CONTINUOUS
 10
5.434880
 20
4.796000
  0
VERTEX
  8
0
  6
CONTINUOUS
 10
6.410360
 20
4.796000
  0
VERTEX
  8
0
  6
CONTINUOUS
 10
6.429720
 20
4.888840
  0
VERTEX
  8
0
  6
CONTINUOUS
 10
6.668200
 20
4.888840
  0
VERTEX
  8
0
  6
CONTINUOUS
 10
6.677880
 20
4.817120
  0
VERTEX
  8
0
  6
CONTINUOUS
 10
6.713520
 20
4.813160
  0
VERTEX
  8
0
  6
CONTINUOUS
 10
6.743880
 20
4.805240
  0
VERTEX
  8
0
  6
CONTINUOUS
 10
6.766760
 20
4.796880
  0
VERTEX
  8
0
  6
CONTINUOUS
 10
6.799320
 20
4.779280
  0
VERTEX
  8
0
  6
CONTINUOUS
 10
6.831000
 20
4.755520
  0
VERTEX
  8
0
  6
CONTINUOUS
 10
6.878960
 20
4.715040
  0
VERTEX
  8
0
  6
CONTINUOUS
 10
6.930000
 20
4.673240
  0
VERTEX
  8
0
  6
CONTINUOUS
 10
6.948480
 20
4.665320
  0
VERTEX
  8
0
  6
CONTINUOUS
 10
6.969600
 20
4.662680
  0
VERTEX
  8
0
  6
CONTINUOUS
 10
7.099400
 20
4.660920
  0
VERTEX
  8
0
  6
CONTINUOUS
 10
7.099400
 20
4.500320
  0
VERTEX
  8
0
  6
CONTINUOUS
 10
2.517680
 20
4.500320
  0
VERTEX
  8
0
  6
CONTINUOUS
 10
2.517680
 20
5.544000
  0
VERTEX
  8
0
  6
CONTINUOUS
 10
2.997720
 20
5.544000
  0
VERTEX
  8
0
  6
CONTINUOUS
 10
2.997720
 20
5.544880
  0
SEQEND
  8
0
  0
TEXT
  8
0
 10
3.881680
 20
0.745800
 40
0.138150
  1
BA  780
 41
1.000000
  7
SN0
 71
     0
 72
     5
 11
4.471956
 21
0.745800
  0
TEXT
  8
0
 10
3.559600
 20
0.554400
 40
0.138150
  1
1-1/16" x 4-9/16"
 41
1.000000
  7
SN0
 71
     0
 72
     5
 11
4.792127
 21
0.554400
  0
SOLID
  8
0
 62
    15
 10
3.401200
 20
1.619200
 11
3.407360
 21
2.359280
 12
3.431120
 22
1.618320
 13
3.437280
 23
2.358400
  0
POLYLINE
  8
0
  6
CONTINUOUS
 66
     1
 40
0.000000
 41
0.000000
  0
VERTEX
  8
0
  6
CONTINUOUS
 10
3.401200
 20
1.619200
  0
VERTEX
  8
0
  6
CONTINUOUS
 10
3.407360
 20
2.359280
  0
VERTEX
  8
0
  6
CONTINUOUS
 10
3.437280
 20
2.358400
  0
VERTEX
  8
0
  6
CONTINUOUS
 10
3.431120
 20
1.618320
  0
VERTEX
  8
0
  6
CONTINUOUS
 10
3.401200
 20
1.619200
  0
SEQEND
  8
0
  0
SOLID
  8
0
 62
    15
 10
2.361040
 20
2.111120
 11
2.367200
 21
2.851200
 12
2.391840
 22
2.103640
 13
2.398000
 23
2.844160
  0
POLYLINE
  8
0
  6
CONTINUOUS
 66
     1
 40
0.000000
 41
0.000000
  0
VERTEX
  8
0
  6
CONTINUOUS
 10
2.361040
 20
2.111120
  0
VERTEX
  8
0
  6
CONTINUOUS
 10
2.367200
 20
2.851200
  0
VERTEX
  8
0
  6
CONTINUOUS
 10
2.398000
 20
2.844160
  0
VERTEX
  8
0
  6
CONTINUOUS
 10
2.391840
 20
2.103640
  0
VERTEX
  8
0
  6
CONTINUOUS
 10
2.361040
 20
2.111120
  0
SEQEND
  8
0
  0
SOLID
  8
0
 62
    15
 10
2.391840
 20
2.103640
 11
2.398000
 21
2.844160
 12
2.419560
 22
2.084280
 13
2.426160
 23
2.824800
  0
POLYLINE
  8
0
  6
CONTINUOUS
 66
     1
 40
0.000000
 41
0.000000
  0
VERTEX
  8
0
  6
CONTINUOUS
 10
2.391840
 20
2.103640
  0
VERTEX
  8
0
  6
CONTINUOUS
 10
2.398000
 20
2.844160
  0
VERTEX
  8
0
  6
CONTINUOUS
 10
2.426160
 20
2.824800
  0
VERTEX
  8
0
  6
CONTINUOUS
 10
2.419560
 20
2.084280
  0
VERTEX
  8
0
  6
CONTINUOUS
 10
2.391840
 20
2.103640
  0
SEQEND
  8
0
  0
SOLID
  8
0
 62
    15
 10
2.419560
 20
2.084280
 11
2.426160
 21
2.824800
 12
2.451240
 22
2.056120
 13
2.457400
 23
2.796640
  0
POLYLINE
  8
0
  6
CONTINUOUS
 66
     1
 40
0.000000
 41
0.000000
  0
VERTEX
  8
0
  6
CONTINUOUS
 10
2.419560
 20
2.084280
  0
VERTEX
  8
0
  6
CONTINUOUS
 10
2.426160
 20
2.824800
  0
VERTEX
  8
0
  6
CONTINUOUS
 10
2.457400
 20
2.796640
  0
VERTEX
  8
0
  6
CONTINUOUS
 10
2.451240
 20
2.056120
  0
VERTEX
  8
0
  6
CONTINUOUS
 10
2.419560
 20
2.084280
  0
SEQEND
  8
0
  0
SOLID
  8
0
 62
    15
 10
2.451240
 20
2.056120
 11
2.457400
 21
2.796640
 12
2.491720
 22
2.022680
 13
2.498320
 23
2.762760
  0
POLYLINE
  8
0
  6
CONTINUOUS
 66
     1
 40
0.000000
 41
0.000000
  0
VERTEX
  8
0
  6
CONTINUOUS
 10
2.451240
 20
2.056120
  0
VERTEX
  8
0
  6
CONTINUOUS
 10
2.457400
 20
2.796640
  0
VERTEX
  8
0
  6
CONTINUOUS
 10
2.498320
 20
2.762760
  0
VERTEX
  8
0
  6
CONTINUOUS
 10
2.491720
 20
2.022680
  0
VERTEX
  8
0
  6
CONTINUOUS
 10
2.451240
 20
2.056120
  0
SEQEND
  8
0
  0
SOLID
  8
0
 62
    15
 10
2.491720
 20
2.022680
 11
2.498320
 21
2.762760
 12
2.531320
 22
1.992760
 13
2.537480
 23
2.732840
  0
POLYLINE
  8
0
  6
CONTINUOUS
 66
     1
 40
0.000000
 41
0.000000
  0
VERTEX
  8
0
  6
CONTINUOUS
 10
2.491720
 20
2.022680
  0
VERTEX
  8
0
  6
CONTINUOUS
 10
2.498320
 20
2.762760
  0
VERTEX
  8
0
  6
CONTINUOUS
 10
2.537480
 20
2.732840
  0
VERTEX
  8
0
  6
CONTINUOUS
 10
2.531320
 20
1.992760
  0
VERTEX
  8
0
  6
CONTINUOUS
 10
2.491720
 20
2.022680
  0
SEQEND
  8
0
  0
SOLID
  8
0
 62
    15
 10
2.531320
 20
1.992760
 11
2.537480
 21
2.732840
 12
2.566960
 22
1.969880
 13
2.573120
 23
2.709960
  0
POLYLINE
  8
0
  6
CONTINUOUS
 66
     1
 40
0.000000
 41
0.000000
  0
VERTEX
  8
0
  6
CONTINUOUS
 10
2.531320
 20
1.992760
  0
VERTEX
  8
0
  6
CONTINUOUS
 10
2.537480
 20
2.732840
  0
VERTEX
  8
0
  6
CONTINUOUS
 10
2.573120
 20
2.709960
  0
VERTEX
  8
0
  6
CONTINUOUS
 10
2.566960
 20
1.969880
  0
VERTEX
  8
0
  6
CONTINUOUS
 10
2.531320
 20
1.992760
  0
SEQEND
  8
0
  0
SOLID
  8
0
 62
    15
 10
2.566960
 20
1.969880
 11
2.573120
 21
2.709960
 12
2.588960
 22
1.959320
 13
2.595120
 23
2.699840
  0
POLYLINE
  8
0
  6
CONTINUOUS
 66
     1
 40
0.000000
 41
0.000000
  0
VERTEX
  8
0
  6
CONTINUOUS
 10
2.566960
 20
1.969880
  0
VERTEX
  8
0
  6
CONTINUOUS
 10
2.573120
 20
2.709960
  0
VERTEX
  8
0
  6
CONTINUOUS
 10
2.595120
 20
2.699840
  0
VERTEX
  8
0
  6
CONTINUOUS
 10
2.588960
 20
1.959320
  0
VERTEX
  8
0
  6
CONTINUOUS
 10
2.566960
 20
1.969880
  0
SEQEND
  8
0
  0
SOLID
  8
0
 62
    15
 10
2.588960
 20
1.959320
 11
2.595120
 21
2.699840
 12
2.617560
 22
1.949200
 13
2.623720
 23
2.689720
  0
POLYLINE
  8
0
  6
CONTINUOUS
 66
     1
 40
0.000000
 41
0.000000
  0
VERTEX
  8
0
  6
CONTINUOUS
 10
2.588960
 20
1.959320
  0
VERTEX
  8
0
  6
CONTINUOUS
 10
2.595120
 20
2.699840
  0
VERTEX
  8
0
  6
CONTINUOUS
 10
2.623720
 20
2.689720
  0
VERTEX
  8
0
  6
CONTINUOUS
 10
2.617560
 20
1.949200
  0
VERTEX
  8
0
  6
CONTINUOUS
 10
2.588960
 20
1.959320
  0
SEQEND
  8
0
  0
SOLID
  8
0
 62
    15
 10
2.617560
 20
1.949200
 11
2.623720
 21
2.689720
 12
2.654080
 22
1.938640
 13
2.660680
 23
2.679160
  0
POLYLINE
  8
0
  6
CONTINUOUS
 66
     1
 40
0.000000
 41
0.000000
  0
VERTEX
  8
0
  6
CONTINUOUS
 10
2.617560
 20
1.949200
  0
VERTEX
  8
0
  6
CONTINUOUS
 10
2.623720
 20
2.689720
  0
VERTEX
  8
0
  6
CONTINUOUS
 10
2.660680
 20
2.679160
  0
VERTEX
  8
0
  6
CONTINUOUS
 10
2.654080
 20
1.938640
  0
VERTEX
  8
0
  6
CONTINUOUS
 10
2.617560
 20
1.949200
  0
SEQEND
  8
0
  0
SOLID
  8
0
 62
    15
 10
2.654080
 20
1.938640
 11
2.660680
 21
2.679160
 12
2.702040
 22
1.926760
 13
2.708200
 23
2.667280
  0
POLYLINE
  8
0
  6
CONTINUOUS
 66
     1
 40
0.000000
 41
0.000000
  0
VERTEX
  8
0
  6
CONTINUOUS
 10
2.654080
 20
1.938640
  0
VERTEX
  8
0
  6
CONTINUOUS
 10
2.660680
 20
2.679160
  0
VERTEX
  8
0
  6
CONTINUOUS
 10
2.708200
 20
2.667280
  0
VERTEX
  8
0
  6
CONTINUOUS
 10
2.702040
 20
1.926760
  0
VERTEX
  8
0
  6
CONTINUOUS
 10
2.654080
 20
1.938640
  0
SEQEND
  8
0
  0
SOLID
  8
0
 62
    15
 10
2.702040
 20
1.926760
 11
2.708200
 21
2.667280
 12
2.751760
 22
1.916640
 13
2.757920
 23
2.656720
  0
POLYLINE
  8
0
  6
CONTINUOUS
 66
     1
 40
0.000000
 41
0.000000
  0
VERTEX
  8
0
  6
CONTINUOUS
 10
2.702040
 20
1.926760
  0
VERTEX
  8
0
  6
CONTINUOUS
 10
2.708200
 20
2.667280
  0
VERTEX
  8
0
  6
CONTINUOUS
 10
2.757920
 20
2.656720
  0
VERTEX
  8
0
  6
CONTINUOUS
 10
2.751760
 20
1.916640
  0
VERTEX
  8
0
  6
CONTINUOUS
 10
2.702040
 20
1.926760
  0
SEQEND
  8
0
  0
SOLID
  8
0
 62
    15
 10
2.751760
 20
1.916640
 11
2.757920
 21
2.656720
 12
2.794440
 22
1.907840
 13
2.800600
 23
2.647920
  0
POLYLINE
  8
0
  6
CONTINUOUS
 66
     1
 40
0.000000
 41
0.000000
  0
VERTEX
  8
0
  6
CONTINUOUS
 10
2.751760
 20
1.916640
  0
VERTEX
  8
0
  6
CONTINUOUS
 10
2.757920
 20
2.656720
  0
VERTEX
  8
0
  6
CONTINUOUS
 10
2.800600
 20
2.647920
  0
VERTEX
  8
0
  6
CONTINUOUS
 10
2.794440
 20
1.907840
  0
VERTEX
  8
0
  6
CONTINUOUS
 10
2.751760
 20
1.916640
  0
SEQEND
  8
0
  0
SOLID
  8
0
 62
    15
 10
2.794440
 20
1.907840
 11
2.800600
 21
2.647920
 12
2.831400
 22
1.898160
 13
2.838000
 23
2.638240
  0
POLYLINE
  8
0
  6
CONTINUOUS
 66
     1
 40
0.000000
 41
0.000000
  0
VERTEX
  8
0
  6
CONTINUOUS
 10
2.794440
 20
1.907840
  0
VERTEX
  8
0
  6
CONTINUOUS
 10
2.800600
 20
2.647920
  0
VERTEX
  8
0
  6
CONTINUOUS
 10
2.838000
 20
2.638240
  0
VERTEX
  8
0
  6
CONTINUOUS
 10
2.831400
 20
1.898160
  0
VERTEX
  8
0
  6
CONTINUOUS
 10
2.794440
 20
1.907840
  0
SEQEND
  8
0
  0
SOLID
  8
0
 62
    15
 10
2.831400
 20
1.898160
 11
2.838000
 21
2.638240
 12
2.865280
 22
1.884080
 13
2.871440
 23
2.624600
  0
POLYLINE
  8
0
  6
CONTINUOUS
 66
     1
 40
0.000000
 41
0.000000
  0
VERTEX
  8
0
  6
CONTINUOUS
 10
2.831400
 20
1.898160
  0
VERTEX
  8
0
  6
CONTINUOUS
 10
2.838000
 20
2.638240
  0
VERTEX
  8
0
  6
CONTINUOUS
 10
2.871440
 20
2.624600
  0
VERTEX
  8
0
  6
CONTINUOUS
 10
2.865280
 20
1.884080
  0
VERTEX
  8
0
  6
CONTINUOUS
 10
2.831400
 20
1.898160
  0
SEQEND
  8
0
  0
SOLID
  8
0
 62
    15
 10
2.865280
 20
1.884080
 11
2.871440
 21
2.624600
 12
2.896080
 22
1.863400
 13
2.902680
 23
2.603480
  0
POLYLINE
  8
0
  6
CONTINUOUS
 66
     1
 40
0.000000
 41
0.000000
  0
VERTEX
  8
0
  6
CONTINUOUS
 10
2.865280
 20
1.884080
  0
VERTEX
  8
0
  6
CONTINUOUS
 10
2.871440
 20
2.624600
  0
VERTEX
  8
0
  6
CONTINUOUS
 10
2.902680
 20
2.603480
  0
VERTEX
  8
0
  6
CONTINUOUS
 10
2.896080
 20
1.863400
  0
VERTEX
  8
0
  6
CONTINUOUS
 10
2.865280
 20
1.884080
  0
SEQEND
  8
0
  0
SOLID
  8
0
 62
    15
 10
2.896080
 20
1.863400
 11
2.902680
 21
2.603480
 12
2.926880
 22
1.832600
 13
2.933040
 23
2.573120
  0
POLYLINE
  8
0
  6
CONTINUOUS
 66
     1
 40
0.000000
 41
0.000000
  0
VERTEX
  8
0
  6
CONTINUOUS
 10
2.896080
 20
1.863400
  0
VERTEX
  8
0
  6
CONTINUOUS
 10
2.902680
 20
2.603480
  0
VERTEX
  8
0
  6
CONTINUOUS
 10
2.933040
 20
2.573120
  0
VERTEX
  8
0
  6
CONTINUOUS
 10
2.926880
 20
1.832600
  0
VERTEX
  8
0
  6
CONTINUOUS
 10
2.896080
 20
1.863400
  0
SEQEND
  8
0
  0
SOLID
  8
0
 62
    15
 10
2.926880
 20
1.832600
 11
2.933040
 21
2.573120
 12
2.958120
 22
1.789040
 13
2.964280
 23
2.529560
  0
POLYLINE
  8
0
  6
CONTINUOUS
 66
     1
 40
0.000000
 41
0.000000
  0
VERTEX
  8
0
  6
CONTINUOUS
 10
2.926880
 20
1.832600
  0
VERTEX
  8
0
  6
CONTINUOUS
 10
2.933040
 20
2.573120
  0
VERTEX
  8
0
  6
CONTINUOUS
 10
2.964280
 20
2.529560
  0
VERTEX
  8
0
  6
CONTINUOUS
 10
2.958120
 20
1.789040
  0
VERTEX
  8
0
  6
CONTINUOUS
 10
2.926880
 20
1.832600
  0
SEQEND
  8
0
  0
SOLID
  8
0
 62
    15
 10
2.958120
 20
1.789040
 11
2.964280
 21
2.529560
 12
2.992000
 22
1.729640
 13
2.998160
 23
2.469720
  0
POLYLINE
  8
0
  6
CONTINUOUS
 66
     1
 40
0.000000
 41
0.000000
  0
VERTEX
  8
0
  6
CONTINUOUS
 10
2.958120
 20
1.789040
  0
VERTEX
  8
0
  6
CONTINUOUS
 10
2.964280
 20
2.529560
  0
VERTEX
  8
0
  6
CONTINUOUS
 10
2.998160
 20
2.469720
  0
VERTEX
  8
0
  6
CONTINUOUS
 10
2.992000
 20
1.729640
  0
VERTEX
  8
0
  6
CONTINUOUS
 10
2.958120
 20
1.789040
  0
SEQEND
  8
0
  0
SOLID
  8
0
 62
    15
 10
2.992000
 20
1.729640
 11
2.998160
 21
2.469720
 12
3.006520
 22
1.729640
 13
3.012680
 23
2.469720
  0
POLYLINE
  8
0
  6
CONTINUOUS
 66
     1
 40
0.000000
 41
0.000000
  0
VERTEX
  8
0
  6
CONTINUOUS
 10
2.992000
 20
1.729640
  0
VERTEX
  8
0
  6
CONTINUOUS
 10
2.998160
 20
2.469720
  0
VERTEX
  8
0
  6
CONTINUOUS
 10
3.012680
 20
2.469720
  0
VERTEX
  8
0
  6
CONTINUOUS
 10
3.006520
 20
1.729640
  0
VERTEX
  8
0
  6
CONTINUOUS
 10
2.992000
 20
1.729640
  0
SEQEND
  8
0
  0
SOLID
  8
0
 62
    15
 10
3.006520
 20
1.729640
 11
3.012680
 21
2.469720
 12
3.021040
 22
1.762200
 13
3.027200
 23
2.502280
  0
POLYLINE
  8
0
  6
CONTINUOUS
 66
     1
 40
0.000000
 41
0.000000
  0
VERTEX
  8
0
  6
CONTINUOUS
 10
3.006520
 20
1.729640
  0
VERTEX
  8
0
  6
CONTINUOUS
 10
3.012680
 20
2.469720
  0
VERTEX
  8
0
  6
CONTINUOUS
 10
3.027200
 20
2.502280
  0
VERTEX
  8
0
  6
CONTINUOUS
 10
3.021040
 20
1.762200
  0
VERTEX
  8
0
  6
CONTINUOUS
 10
3.006520
 20
1.729640
  0
SEQEND
  8
0
  0
SOLID
  8
0
 62
    15
 10
3.021040
 20
1.762200
 11
3.027200
 21
2.502280
 12
3.044800
 22
1.789480
 13
3.050960
 23
2.529560
  0
POLYLINE
  8
0
  6
CONTINUOUS
 66
     1
 40
0.000000
 41
0.000000
  0
VERTEX
  8
0
  6
CONTINUOUS
 10
3.021040
 20
1.762200
  0
VERTEX
  8
0
  6
CONTINUOUS
 10
3.027200
 20
2.502280
  0
VERTEX
  8
0
  6
CONTINUOUS
 10
3.050960
 20
2.529560
  0
VERTEX
  8
0
  6
CONTINUOUS
 10
3.044800
 20
1.789480
  0
VERTEX
  8
0
  6
CONTINUOUS
 10
3.021040
 20
1.762200
  0
SEQEND
  8
0
  0
SOLID
  8
0
 62
    15
 10
3.044800
 20
1.789480
 11
3.050960
 21
2.529560
 12
3.075160
 22
1.809280
 13
3.081320
 23
2.549360
  0
POLYLINE
  8
0
  6
CONTINUOUS
 66
     1
 40
0.000000
 41
0.000000
  0
VERTEX
  8
0
  6
CONTINUOUS
 10
3.044800
 20
1.789480
  0
VERTEX
  8
0
  6
CONTINUOUS
 10
3.050960
 20
2.529560
  0
VERTEX
  8
0
  6
CONTINUOUS
 10
3.081320
 20
2.549360
  0
VERTEX
  8
0
  6
CONTINUOUS
 10
3.075160
 20
1.809280
  0
VERTEX
  8
0
  6
CONTINUOUS
 10
3.044800
 20
1.789480
  0
SEQEND
  8
0
  0
SOLID
  8
0
 62
    15
 10
3.075160
 20
1.809280
 11
3.081320
 21
2.549360
 12
3.109480
 22
1.819400
 13
3.115640
 23
2.559920
  0
POLYLINE
  8
0
  6
CONTINUOUS
 66
     1
 40
0.000000
 41
0.000000
  0
VERTEX
  8
0
  6
CONTINUOUS
 10
3.075160
 20
1.809280
  0
VERTEX
  8
0
  6
CONTINUOUS
 10
3.081320
 20
2.549360
  0
VERTEX
  8
0
  6
CONTINUOUS
 10
3.115640
 20
2.559920
  0
VERTEX
  8
0
  6
CONTINUOUS
 10
3.109480
 20
1.819400
  0
VERTEX
  8
0
  6
CONTINUOUS
 10
3.075160
 20
1.809280
  0
SEQEND
  8
0
  0
SOLID
  8
0
 62
    15
 10
3.109480
 20
1.819400
 11
3.115640
 21
2.559920
 12
3.144680
 22
1.818520
 13
3.150840
 23
2.558600
  0
POLYLINE
  8
0
  6
CONTINUOUS
 66
     1
 40
0.000000
 41
0.000000
  0
VERTEX
  8
0
  6
CONTINUOUS
 10
3.109480
 20
1.819400
  0
VERTEX
  8
0
  6
CONTINUOUS
 10
3.115640
 20
2.559920
  0
VERTEX
  8
0
  6
CONTINUOUS
 10
3.150840
 20
2.558600
  0
VERTEX
  8
0
  6
CONTINUOUS
 10
3.144680
 20
1.818520
  0
VERTEX
  8
0
  6
CONTINUOUS
 10
3.109480
 20
1.819400
  0
SEQEND
  8
0
  0
SOLID
  8
0
 62
    15
 10
3.144680
 20
1.818520
 11
3.150840
 21
2.558600
 12
3.179000
 22
1.803120
 13
3.185160
 23
2.543640
  0
POLYLINE
  8
0
  6
CONTINUOUS
 66
     1
 40
0.000000
 41
0.000000
  0
VERTEX
  8
0
  6
CONTINUOUS
 10
3.144680
 20
1.818520
  0
VERTEX
  8
0
  6
CONTINUOUS
 10
3.150840
 20
2.558600
  0
VERTEX
  8
0
  6
CONTINUOUS
 10
3.185160
 20
2.543640
  0
VERTEX
  8
0
  6
CONTINUOUS
 10
3.179000
 20
1.803120
  0
VERTEX
  8
0
  6
CONTINUOUS
 10
3.144680
 20
1.818520
  0
SEQEND
  8
0
  0
SOLID
  8
0
 62
    15
 10
3.179000
 20
1.803120
 11
3.185160
 21
2.543640
 12
3.208920
 22
1.772320
 13
3.215080
 23
2.512840
  0
POLYLINE
  8
0
  6
CONTINUOUS
 66
     1
 40
0.000000
 41
0.000000
  0
VERTEX
  8
0
  6
CONTINUOUS
 10
3.179000
 20
1.803120
  0
VERTEX
  8
0
  6
CONTINUOUS
 10
3.185160
 20
2.543640
  0
VERTEX
  8
0
  6
CONTINUOUS
 10
3.215080
 20
2.512840
  0
VERTEX
  8
0
  6
CONTINUOUS
 10
3.208920
 20
1.772320
  0
VERTEX
  8
0
  6
CONTINUOUS
 10
3.179000
 20
1.803120
  0
SEQEND
  8
0
  0
SOLID
  8
0
 62
    15
 10
3.208920
 20
1.772320
 11
3.215080
 21
2.512840
 12
3.221680
 22
1.750320
 13
3.228280
 23
2.490840
  0
POLYLINE
  8
0
  6
CONTINUOUS
 66
     1
 40
0.000000
 41
0.000000
  0
VERTEX
  8
0
  6
CONTINUOUS
 10
3.208920
 20
1.772320
  0
VERTEX
  8
0
  6
CONTINUOUS
 10
3.215080
 20
2.512840
  0
VERTEX
  8
0
  6
CONTINUOUS
 10
3.228280
 20
2.490840
  0
VERTEX
  8
0
  6
CONTINUOUS
 10
3.221680
 20
1.750320
  0
VERTEX
  8
0
  6
CONTINUOUS
 10
3.208920
 20
1.772320
  0
SEQEND
  8
0
  0
SOLID
  8
0
 62
    15
 10
3.221680
 20
1.750320
 11
3.228280
 21
2.490840
 12
3.232680
 22
1.723480
 13
3.238840
 23
2.464000
  0
POLYLINE
  8
0
  6
CONTINUOUS
 66
     1
 40
0.000000
 41
0.000000
  0
VERTEX
  8
0
  6
CONTINUOUS
 10
3.221680
 20
1.750320
  0
VERTEX
  8
0
  6
CONTINUOUS
 10
3.228280
 20
2.490840
  0
VERTEX
  8
0
  6
CONTINUOUS
 10
3.238840
 20
2.464000
  0
VERTEX
  8
0
  6
CONTINUOUS
 10
3.232680
 20
1.723480
  0
VERTEX
  8
0
  6
CONTINUOUS
 10
3.221680
 20
1.750320
  0
SEQEND
  8
0
  0
SOLID
  8
0
 62
    15
 10
3.232680
 20
1.723480
 11
3.238840
 21
2.464000
 12
3.263920
 22
1.716440
 13
3.270080
 23
2.456960
  0
POLYLINE
  8
0
  6
CONTINUOUS
 66
     1
 40
0.000000
 41
0.000000
  0
VERTEX
  8
0
  6
CONTINUOUS
 10
3.232680
 20
1.723480
  0
VERTEX
  8
0
  6
CONTINUOUS
 10
3.238840
 20
2.464000
  0
VERTEX
  8
0
  6
CONTINUOUS
 10
3.270080
 20
2.456960
  0
VERTEX
  8
0
  6
CONTINUOUS
 10
3.263920
 20
1.716440
  0
VERTEX
  8
0
  6
CONTINUOUS
 10
3.232680
 20
1.723480
  0
SEQEND
  8
0
  0
SOLID
  8
0
 62
    15
 10
3.263920
 20
1.716440
 11
3.270080
 21
2.456960
 12
3.285920
 22
1.709400
 13
3.292080
 23
2.449480
  0
POLYLINE
  8
0
  6
CONTINUOUS
 66
     1
 40
0.000000
 41
0.000000
  0
VERTEX
  8
0
  6
CONTINUOUS
 10
3.263920
 20
1.716440
  0
VERTEX
  8
0
  6
CONTINUOUS
 10
3.270080
 20
2.456960
  0
VERTEX
  8
0
  6
CONTINUOUS
 10
3.292080
 20
2.449480
  0
VERTEX
  8
0
  6
CONTINUOUS
 10
3.285920
 20
1.709400
  0
VERTEX
  8
0
  6
CONTINUOUS
 10
3.263920
 20
1.716440
  0
SEQEND
  8
0
  0
SOLID
  8
0
 62
    15
 10
3.285920
 20
1.709400
 11
3.292080
 21
2.449480
 12
3.300880
 22
1.701920
 13
3.307040
 23
2.442440
  0
POLYLINE
  8
0
  6
CONTINUOUS
 66
     1
 40
0.000000
 41
0.000000
  0
VERTEX
  8
0
  6
CONTINUOUS
 10
3.285920
 20
1.709400
  0
VERTEX
  8
0
  6
CONTINUOUS
 10
3.292080
 20
2.449480
  0
VERTEX
  8
0
  6
CONTINUOUS
 10
3.307040
 20
2.442440
  0
VERTEX
  8
0
  6
CONTINUOUS
 10
3.300880
 20
1.701920
  0
VERTEX
  8
0
  6
CONTINUOUS
 10
3.285920
 20
1.709400
  0
SEQEND
  8
0
  0
SOLID
  8
0
 62
    15
 10
3.300880
 20
1.701920
 11
3.307040
 21
2.442440
 12
3.310560
 22
1.694440
 13
3.316720
 23
2.434960
  0
POLYLINE
  8
0
  6
CONTINUOUS
 66
     1
 40
0.000000
 41
0.000000
  0
VERTEX
  8
0
  6
CONTINUOUS
 10
3.300880
 20
1.701920
  0
VERTEX
  8
0
  6
CONTINUOUS
 10
3.307040
 20
2.442440
  0
VERTEX
  8
0
  6
CONTINUOUS
 10
3.316720
 20
2.434960
  0
VERTEX
  8
0
  6
CONTINUOUS
 10
3.310560
 20
1.694440
  0
VERTEX
  8
0
  6
CONTINUOUS
 10
3.300880
 20
1.701920
  0
SEQEND
  8
0
  0
SOLID
  8
0
 62
    15
 10
3.310560
 20
1.694440
 11
3.316720
 21
2.434960
 12
3.320240
 22
1.679480
 13
3.326400
 23
2.419560
  0
POLYLINE
  8
0
  6
CONTINUOUS
 66
     1
 40
0.000000
 41
0.000000
  0
VERTEX
  8
0
  6
CONTINUOUS
 10
3.310560
 20
1.694440
  0
VERTEX
  8
0
  6
CONTINUOUS
 10
3.316720
 20
2.434960
  0
VERTEX
  8
0
  6
CONTINUOUS
 10
3.326400
 20
2.419560
  0
VERTEX
  8
0
  6
CONTINUOUS
 10
3.320240
 20
1.679480
  0
VERTEX
  8
0
  6
CONTINUOUS
 10
3.310560
 20
1.694440
  0
SEQEND
  8
0
  0
SOLID
  8
0
 62
    15
 10
3.320240
 20
1.679480
 11
3.326400
 21
2.419560
 12
3.323320
 22
1.671560
 13
3.329480
 23
2.411640
  0
POLYLINE
  8
0
  6
CONTINUOUS
 66
     1
 40
0.000000
 41
0.000000
  0
VERTEX
  8
0
  6
CONTINUOUS
 10
3.320240
 20
1.679480
  0
VERTEX
  8
0
  6
CONTINUOUS
 10
3.326400
 20
2.419560
  0
VERTEX
  8
0
  6
CONTINUOUS
 10
3.329480
 20
2.411640
  0
VERTEX
  8
0
  6
CONTINUOUS
 10
3.323320
 20
1.671560
  0
VERTEX
  8
0
  6
CONTINUOUS
 10
3.320240
 20
1.679480
  0
SEQEND
  8
0
  0
SOLID
  8
0
 62
    15
 10
3.323320
 20
1.671560
 11
3.329480
 21
2.411640
 12
3.328160
 22
1.663200
 13
3.334320
 23
2.403280
  0
POLYLINE
  8
0
  6
CONTINUOUS
 66
     1
 40
0.000000
 41
0.000000
  0
VERTEX
  8
0
  6
CONTINUOUS
 10
3.323320
 20
1.671560
  0
VERTEX
  8
0
  6
CONTINUOUS
 10
3.329480
 20
2.411640
  0
VERTEX
  8
0
  6
CONTINUOUS
 10
3.334320
 20
2.403280
  0
VERTEX
  8
0
  6
CONTINUOUS
 10
3.328160
 20
1.663200
  0
VERTEX
  8
0
  6
CONTINUOUS
 10
3.323320
 20
1.671560
  0
SEQEND
  8
0
  0
SOLID
  8
0
 62
    15
 10
3.328160
 20
1.663200
 11
3.334320
 21
2.403280
 12
3.333000
 22
1.654840
 13
3.339160
 23
2.395360
  0
POLYLINE
  8
0
  6
CONTINUOUS
 66
     1
 40
0.000000
 41
0.000000
  0
VERTEX
  8
0
  6
CONTINUOUS
 10
3.328160
 20
1.663200
  0
VERTEX
  8
0
  6
CONTINUOUS
 10
3.334320
 20
2.403280
  0
VERTEX
  8
0
  6
CONTINUOUS
 10
3.339160
 20
2.395360
  0
VERTEX
  8
0
  6
CONTINUOUS
 10
3.333000
 20
1.654840
  0
VERTEX
  8
0
  6
CONTINUOUS
 10
3.328160
 20
1.663200
  0
SEQEND
  8
0
  0
SOLID
  8
0
 62
    15
 10
3.333000
 20
1.654840
 11
3.339160
 21
2.395360
 12
3.337840
 22
1.646480
 13
3.344000
 23
2.387000
  0
POLYLINE
  8
0
  6
CONTINUOUS
 66
     1
 40
0.000000
 41
0.000000
  0
VERTEX
  8
0
  6
CONTINUOUS
 10
3.333000
 20
1.654840
  0
VERTEX
  8
0
  6
CONTINUOUS
 10
3.339160
 20
2.395360
  0
VERTEX
  8
0
  6
CONTINUOUS
 10
3.344000
 20
2.387000
  0
VERTEX
  8
0
  6
CONTINUOUS
 10
3.337840
 20
1.646480
  0
VERTEX
  8
0
  6
CONTINUOUS
 10
3.333000
 20
1.654840
  0
SEQEND
  8
0
  0
SOLID
  8
0
 62
    15
 10
3.337840
 20
1.646480
 11
3.344000
 21
2.387000
 12
3.351040
 22
1.632400
 13
3.357200
 23
2.372480
  0
POLYLINE
  8
0
  6
CONTINUOUS
 66
     1
 40
0.000000
 41
0.000000
  0
VERTEX
  8
0
  6
CONTINUOUS
 10
3.337840
 20
1.646480
  0
VERTEX
  8
0
  6
CONTINUOUS
 10
3.344000
 20
2.387000
  0
VERTEX
  8
0
  6
CONTINUOUS
 10
3.357200
 20
2.372480
  0
VERTEX
  8
0
  6
CONTINUOUS
 10
3.351040
 20
1.632400
  0
VERTEX
  8
0
  6
CONTINUOUS
 10
3.337840
 20
1.646480
  0
SEQEND
  8
0
  0
SOLID
  8
0
 62
    15
 10
3.351040
 20
1.632400
 11
3.357200
 21
2.372480
 12
3.362040
 22
1.626240
 13
3.368640
 23
2.366760
  0
POLYLINE
  8
0
  6
CONTINUOUS
 66
     1
 40
0.000000
 41
0.000000
  0
VERTEX
  8
0
  6
CONTINUOUS
 10
3.351040
 20
1.632400
  0
VERTEX
  8
0
  6
CONTINUOUS
 10
3.357200
 20
2.372480
  0
VERTEX
  8
0
  6
CONTINUOUS
 10
3.368640
 20
2.366760
  0
VERTEX
  8
0
  6
CONTINUOUS
 10
3.362040
 20
1.626240
  0
VERTEX
  8
0
  6
CONTINUOUS
 10
3.351040
 20
1.632400
  0
SEQEND
  8
0
  0
SOLID
  8
0
 62
    15
 10
3.362040
 20
1.626240
 11
3.368640
 21
2.366760
 12
3.378320
 22
1.621840
 13
3.384480
 23
2.362360
  0
POLYLINE
  8
0
  6
CONTINUOUS
 66
     1
 40
0.000000
 41
0.000000
  0
VERTEX
  8
0
  6
CONTINUOUS
 10
3.362040
 20
1.626240
  0
VERTEX
  8
0
  6
CONTINUOUS
 10
3.368640
 20
2.366760
  0
VERTEX
  8
0
  6
CONTINUOUS
 10
3.384480
 20
2.362360
  0
VERTEX
  8
0
  6
CONTINUOUS
 10
3.378320
 20
1.621840
  0
VERTEX
  8
0
  6
CONTINUOUS
 10
3.362040
 20
1.626240
  0
SEQEND
  8
0
  0
SOLID
  8
0
 62
    15
 10
3.378320
 20
1.621840
 11
3.384480
 21
2.362360
 12
3.401200
 22
1.619200
 13
3.407360
 23
2.359280
  0
POLYLINE
  8
0
  6
CONTINUOUS
 66
     1
 40
0.000000
 41
0.000000
  0
VERTEX
  8
0
  6
CONTINUOUS
 10
3.378320
 20
1.621840
  0
VERTEX
  8
0
  6
CONTINUOUS
 10
3.384480
 20
2.362360
  0
VERTEX
  8
0
  6
CONTINUOUS
 10
3.407360
 20
2.359280
  0
VERTEX
  8
0
  6
CONTINUOUS
 10
3.401200
 20
1.619200
  0
VERTEX
  8
0
  6
CONTINUOUS
 10
3.378320
 20
1.621840
  0
SEQEND
  8
0
  0
SOLID
  8
0
 62
    15
 10
1.883640
 20
2.111120
 11
1.889800
 21
2.851200
 12
2.361040
 22
2.111120
 13
2.367200
 23
2.851200
  0
POLYLINE
  8
0
  6
CONTINUOUS
 66
     1
 40
0.000000
 41
0.000000
  0
VERTEX
  8
0
  6
CONTINUOUS
 10
1.883640
 20
2.111120
  0
VERTEX
  8
0
  6
CONTINUOUS
 10
1.889800
 20
2.851200
  0
VERTEX
  8
0
  6
CONTINUOUS
 10
2.367200
 20
2.851200
  0
VERTEX
  8
0
  6
CONTINUOUS
 10
2.361040
 20
2.111120
  0
VERTEX
  8
0
  6
CONTINUOUS
 10
1.883640
 20
2.111120
  0
SEQEND
  8
0
  0
SOLID
  8
0
 62
    15
 10
3.431120
 20
1.618320
 11
3.437280
 21
2.358400
 12
4.323440
 22
1.619200
 13
4.329600
 23
2.359720
  0
POLYLINE
  8
0
  6
CONTINUOUS
 66
     1
 40
0.000000
 41
0.000000
  0
VERTEX
  8
0
  6
CONTINUOUS
 10
3.431120
 20
1.618320
  0
VERTEX
  8
0
  6
CONTINUOUS
 10
3.437280
 20
2.358400
  0
VERTEX
  8
0
  6
CONTINUOUS
 10
4.329600
 20
2.359720
  0
VERTEX
  8
0
  6
CONTINUOUS
 10
4.323440
 20
1.619200
  0
VERTEX
  8
0
  6
CONTINUOUS
 10
3.431120
 20
1.618320
  0
SEQEND
  8
0
  0
SOLID
  8
0
 62
    15
 10
4.323440
 20
1.619200
 11
4.329600
 21
2.359720
 12
4.341480
 22
1.497760
 13
4.347640
 23
2.238280
  0
POLYLINE
  8
0
  6
CONTINUOUS
 66
     1
 40
0.000000
 41
0.000000
  0
VERTEX
  8
0
  6
CONTINUOUS
 10
4.323440
 20
1.619200
  0
VERTEX
  8
0
  6
CONTINUOUS
 10
4.329600
 20
2.359720
  0
VERTEX
  8
0
  6
CONTINUOUS
 10
4.347640
 20
2.238280
  0
VERTEX
  8
0
  6
CONTINUOUS
 10
4.341480
 20
1.497760
  0
VERTEX
  8
0
  6
CONTINUOUS
 10
4.323440
 20
1.619200
  0
SEQEND
  8
0
  0
SOLID
  8
0
 62
    15
 10
4.341480
 20
1.497760
 11
4.347640
 21
2.238280
 12
4.357320
 22
1.497760
 13
4.363480
 23
2.238280
  0
POLYLINE
  8
0
  6
CONTINUOUS
 66
     1
 40
0.000000
 41
0.000000
  0
VERTEX
  8
0
  6
CONTINUOUS
 10
4.341480
 20
1.497760
  0
VERTEX
  8
0
  6
CONTINUOUS
 10
4.347640
 20
2.238280
  0
VERTEX
  8
0
  6
CONTINUOUS
 10
4.363480
 20
2.238280
  0
VERTEX
  8
0
  6
CONTINUOUS
 10
4.357320
 20
1.497760
  0
VERTEX
  8
0
  6
CONTINUOUS
 10
4.341480
 20
1.497760
  0
SEQEND
  8
0
  0
SOLID
  8
0
 62
    15
 10
4.357320
 20
1.497760
 11
4.363480
 21
2.238280
 12
4.376240
 22
1.537800
 13
4.382400
 23
2.277880
  0
POLYLINE
  8
0
  6
CONTINUOUS
 66
     1
 40
0.000000
 41
0.000000
  0
VERTEX
  8
0
  6
CONTINUOUS
 10
4.357320
 20
1.497760
  0
VERTEX
  8
0
  6
CONTINUOUS
 10
4.363480
 20
2.238280
  0
VERTEX
  8
0
  6
CONTINUOUS
 10
4.382400
 20
2.277880
  0
VERTEX
  8
0
  6
CONTINUOUS
 10
4.376240
 20
1.537800
  0
VERTEX
  8
0
  6
CONTINUOUS
 10
4.357320
 20
1.497760
  0
SEQEND
  8
0
  0
SOLID
  8
0
 62
    15
 10
4.376240
 20
1.537800
 11
4.382400
 21
2.277880
 12
4.406160
 22
1.567720
 13
4.412320
 23
2.308240
  0
POLYLINE
  8
0
  6
CONTINUOUS
 66
     1
 40
0.000000
 41
0.000000
  0
VERTEX
  8
0
  6
CONTINUOUS
 10
4.376240
 20
1.537800
  0
VERTEX
  8
0
  6
CONTINUOUS
 10
4.382400
 20
2.277880
  0
VERTEX
  8
0
  6
CONTINUOUS
 10
4.412320
 20
2.308240
  0
VERTEX
  8
0
  6
CONTINUOUS
 10
4.406160
 20
1.567720
  0
VERTEX
  8
0
  6
CONTINUOUS
 10
4.376240
 20
1.537800
  0
SEQEND
  8
0
  0
SOLID
  8
0
 62
    15
 10
4.406160
 20
1.567720
 11
4.412320
 21
2.308240
 12
4.443120
 22
1.586640
 13
4.449280
 23
2.326720
  0
POLYLINE
  8
0
  6
CONTINUOUS
 66
     1
 40
0.000000
 41
0.000000
  0
VERTEX
  8
0
  6
CONTINUOUS
 10
4.406160
 20
1.567720
  0
VERTEX
  8
0
  6
CONTINUOUS
 10
4.412320
 20
2.308240
  0
VERTEX
  8
0
  6
CONTINUOUS
 10
4.449280
 20
2.326720
  0
VERTEX
  8
0
  6
CONTINUOUS
 10
4.443120
 20
1.586640
  0
VERTEX
  8
0
  6
CONTINUOUS
 10
4.406160
 20
1.567720
  0
SEQEND
  8
0
  0
SOLID
  8
0
 62
    15
 10
4.443120
 20
1.586640
 11
4.449280
 21
2.326720
 12
4.483600
 22
1.593240
 13
4.489760
 23
2.333320
  0
POLYLINE
  8
0
  6
CONTINUOUS
 66
     1
 40
0.000000
 41
0.000000
  0
VERTEX
  8
0
  6
CONTINUOUS
 10
4.443120
 20
1.586640
  0
VERTEX
  8
0
  6
CONTINUOUS
 10
4.449280
 20
2.326720
  0
VERTEX
  8
0
  6
CONTINUOUS
 10
4.489760
 20
2.333320
  0
VERTEX
  8
0
  6
CONTINUOUS
 10
4.483600
 20
1.593240
  0
VERTEX
  8
0
  6
CONTINUOUS
 10
4.443120
 20
1.586640
  0
SEQEND
  8
0
  0
SOLID
  8
0
 62
    15
 10
4.483600
 20
1.593240
 11
4.489760
 21
2.333320
 12
4.524080
 22
1.586200
 13
4.530240
 23
2.326280
  0
POLYLINE
  8
0
  6
CONTINUOUS
 66
     1
 40
0.000000
 41
0.000000
  0
VERTEX
  8
0
  6
CONTINUOUS
 10
4.483600
 20
1.593240
  0
VERTEX
  8
0
  6
CONTINUOUS
 10
4.489760
 20
2.333320
  0
VERTEX
  8
0
  6
CONTINUOUS
 10
4.530240
 20
2.326280
  0
VERTEX
  8
0
  6
CONTINUOUS
 10
4.524080
 20
1.586200
  0
VERTEX
  8
0
  6
CONTINUOUS
 10
4.483600
 20
1.593240
  0
SEQEND
  8
0
  0
SOLID
  8
0
 62
    15
 10
4.524080
 20
1.586200
 11
4.530240
 21
2.326280
 12
4.560600
 22
1.564640
 13
4.566760
 23
2.304720
  0
POLYLINE
  8
0
  6
CONTINUOUS
 66
     1
 40
0.000000
 41
0.000000
  0
VERTEX
  8
0
  6
CONTINUOUS
 10
4.524080
 20
1.586200
  0
VERTEX
  8
0
  6
CONTINUOUS
 10
4.530240
 20
2.326280
  0
VERTEX
  8
0
  6
CONTINUOUS
 10
4.566760
 20
2.304720
  0
VERTEX
  8
0
  6
CONTINUOUS
 10
4.560600
 20
1.564640
  0
VERTEX
  8
0
  6
CONTINUOUS
 10
4.524080
 20
1.586200
  0
SEQEND
  8
0
  0
SOLID
  8
0
 62
    15
 10
4.560600
 20
1.564640
 11
4.566760
 21
2.304720
 12
4.590080
 22
1.527240
 13
4.596240
 23
2.267760
  0
POLYLINE
  8
0
  6
CONTINUOUS
 66
     1
 40
0.000000
 41
0.000000
  0
VERTEX
  8
0
  6
CONTINUOUS
 10
4.560600
 20
1.564640
  0
VERTEX
  8
0
  6
CONTINUOUS
 10
4.566760
 20
2.304720
  0
VERTEX
  8
0
  6
CONTINUOUS
 10
4.596240
 20
2.267760
  0
VERTEX
  8
0
  6
CONTINUOUS
 10
4.590080
 20
1.527240
  0
VERTEX
  8
0
  6
CONTINUOUS
 10
4.560600
 20
1.564640
  0
SEQEND
  8
0
  0
SOLID
  8
0
 62
    15
 10
4.590080
 20
1.527240
 11
4.596240
 21
2.267760
 12
4.601080
 22
1.502600
 13
4.607240
 23
2.242680
  0
POLYLINE
  8
0
  6
CONTINUOUS
 66
     1
 40
0.000000
 41
0.000000
  0
VERTEX
  8
0
  6
CONTINUOUS
 10
4.590080
 20
1.527240
  0
VERTEX
  8
0
  6
CONTINUOUS
 10
4.596240
 20
2.267760
  0
VERTEX
  8
0
  6
CONTINUOUS
 10
4.607240
 20
2.242680
  0
VERTEX
  8
0
  6
CONTINUOUS
 10
4.601080
 20
1.502600
  0
VERTEX
  8
0
  6
CONTINUOUS
 10
4.590080
 20
1.527240
  0
SEQEND
  8
0
  0
SOLID
  8
0
 62
    15
 10
4.601080
 20
1.502600
 11
4.607240
 21
2.242680
 12
4.609000
 22
1.473120
 13
4.615160
 23
2.213640
  0
POLYLINE
  8
0
  6
CONTINUOUS
 66
     1
 40
0.000000
 41
0.000000
  0
VERTEX
  8
0
  6
CONTINUOUS
 10
4.601080
 20
1.502600
  0
VERTEX
  8
0
  6
CONTINUOUS
 10
4.607240
 20
2.242680
  0
VERTEX
  8
0
  6
CONTINUOUS
 10
4.615160
 20
2.213640
  0
VERTEX
  8
0
  6
CONTINUOUS
 10
4.609000
 20
1.473120
  0
VERTEX
  8
0
  6
CONTINUOUS
 10
4.601080
 20
1.502600
  0
SEQEND
  8
0
  0
SOLID
  8
0
 62
    15
 10
4.609000
 20
1.473120
 11
4.615160
 21
2.213640
 12
4.632320
 22
1.469600
 13
4.638920
 23
2.210120
  0
POLYLINE
  8
0
  6
CONTINUOUS
 66
     1
 40
0.000000
 41
0.000000
  0
VERTEX
  8
0
  6
CONTINUOUS
 10
4.609000
 20
1.473120
  0
VERTEX
  8
0
  6
CONTINUOUS
 10
4.615160
 20
2.213640
  0
VERTEX
  8
0
  6
CONTINUOUS
 10
4.638920
 20
2.210120
  0
VERTEX
  8
0
  6
CONTINUOUS
 10
4.632320
 20
1.469600
  0
VERTEX
  8
0
  6
CONTINUOUS
 10
4.609000
 20
1.473120
  0
SEQEND
  8
0
  0
SOLID
  8
0
 62
    15
 10
4.632320
 20
1.469600
 11
4.638920
 21
2.210120
 12
4.651680
 22
1.463440
 13
4.657840
 23
2.203960
  0
POLYLINE
  8
0
  6
CONTINUOUS
 66
     1
 40
0.000000
 41
0.000000
  0
VERTEX
  8
0
  6
CONTINUOUS
 10
4.632320
 20
1.469600
  0
VERTEX
  8
0
  6
CONTINUOUS
 10
4.638920
 20
2.210120
  0
VERTEX
  8
0
  6
CONTINUOUS
 10
4.657840
 20
2.203960
  0
VERTEX
  8
0
  6
CONTINUOUS
 10
4.651680
 20
1.463440
  0
VERTEX
  8
0
  6
CONTINUOUS
 10
4.632320
 20
1.469600
  0
SEQEND
  8
0
  0
SOLID
  8
0
 62
    15
 10
4.651680
 20
1.463440
 11
4.657840
 21
2.203960
 12
4.679400
 22
1.447160
 13
4.685560
 23
2.187680
  0
POLYLINE
  8
0
  6
CONTINUOUS
 66
     1
 40
0.000000
 41
0.000000
  0
VERTEX
  8
0
  6
CONTINUOUS
 10
4.651680
 20
1.463440
  0
VERTEX
  8
0
  6
CONTINUOUS
 10
4.657840
 20
2.203960
  0
VERTEX
  8
0
  6
CONTINUOUS
 10
4.685560
 20
2.187680
  0
VERTEX
  8
0
  6
CONTINUOUS
 10
4.679400
 20
1.447160
  0
VERTEX
  8
0
  6
CONTINUOUS
 10
4.651680
 20
1.463440
  0
SEQEND
  8
0
  0
SOLID
  8
0
 62
    15
 10
4.679400
 20
1.447160
 11
4.685560
 21
2.187680
 12
4.697000
 22
1.429120
 13
4.703160
 23
2.169200
  0
POLYLINE
  8
0
  6
CONTINUOUS
 66
     1
 40
0.000000
 41
0.000000
  0
VERTEX
  8
0
  6
CONTINUOUS
 10
4.679400
 20
1.447160
  0
VERTEX
  8
0
  6
CONTINUOUS
 10
4.685560
 20
2.187680
  0
VERTEX
  8
0
  6
CONTINUOUS
 10
4.703160
 20
2.169200
  0
VERTEX
  8
0
  6
CONTINUOUS
 10
4.697000
 20
1.429120
  0
VERTEX
  8
0
  6
CONTINUOUS
 10
4.679400
 20
1.447160
  0
SEQEND
  8
0
  0
SOLID
  8
0
 62
    15
 10
4.697000
 20
1.429120
 11
4.703160
 21
2.169200
 12
4.703160
 22
1.420760
 13
4.709320
 23
2.161280
  0
POLYLINE
  8
0
  6
CONTINUOUS
 66
     1
 40
0.000000
 41
0.000000
  0
VERTEX
  8
0
  6
CONTINUOUS
 10
4.697000
 20
1.429120
  0
VERTEX
  8
0
  6
CONTINUOUS
 10
4.703160
 20
2.169200
  0
VERTEX
  8
0
  6
CONTINUOUS
 10
4.709320
 20
2.161280
  0
VERTEX
  8
0
  6
CONTINUOUS
 10
4.703160
 20
1.420760
  0
VERTEX
  8
0
  6
CONTINUOUS
 10
4.697000
 20
1.429120
  0
SEQEND
  8
0
  0
SOLID
  8
0
 62
    15
 10
4.703160
 20
1.420760
 11
4.709320
 21
2.161280
 12
4.708440
 22
1.414160
 13
4.714600
 23
2.154680
  0
POLYLINE
  8
0
  6
CONTINUOUS
 66
     1
 40
0.000000
 41
0.000000
  0
VERTEX
  8
0
  6
CONTINUOUS
 10
4.703160
 20
1.420760
  0
VERTEX
  8
0
  6
CONTINUOUS
 10
4.709320
 20
2.161280
  0
VERTEX
  8
0
  6
CONTINUOUS
 10
4.714600
 20
2.154680
  0
VERTEX
  8
0
  6
CONTINUOUS
 10
4.708440
 20
1.414160
  0
VERTEX
  8
0
  6
CONTINUOUS
 10
4.703160
 20
1.420760
  0
SEQEND
  8
0
  0
SOLID
  8
0
 62
    15
 10
4.708440
 20
1.414160
 11
4.714600
 21
2.154680
 12
4.713280
 22
1.407560
 13
4.719440
 23
2.148080
  0
POLYLINE
  8
0
  6
CONTINUOUS
 66
     1
 40
0.000000
 41
0.000000
  0
VERTEX
  8
0
  6
CONTINUOUS
 10
4.708440
 20
1.414160
  0
VERTEX
  8
0
  6
CONTINUOUS
 10
4.714600
 20
2.154680
  0
VERTEX
  8
0
  6
CONTINUOUS
 10
4.719440
 20
2.148080
  0
VERTEX
  8
0
  6
CONTINUOUS
 10
4.713280
 20
1.407560
  0
VERTEX
  8
0
  6
CONTINUOUS
 10
4.708440
 20
1.414160
  0
SEQEND
  8
0
  0
SOLID
  8
0
 62
    15
 10
4.713280
 20
1.407560
 11
4.719440
 21
2.148080
 12
4.715920
 22
1.404040
 13
4.722080
 23
2.144120
  0
POLYLINE
  8
0
  6
CONTINUOUS
 66
     1
 40
0.000000
 41
0.000000
  0
VERTEX
  8
0
  6
CONTINUOUS
 10
4.713280
 20
1.407560
  0
VERTEX
  8
0
  6
CONTINUOUS
 10
4.719440
 20
2.148080
  0
VERTEX
  8
0
  6
CONTINUOUS
 10
4.722080
 20
2.144120
  0
VERTEX
  8
0
  6
CONTINUOUS
 10
4.715920
 20
1.404040
  0
VERTEX
  8
0
  6
CONTINUOUS
 10
4.713280
 20
1.407560
  0
SEQEND
  8
0
  0
SOLID
  8
0
 62
    15
 10
4.715920
 20
1.404040
 11
4.722080
 21
2.144120
 12
4.719000
 22
1.399640
 13
4.725160
 23
2.140160
  0
POLYLINE
  8
0
  6
CONTINUOUS
 66
     1
 40
0.000000
 41
0.000000
  0
VERTEX
  8
0
  6
CONTINUOUS
 10
4.715920
 20
1.404040
  0
VERTEX
  8
0
  6
CONTINUOUS
 10
4.722080
 20
2.144120
  0
VERTEX
  8
0
  6
CONTINUOUS
 10
4.725160
 20
2.140160
  0
VERTEX
  8
0
  6
CONTINUOUS
 10
4.719000
 20
1.399640
  0
VERTEX
  8
0
  6
CONTINUOUS
 10
4.715920
 20
1.404040
  0
SEQEND
  8
0
  0
SOLID
  8
0
 62
    15
 10
4.719000
 20
1.399640
 11
4.725160
 21
2.140160
 12
4.735280
 22
1.382040
 13
4.741440
 23
2.122560
  0
POLYLINE
  8
0
  6
CONTINUOUS
 66
     1
 40
0.000000
 41
0.000000
  0
VERTEX
  8
0
  6
CONTINUOUS
 10
4.719000
 20
1.399640
  0
VERTEX
  8
0
  6
CONTINUOUS
 10
4.725160
 20
2.140160
  0
VERTEX
  8
0
  6
CONTINUOUS
 10
4.741440
 20
2.122560
  0
VERTEX
  8
0
  6
CONTINUOUS
 10
4.735280
 20
1.382040
  0
VERTEX
  8
0
  6
CONTINUOUS
 10
4.719000
 20
1.399640
  0
SEQEND
  8
0
  0
SOLID
  8
0
 62
    15
 10
4.735280
 20
1.382040
 11
4.741440
 21
2.122560
 12
4.764320
 22
1.367960
 13
4.770480
 23
2.108480
  0
POLYLINE
  8
0
  6
CONTINUOUS
 66
     1
 40
0.000000
 41
0.000000
  0
VERTEX
  8
0
  6
CONTINUOUS
 10
4.735280
 20
1.382040
  0
VERTEX
  8
0
  6
CONTINUOUS
 10
4.741440
 20
2.122560
  0
VERTEX
  8
0
  6
CONTINUOUS
 10
4.770480
 20
2.108480
  0
VERTEX
  8
0
  6
CONTINUOUS
 10
4.764320
 20
1.367960
  0
VERTEX
  8
0
  6
CONTINUOUS
 10
4.735280
 20
1.382040
  0
SEQEND
  8
0
  0
SOLID
  8
0
 62
    15
 10
4.764320
 20
1.367960
 11
4.770480
 21
2.108480
 12
4.785000
 22
1.364440
 13
4.791160
 23
2.104520
  0
POLYLINE
  8
0
  6
CONTINUOUS
 66
     1
 40
0.000000
 41
0.000000
  0
VERTEX
  8
0
  6
CONTINUOUS
 10
4.764320
 20
1.367960
  0
VERTEX
  8
0
  6
CONTINUOUS
 10
4.770480
 20
2.108480
  0
VERTEX
  8
0
  6
CONTINUOUS
 10
4.791160
 20
2.104520
  0
VERTEX
  8
0
  6
CONTINUOUS
 10
4.785000
 20
1.364440
  0
VERTEX
  8
0
  6
CONTINUOUS
 10
4.764320
 20
1.367960
  0
SEQEND
  8
0
  0
SOLID
  8
0
 62
    15
 10
4.785000
 20
1.364440
 11
4.791160
 21
2.104520
 12
4.811400
 22
1.364000
 13
4.817560
 23
2.104080
  0
POLYLINE
  8
0
  6
CONTINUOUS
 66
     1
 40
0.000000
 41
0.000000
  0
VERTEX
  8
0
  6
CONTINUOUS
 10
4.785000
 20
1.364440
  0
VERTEX
  8
0
  6
CONTINUOUS
 10
4.791160
 20
2.104520
  0
VERTEX
  8
0
  6
CONTINUOUS
 10
4.817560
 20
2.104080
  0
VERTEX
  8
0
  6
CONTINUOUS
 10
4.811400
 20
1.364000
  0
VERTEX
  8
0
  6
CONTINUOUS
 10
4.785000
 20
1.364440
  0
SEQEND
  8
0
  0
SOLID
  8
0
 62
    15
 10
4.811400
 20
1.364000
 11
4.817560
 21
2.104080
 12
5.774560
 22
1.364000
 13
5.780720
 23
2.104080
  0
POLYLINE
  8
0
  6
CONTINUOUS
 66
     1
 40
0.000000
 41
0.000000
  0
VERTEX
  8
0
  6
CONTINUOUS
 10
4.811400
 20
1.364000
  0
VERTEX
  8
0
  6
CONTINUOUS
 10
4.817560
 20
2.104080
  0
VERTEX
  8
0
  6
CONTINUOUS
 10
5.780720
 20
2.104080
  0
VERTEX
  8
0
  6
CONTINUOUS
 10
5.774560
 20
1.364000
  0
VERTEX
  8
0
  6
CONTINUOUS
 10
4.811400
 20
1.364000
  0
SEQEND
  8
0
  0
SOLID
  8
0
 62
    15
 10
5.774560
 20
1.364000
 11
5.780720
 21
2.104080
 12
5.793920
 22
1.456400
 13
5.800080
 23
2.196920
  0
POLYLINE
  8
0
  6
CONTINUOUS
 66
     1
 40
0.000000
 41
0.000000
  0
VERTEX
  8
0
  6
CONTINUOUS
 10
5.774560
 20
1.364000
  0
VERTEX
  8
0
  6
CONTINUOUS
 10
5.780720
 20
2.104080
  0
VERTEX
  8
0
  6
CONTINUOUS
 10
5.800080
 20
2.196920
  0
VERTEX
  8
0
  6
CONTINUOUS
 10
5.793920
 20
1.456400
  0
VERTEX
  8
0
  6
CONTINUOUS
 10
5.774560
 20
1.364000
  0
SEQEND
  8
0
  0
SOLID
  8
0
 62
    15
 10
6.042960
 20
1.384680
 11
6.049120
 21
2.125200
 12
6.078600
 22
1.378960
 13
6.084760
 23
2.119040
  0
POLYLINE
  8
0
  6
CONTINUOUS
 66
     1
 40
0.000000
 41
0.000000
  0
VERTEX
  8
0
  6
CONTINUOUS
 10
6.042960
 20
1.384680
  0
VERTEX
  8
0
  6
CONTINUOUS
 10
6.049120
 20
2.125200
  0
VERTEX
  8
0
  6
CONTINUOUS
 10
6.084760
 20
2.119040
  0
VERTEX
  8
0
  6
CONTINUOUS
 10
6.078600
 20
1.378960
  0
VERTEX
  8
0
  6
CONTINUOUS
 10
6.042960
 20
1.384680
  0
SEQEND
  8
0
  0
SOLID
  8
0
 62
    15
 10
6.032400
 20
1.456400
 11
6.038560
 21
2.196920
 12
6.042960
 22
1.384680
 13
6.049120
 23
2.125200
  0
POLYLINE
  8
0
  6
CONTINUOUS
 66
     1
 40
0.000000
 41
0.000000
  0
VERTEX
  8
0
  6
CONTINUOUS
 10
6.032400
 20
1.456400
  0
VERTEX
  8
0
  6
CONTINUOUS
 10
6.038560
 20
2.196920
  0
VERTEX
  8
0
  6
CONTINUOUS
 10
6.049120
 20
2.125200
  0
VERTEX
  8
0
  6
CONTINUOUS
 10
6.042960
 20
1.384680
  0
VERTEX
  8
0
  6
CONTINUOUS
 10
6.032400
 20
1.456400
  0
SEQEND
  8
0
  0
SOLID
  8
0
 62
    15
 10
5.793920
 20
1.456400
 11
5.800080
 21
2.196920
 12
6.032400
 22
1.456400
 13
6.038560
 23
2.196920
  0
POLYLINE
  8
0
  6
CONTINUOUS
 66
     1
 40
0.000000
 41
0.000000
  0
VERTEX
  8
0
  6
CONTINUOUS
 10
5.793920
 20
1.456400
  0
VERTEX
  8
0
  6
CONTINUOUS
 10
5.800080
 20
2.196920
  0
VERTEX
  8
0
  6
CONTINUOUS
 10
6.038560
 20
2.196920
  0
VERTEX
  8
0
  6
CONTINUOUS
 10
6.032400
 20
1.456400
  0
VERTEX
  8
0
  6
CONTINUOUS
 10
5.793920
 20
1.456400
  0
SEQEND
  8
0
  0
SOLID
  8
0
 62
    15
 10
6.078600
 20
1.378960
 11
6.084760
 21
2.119040
 12
6.106760
 22
1.372800
 13
6.112920
 23
2.112880
  0
POLYLINE
  8
0
  6
CONTINUOUS
 66
     1
 40
0.000000
 41
0.000000
  0
VERTEX
  8
0
  6
CONTINUOUS
 10
6.078600
 20
1.378960
  0
VERTEX
  8
0
  6
CONTINUOUS
 10
6.084760
 20
2.119040
  0
VERTEX
  8
0
  6
CONTINUOUS
 10
6.112920
 20
2.112880
  0
VERTEX
  8
0
  6
CONTINUOUS
 10
6.106760
 20
1.372800
  0
VERTEX
  8
0
  6
CONTINUOUS
 10
6.078600
 20
1.378960
  0
SEQEND
  8
0
  0
SOLID
  8
0
 62
    15
 10
6.106760
 20
1.372800
 11
6.112920
 21
2.112880
 12
6.147240
 22
1.357400
 13
6.153840
 23
2.097480
  0
POLYLINE
  8
0
  6
CONTINUOUS
 66
     1
 40
0.000000
 41
0.000000
  0
VERTEX
  8
0
  6
CONTINUOUS
 10
6.106760
 20
1.372800
  0
VERTEX
  8
0
  6
CONTINUOUS
 10
6.112920
 20
2.112880
  0
VERTEX
  8
0
  6
CONTINUOUS
 10
6.153840
 20
2.097480
  0
VERTEX
  8
0
  6
CONTINUOUS
 10
6.147240
 20
1.357400
  0
VERTEX
  8
0
  6
CONTINUOUS
 10
6.106760
 20
1.372800
  0
SEQEND
  8
0
  0
SOLID
  8
0
 62
    15
 10
6.147240
 20
1.357400
 11
6.153840
 21
2.097480
 12
6.181120
 22
1.334520
 13
6.187280
 23
2.075040
  0
POLYLINE
  8
0
  6
CONTINUOUS
 66
     1
 40
0.000000
 41
0.000000
  0
VERTEX
  8
0
  6
CONTINUOUS
 10
6.147240
 20
1.357400
  0
VERTEX
  8
0
  6
CONTINUOUS
 10
6.153840
 20
2.097480
  0
VERTEX
  8
0
  6
CONTINUOUS
 10
6.187280
 20
2.075040
  0
VERTEX
  8
0
  6
CONTINUOUS
 10
6.181120
 20
1.334520
  0
VERTEX
  8
0
  6
CONTINUOUS
 10
6.147240
 20
1.357400
  0
SEQEND
  8
0
  0
SOLID
  8
0
 62
    15
 10
6.181120
 20
1.334520
 11
6.187280
 21
2.075040
 12
6.223800
 22
1.299760
 13
6.230400
 23
2.040280
  0
POLYLINE
  8
0
  6
CONTINUOUS
 66
     1
 40
0.000000
 41
0.000000
  0
VERTEX
  8
0
  6
CONTINUOUS
 10
6.181120
 20
1.334520
  0
VERTEX
  8
0
  6
CONTINUOUS
 10
6.187280
 20
2.075040
  0
VERTEX
  8
0
  6
CONTINUOUS
 10
6.230400
 20
2.040280
  0
VERTEX
  8
0
  6
CONTINUOUS
 10
6.223800
 20
1.299760
  0
VERTEX
  8
0
  6
CONTINUOUS
 10
6.181120
 20
1.334520
  0
SEQEND
  8
0
  0
SOLID
  8
0
 62
    15
 10
6.223800
 20
1.299760
 11
6.230400
 21
2.040280
 12
6.246680
 22
1.280840
 13
6.253280
 23
2.021360
  0
POLYLINE
  8
0
  6
CONTINUOUS
 66
     1
 40
0.000000
 41
0.000000
  0
VERTEX
  8
0
  6
CONTINUOUS
 10
6.223800
 20
1.299760
  0
VERTEX
  8
0
  6
CONTINUOUS
 10
6.230400
 20
2.040280
  0
VERTEX
  8
0
  6
CONTINUOUS
 10
6.253280
 20
2.021360
  0
VERTEX
  8
0
  6
CONTINUOUS
 10
6.246680
 20
1.280840
  0
VERTEX
  8
0
  6
CONTINUOUS
 10
6.223800
 20
1.299760
  0
SEQEND
  8
0
  0
SOLID
  8
0
 62
    15
 10
6.246680
 20
1.280840
 11
6.253280
 21
2.021360
 12
6.264280
 22
1.265440
 13
6.270440
 23
2.005520
  0
POLYLINE
  8
0
  6
CONTINUOUS
 66
     1
 40
0.000000
 41
0.000000
  0
VERTEX
  8
0
  6
CONTINUOUS
 10
6.246680
 20
1.280840
  0
VERTEX
  8
0
  6
CONTINUOUS
 10
6.253280
 20
2.021360
  0
VERTEX
  8
0
  6
CONTINUOUS
 10
6.270440
 20
2.005520
  0
VERTEX
  8
0
  6
CONTINUOUS
 10
6.264280
 20
1.265440
  0
VERTEX
  8
0
  6
CONTINUOUS
 10
6.246680
 20
1.280840
  0
SEQEND
  8
0
  0
SOLID
  8
0
 62
    15
 10
6.264280
 20
1.265440
 11
6.270440
 21
2.005520
 12
6.291120
 22
1.243880
 13
6.297720
 23
1.983960
  0
POLYLINE
  8
0
  6
CONTINUOUS
 66
     1
 40
0.000000
 41
0.000000
  0
VERTEX
  8
0
  6
CONTINUOUS
 10
6.264280
 20
1.265440
  0
VERTEX
  8
0
  6
CONTINUOUS
 10
6.270440
 20
2.005520
  0
VERTEX
  8
0
  6
CONTINUOUS
 10
6.297720
 20
1.983960
  0
VERTEX
  8
0
  6
CONTINUOUS
 10
6.291120
 20
1.243880
  0
VERTEX
  8
0
  6
CONTINUOUS
 10
6.264280
 20
1.265440
  0
SEQEND
  8
0
  0
SOLID
  8
0
 62
    15
 10
6.291120
 20
1.243880
 11
6.297720
 21
1.983960
 12
6.324560
 22
1.232880
 13
6.331160
 23
1.972960
  0
POLYLINE
  8
0
  6
CONTINUOUS
 66
     1
 40
0.000000
 41
0.000000
  0
VERTEX
  8
0
  6
CONTINUOUS
 10
6.291120
 20
1.243880
  0
VERTEX
  8
0
  6
CONTINUOUS
 10
6.297720
 20
1.983960
  0
VERTEX
  8
0
  6
CONTINUOUS
 10
6.331160
 20
1.972960
  0
VERTEX
  8
0
  6
CONTINUOUS
 10
6.324560
 20
1.232880
  0
VERTEX
  8
0
  6
CONTINUOUS
 10
6.291120
 20
1.243880
  0
SEQEND
  8
0
  0
SOLID
  8
0
 62
    15
 10
6.324560
 20
1.232880
 11
6.331160
 21
1.972960
 12
6.349640
 22
1.230240
 13
6.356240
 23
1.970760
  0
POLYLINE
  8
0
  6
CONTINUOUS
 66
     1
 40
0.000000
 41
0.000000
  0
VERTEX
  8
0
  6
CONTINUOUS
 10
6.324560
 20
1.232880
  0
VERTEX
  8
0
  6
CONTINUOUS
 10
6.331160
 20
1.972960
  0
VERTEX
  8
0
  6
CONTINUOUS
 10
6.356240
 20
1.970760
  0
VERTEX
  8
0
  6
CONTINUOUS
 10
6.349640
 20
1.230240
  0
VERTEX
  8
0
  6
CONTINUOUS
 10
6.324560
 20
1.232880
  0
SEQEND
  8
0
  0
SOLID
  8
0
 62
    15
 10
6.349640
 20
1.230240
 11
6.356240
 21
1.970760
 12
6.383960
 22
1.229800
 13
6.390120
 23
1.969880
  0
POLYLINE
  8
0
  6
CONTINUOUS
 66
     1
 40
0.000000
 41
0.000000
  0
VERTEX
  8
0
  6
CONTINUOUS
 10
6.349640
 20
1.230240
  0
VERTEX
  8
0
  6
CONTINUOUS
 10
6.356240
 20
1.970760
  0
VERTEX
  8
0
  6
CONTINUOUS
 10
6.390120
 20
1.969880
  0
VERTEX
  8
0
  6
CONTINUOUS
 10
6.383960
 20
1.229800
  0
VERTEX
  8
0
  6
CONTINUOUS
 10
6.349640
 20
1.230240
  0
SEQEND
  8
0
  0
SOLID
  8
0
 62
    15
 10
6.464480
 20
1.228480
 11
6.470640
 21
1.968560
 12
6.464480
 22
1.068760
 13
6.470640
 23
1.808840
  0
POLYLINE
  8
0
  6
CONTINUOUS
 66
     1
 40
0.000000
 41
0.000000
  0
VERTEX
  8
0
  6
CONTINUOUS
 10
6.464480
 20
1.228480
  0
VERTEX
  8
0
  6
CONTINUOUS
 10
6.470640
 20
1.968560
  0
VERTEX
  8
0
  6
CONTINUOUS
 10
6.470640
 20
1.808840
  0
VERTEX
  8
0
  6
CONTINUOUS
 10
6.464480
 20
1.068760
  0
VERTEX
  8
0
  6
CONTINUOUS
 10
6.464480
 20
1.228480
  0
SEQEND
  8
0
  0
SOLID
  8
0
 62
    15
 10
6.383960
 20
1.229800
 11
6.390120
 21
1.969880
 12
6.464480
 22
1.228480
 13
6.470640
 23
1.968560
  0
POLYLINE
  8
0
  6
CONTINUOUS
 66
     1
 40
0.000000
 41
0.000000
  0
VERTEX
  8
0
  6
CONTINUOUS
 10
6.383960
 20
1.229800
  0
VERTEX
  8
0
  6
CONTINUOUS
 10
6.390120
 20
1.969880
  0
VERTEX
  8
0
  6
CONTINUOUS
 10
6.470640
 20
1.968560
  0
VERTEX
  8
0
  6
CONTINUOUS
 10
6.464480
 20
1.228480
  0
VERTEX
  8
0
  6
CONTINUOUS
 10
6.383960
 20
1.229800
  0
SEQEND
  8
0
  0
POLYLINE
  8
0
  6
CONTINUOUS
 66
     1
 40
0.000000
 41
0.000000
  0
VERTEX
  8
0
  6
CONTINUOUS
 10
6.464480
 20
1.069200
  0
VERTEX
  8
0
  6
CONTINUOUS
 10
1.883640
 20
1.069200
  0
VERTEX
  8
0
  6
CONTINUOUS
 10
1.883640
 20
2.111120
  0
VERTEX
  8
0
  6
CONTINUOUS
 10
2.361040
 20
2.111120
  0
VERTEX
  8
0
  6
CONTINUOUS
 10
2.391840
 20
2.103640
  0
VERTEX
  8
0
  6
CONTINUOUS
 10
2.419560
 20
2.084280
  0
VERTEX
  8
0
  6
CONTINUOUS
 10
2.491720
 20
2.022680
  0
VERTEX
  8
0
  6
CONTINUOUS
 10
2.531320
 20
1.992760
  0
VERTEX
  8
0
  6
CONTINUOUS
 10
2.566960
 20
1.969880
  0
VERTEX
  8
0
  6
CONTINUOUS
 10
2.588960
 20
1.959320
  0
VERTEX
  8
0
  6
CONTINUOUS
 10
2.617560
 20
1.949200
  0
VERTEX
  8
0
  6
CONTINUOUS
 10
2.654080
 20
1.938640
  0
VERTEX
  8
0
  6
CONTINUOUS
 10
2.702040
 20
1.926760
  0
VERTEX
  8
0
  6
CONTINUOUS
 10
2.794440
 20
1.907840
  0
VERTEX
  8
0
  6
CONTINUOUS
 10
2.831400
 20
1.898160
  0
VERTEX
  8
0
  6
CONTINUOUS
 10
2.865280
 20
1.884080
  0
VERTEX
  8
0
  6
CONTINUOUS
 10
2.896080
 20
1.863400
  0
VERTEX
  8
0
  6
CONTINUOUS
 10
2.926880
 20
1.832600
  0
VERTEX
  8
0
  6
CONTINUOUS
 10
2.958120
 20
1.789040
  0
VERTEX
  8
0
  6
CONTINUOUS
 10
2.992000
 20
1.729640
  0
VERTEX
  8
0
  6
CONTINUOUS
 10
3.006520
 20
1.729640
  0
VERTEX
  8
0
  6
CONTINUOUS
 10
3.021040
 20
1.762200
  0
VERTEX
  8
0
  6
CONTINUOUS
 10
3.044800
 20
1.789480
  0
VERTEX
  8
0
  6
CONTINUOUS
 10
3.075160
 20
1.809280
  0
VERTEX
  8
0
  6
CONTINUOUS
 10
3.109480
 20
1.819400
  0
VERTEX
  8
0
  6
CONTINUOUS
 10
3.144680
 20
1.818520
  0
VERTEX
  8
0
  6
CONTINUOUS
 10
3.179000
 20
1.803120
  0
VERTEX
  8
0
  6
CONTINUOUS
 10
3.208920
 20
1.772320
  0
VERTEX
  8
0
  6
CONTINUOUS
 10
3.221680
 20
1.750320
  0
VERTEX
  8
0
  6
CONTINUOUS
 10
3.232680
 20
1.723480
  0
VERTEX
  8
0
  6
CONTINUOUS
 10
3.263920
 20
1.716440
  0
VERTEX
  8
0
  6
CONTINUOUS
 10
3.285920
 20
1.709400
  0
VERTEX
  8
0
  6
CONTINUOUS
 10
3.300880
 20
1.701920
  0
VERTEX
  8
0
  6
CONTINUOUS
 10
3.310560
 20
1.694440
  0
VERTEX
  8
0
  6
CONTINUOUS
 10
3.320240
 20
1.679480
  0
VERTEX
  8
0
  6
CONTINUOUS
 10
3.328160
 20
1.663200
  0
VERTEX
  8
0
  6
CONTINUOUS
 10
3.337840
 20
1.646480
  0
VERTEX
  8
0
  6
CONTINUOUS
 10
3.351040
 20
1.632400
  0
VERTEX
  8
0
  6
CONTINUOUS
 10
3.362040
 20
1.626240
  0
VERTEX
  8
0
  6
CONTINUOUS
 10
3.378320
 20
1.621840
  0
VERTEX
  8
0
  6
CONTINUOUS
 10
3.401200
 20
1.619200
  0
VERTEX
  8
0
  6
CONTINUOUS
 10
3.431120
 20
1.618320
  0
VERTEX
  8
0
  6
CONTINUOUS
 10
4.323440
 20
1.619200
  0
VERTEX
  8
0
  6
CONTINUOUS
 10
4.341480
 20
1.497760
  0
VERTEX
  8
0
  6
CONTINUOUS
 10
4.357320
 20
1.497760
  0
VERTEX
  8
0
  6
CONTINUOUS
 10
4.376240
 20
1.537800
  0
VERTEX
  8
0
  6
CONTINUOUS
 10
4.406160
 20
1.567720
  0
VERTEX
  8
0
  6
CONTINUOUS
 10
4.443120
 20
1.586640
  0
VERTEX
  8
0
  6
CONTINUOUS
 10
4.483600
 20
1.593240
  0
VERTEX
  8
0
  6
CONTINUOUS
 10
4.524080
 20
1.586200
  0
VERTEX
  8
0
  6
CONTINUOUS
 10
4.560600
 20
1.564640
  0
VERTEX
  8
0
  6
CONTINUOUS
 10
4.590080
 20
1.527240
  0
VERTEX
  8
0
  6
CONTINUOUS
 10
4.601080
 20
1.502600
  0
VERTEX
  8
0
  6
CONTINUOUS
 10
4.609000
 20
1.473120
  0
VERTEX
  8
0
  6
CONTINUOUS
 10
4.632320
 20
1.469600
  0
VERTEX
  8
0
  6
CONTINUOUS
 10
4.651680
 20
1.463440
  0
VERTEX
  8
0
  6
CONTINUOUS
 10
4.679400
 20
1.447160
  0
VERTEX
  8
0
  6
CONTINUOUS
 10
4.697000
 20
1.429120
  0
VERTEX
  8
0
  6
CONTINUOUS
 10
4.719000
 20
1.399640
  0
VERTEX
  8
0
  6
CONTINUOUS
 10
4.735280
 20
1.382040
  0
VERTEX
  8
0
  6
CONTINUOUS
 10
4.764320
 20
1.367960
  0
VERTEX
  8
0
  6
CONTINUOUS
 10
4.785000
 20
1.364440
  0
VERTEX
  8
0
  6
CONTINUOUS
 10
5.774560
 20
1.364000
  0
VERTEX
  8
0
  6
CONTINUOUS
 10
5.793920
 20
1.456400
  0
VERTEX
  8
0
  6
CONTINUOUS
 10
6.032400
 20
1.456400
  0
VERTEX
  8
0
  6
CONTINUOUS
 10
6.042960
 20
1.384680
  0
VERTEX
  8
0
  6
CONTINUOUS
 10
6.078600
 20
1.378960
  0
VERTEX
  8
0
  6
CONTINUOUS
 10
6.106760
 20
1.372800
  0
VERTEX
  8
0
  6
CONTINUOUS
 10
6.147240
 20
1.357400
  0
VERTEX
  8
0
  6
CONTINUOUS
 10
6.181120
 20
1.334520
  0
VERTEX
  8
0
  6
CONTINUOUS
 10
6.291120
 20
1.243880
  0
VERTEX
  8
0
  6
CONTINUOUS
 10
6.324560
 20
1.232880
  0
VERTEX
  8
0
  6
CONTINUOUS
 10
6.349640
 20
1.230240
  0
VERTEX
  8
0
  6
CONTINUOUS
 10
6.464480
 20
1.228480
  0
VERTEX
  8
0
  6
CONTINUOUS
 10
6.464480
 20
1.068760
  0
VERTEX
  8
0
  6
CONTINUOUS
 10
6.464480
 20
1.069200
  0
SEQEND
  8
0
  0
POLYLINE
  8
0
  6
CONTINUOUS
 66
     1
 40
0.014080
 41
0.014080
  0
VERTEX
  8
0
  6
CONTINUOUS
 10
6.559520
 20
3.429800
  0
VERTEX
  8
0
  6
CONTINUOUS
 10
1.978680
 20
3.429800
  0
VERTEX
  8
0
  6
CONTINUOUS
 10
1.978680
 20
4.471720
  0
VERTEX
  8
0
  6
CONTINUOUS
 10
2.464440
 20
4.471280
  0
VERTEX
  8
0
  6
CONTINUOUS
 10
2.479400
 20
4.467760
  0
VERTEX
  8
0
  6
CONTINUOUS
 10
2.500960
 20
4.455880
  0
VERTEX
  8
0
  6
CONTINUOUS
 10
2.575760
 20
4.392080
  0
VERTEX
  8
0
  6
CONTINUOUS
 10
2.643520
 20
4.341040
  0
VERTEX
  8
0
  6
CONTINUOUS
 10
2.672560
 20
4.325200
  0
VERTEX
  8
0
  6
CONTINUOUS
 10
2.712600
 20
4.309800
  0
VERTEX
  8
0
  6
CONTINUOUS
 10
2.783880
 20
4.290880
  0
VERTEX
  8
0
  6
CONTINUOUS
 10
2.908840
 20
4.264040
  0
VERTEX
  8
0
  6
CONTINUOUS
 10
2.944040
 20
4.252600
  0
VERTEX
  8
0
  6
CONTINUOUS
 10
2.976160
 20
4.235440
  0
VERTEX
  8
0
  6
CONTINUOUS
 10
2.999480
 20
4.217400
  0
VERTEX
  8
0
  6
CONTINUOUS
 10
3.029840
 20
4.183520
  0
VERTEX
  8
0
  6
CONTINUOUS
 10
3.053600
 20
4.149640
  0
VERTEX
  8
0
  6
CONTINUOUS
 10
3.087480
 20
4.090240
  0
VERTEX
  8
0
  6
CONTINUOUS
 10
3.101560
 20
4.090240
  0
VERTEX
  8
0
  6
CONTINUOUS
 10
3.111680
 20
4.114880
  0
VERTEX
  8
0
  6
CONTINUOUS
 10
3.127080
 20
4.137320
  0
VERTEX
  8
0
  6
CONTINUOUS
 10
3.139840
 20
4.150080
  0
VERTEX
  8
0
  6
CONTINUOUS
 10
3.162280
 20
4.165920
  0
VERTEX
  8
0
  6
CONTINUOUS
 10
3.186920
 20
4.176480
  0
VERTEX
  8
0
  6
CONTINUOUS
 10
3.213320
 20
4.181320
  0
VERTEX
  8
0
  6
CONTINUOUS
 10
3.230920
 20
4.180440
  0
VERTEX
  8
0
  6
CONTINUOUS
 10
3.248520
 20
4.176480
  0
VERTEX
  8
0
  6
CONTINUOUS
 10
3.265680
 20
4.169000
  0
VERTEX
  8
0
  6
CONTINUOUS
 10
3.281960
 20
4.158000
  0
VERTEX
  8
0
  6
CONTINUOUS
 10
3.297360
 20
4.142600
  0
VERTEX
  8
0
  6
CONTINUOUS
 10
3.311000
 20
4.122800
  0
VERTEX
  8
0
  6
CONTINUOUS
 10
3.322880
 20
4.098600
  0
VERTEX
  8
0
  6
CONTINUOUS
 10
3.328160
 20
4.084520
  0
VERTEX
  8
0
  6
CONTINUOUS
 10
3.371280
 20
4.073520
  0
VERTEX
  8
0
  6
CONTINUOUS
 10
3.389320
 20
4.066480
  0
VERTEX
  8
0
  6
CONTINUOUS
 10
3.405600
 20
4.055480
  0
VERTEX
  8
0
  6
CONTINUOUS
 10
3.415280
 20
4.040080
  0
VERTEX
  8
0
  6
CONTINUOUS
 10
3.432880
 20
4.007080
  0
VERTEX
  8
0
  6
CONTINUOUS
 10
3.446080
 20
3.992560
  0
VERTEX
  8
0
  6
CONTINUOUS
 10
3.465000
 20
3.984640
  0
VERTEX
  8
0
  6
CONTINUOUS
 10
3.483920
 20
3.981120
  0
VERTEX
  8
0
  6
CONTINUOUS
 10
3.509880
 20
3.978920
  0
VERTEX
  8
0
  6
CONTINUOUS
 10
4.418920
 20
3.980240
  0
VERTEX
  8
0
  6
CONTINUOUS
 10
4.436520
 20
3.858360
  0
VERTEX
  8
0
  6
CONTINUOUS
 10
4.452800
 20
3.858360
  0
VERTEX
  8
0
  6
CONTINUOUS
 10
4.460720
 20
3.879480
  0
VERTEX
  8
0
  6
CONTINUOUS
 10
4.471720
 20
3.898400
  0
VERTEX
  8
0
  6
CONTINUOUS
 10
4.492840
 20
3.921720
  0
VERTEX
  8
0
  6
CONTINUOUS
 10
4.519240
 20
3.939320
  0
VERTEX
  8
0
  6
CONTINUOUS
 10
4.538160
 20
3.947240
  0
VERTEX
  8
0
  6
CONTINUOUS
 10
4.557960
 20
3.952080
  0
VERTEX
  8
0
  6
CONTINUOUS
 10
4.568520
 20
3.953400
  0
VERTEX
  8
0
  6
CONTINUOUS
 10
4.588760
 20
3.953400
  0
VERTEX
  8
0
  6
CONTINUOUS
 10
4.609000
 20
3.949880
  0
VERTEX
  8
0
  6
CONTINUOUS
 10
4.628800
 20
3.942840
  0
VERTEX
  8
0
  6
CONTINUOUS
 10
4.647280
 20
3.931840
  0
VERTEX
  8
0
  6
CONTINUOUS
 10
4.664000
 20
3.917320
  0
VERTEX
  8
0
  6
CONTINUOUS
 10
4.678960
 20
3.898840
  0
VERTEX
  8
0
  6
CONTINUOUS
 10
4.691280
 20
3.875960
  0
VERTEX
  8
0
  6
CONTINUOUS
 10
4.700520
 20
3.849120
  0
VERTEX
  8
0
  6
CONTINUOUS
 10
4.704040
 20
3.833720
  0
VERTEX
  8
0
  6
CONTINUOUS
 10
4.727800
 20
3.830200
  0
VERTEX
  8
0
  6
CONTINUOUS
 10
4.746720
 20
3.824480
  0
VERTEX
  8
0
  6
CONTINUOUS
 10
4.768720
 20
3.812600
  0
VERTEX
  8
0
  6
CONTINUOUS
 10
4.784560
 20
3.798520
  0
VERTEX
  8
0
  6
CONTINUOUS
 10
4.825480
 20
3.747480
  0
VERTEX
  8
0
  6
CONTINUOUS
 10
4.843080
 20
3.735160
  0
VERTEX
  8
0
  6
CONTINUOUS
 10
4.859360
 20
3.729000
  0
VERTEX
  8
0
  6
CONTINUOUS
 10
4.880480
 20
3.725040
  0
VERTEX
  8
0
  6
CONTINUOUS
 10
5.870040
 20
3.724600
  0
VERTEX
  8
0
  6
CONTINUOUS
 10
5.889400
 20
3.817440
  0
VERTEX
  8
0
  6
CONTINUOUS
 10
6.127440
 20
3.817440
  0
VERTEX
  8
0
  6
CONTINUOUS
 10
6.138000
 20
3.745720
  0
VERTEX
  8
0
  6
CONTINUOUS
 10
6.202240
 20
3.733400
  0
VERTEX
  8
0
  6
CONTINUOUS
 10
6.233920
 20
3.722400
  0
VERTEX
  8
0
  6
CONTINUOUS
 10
6.267800
 20
3.701720
  0
VERTEX
  8
0
  6
CONTINUOUS
 10
6.351400
 20
3.633520
  0
VERTEX
  8
0
  6
CONTINUOUS
 10
6.380000
 20
3.608880
  0
VERTEX
  8
0
  6
CONTINUOUS
 10
6.401120
 20
3.597880
  0
VERTEX
  8
0
  6
CONTINUOUS
 10
6.420040
 20
3.593480
  0
VERTEX
  8
0
  6
CONTINUOUS
 10
6.460960
 20
3.590400
  0
VERTEX
  8
0
  6
CONTINUOUS
 10
6.559520
 20
3.589080
  0
VERTEX
  8
0
  6
CONTINUOUS
 10
6.559520
 20
3.429360
  0
VERTEX
  8
0
  6
CONTINUOUS
 10
6.559520
 20
3.429800
  0
SEQEND
  8
0
  0
TEXT
  8
0
 10
3.897520
 20
3.215960
 40
0.138150
  1
BA  780
 41
1.000000
  7
SN0
 71
     0
 72
     5
 11
4.487796
 21
3.215960
  0
TEXT
  8
0
 10
3.575440
 20
3.024120
 40
0.138150
  1
1-1/16" x 4-9/16"
 41
1.000000
  7
SN0
 71
     0
 72
     5
 11
4.807967
 21
3.024120
  0
ENDSEC
  0
EOF
