  0
SECTION
  2
HEADER
  9
$ACADVER
  1
AC1006
  9
$EXTMIN
 10
2.314400
 20
3.848680
  9
$EXTMAX
 10
4.742760
 20
6.441600
  9
$LTSCALE
 40
0.044000
  9
$PDMODE
 70
    35
  9
$PDSIZE
 40
0.035200
  0
ENDSEC
  0
SECTION
  2
TABLES
  0
TABLE
  2
LTYPE
 70
     9
  0
LTYPE
  2
CONTINUOUS
 70
    64
  3
Solid line
 72
    65
 73
     0
 40
0.000000
  0
LTYPE
  2
DASHED
 70
    64
  3
__ __ __ __ __ __ __ __ __ __ __ __ __ __ __
 72
    65
 73
     2
 40
0.000330
 49
0.000220
 49
-0.000110
  0
LTYPE
  2
HIDDEN
 70
    64
  3
 _ _ _ _ _ _ _ _ _ _ _ _ _ _ _ _ _ _ _ _ _ _
 72
    65
 73
     2
 40
0.000165
 49
0.000110
 49
-0.000055
  0
LTYPE
  2
CENTER
 70
    64
  3
____ _ ____ _ ____ _ ____ _ ____ _ ____ _ ____
 72
    65
 73
     4
 40
0.000880
 49
0.000550
 49
-0.000110
 49
0.000110
 49
-0.000110
  0
LTYPE
  2
PHANTOM
 70
    64
  3
_____ _ _ _____ _ _ _____ _ _ _____ _ _ ____
 72
    65
 73
     6
 40
0.001100
 49
0.000550
 49
-0.000110
 49
0.000110
 49
-0.000110
 49
0.000110
 49
-0.000110
  0
LTYPE
  2
DOT
 70
    64
  3
...............................................
 72
    65
 73
     2
 40
0.000110
 49
0.000000
 49
-0.000110
  0
LTYPE
  2
DASHDOT
 70
    64
  3
__ . __ . __ . __ . __ . __ . __ . __ . __ . __
 72
    65
 73
     4
 40
0.000440
 49
0.000220
 49
-0.000110
 49
0.000000
 49
-0.000110
  0
LTYPE
  2
BORDER
 70
    64
  3
__ __ . __ __ . __ __ . __ __ . __ __ . __ __
 72
    65
 73
     6
 40
0.000770
 49
0.000220
 49
-0.000110
 49
0.000220
 49
-0.000110
 49
0.000000
 49
-0.000110
  0
LTYPE
  2
DIVIDE
 70
    64
  3
__ . . __ . . __ . . __ . . __ . . __ . . __
 72
    65
 73
     6
 40
0.000550
 49
0.000220
 49
-0.000110
 49
0.000000
 49
-0.000110
 49
0.000000
 49
-0.000110
  0
LTYPE
  2
DOTDOT
 70
    64
  3
 . .  . .  . .  . .  . .  . . 
 72
    65
 73
     5
 40
0.000242
 49
-0.000110
 49
0.000000
 49
-0.000110
 49
0.000000
 49
-0.000110
  0
ENDTAB
  0
TABLE
  2
STYLE
 70
     2
  0
STYLE
 70
     0
  2
SN0
 40
0.000000
 41
0.000440
 50
0.000000
 71
     0
 42
0.000000
  3
ROMAND
  0
STYLE
 70
    68
  2
SV0
 40
0.000000
 41
0.000440
 50
0.000000
 71
     0
 42
0.000000
  3
ROMAND
  0
ENDTAB
  0
TABLE
  2
LAYER
 70
     3
  0
LAYER
  2
FOREGROUND
 70
    64
 62
     7
  6
CONTINUOUS
  0
LAYER
  2
BACKGROUND
 70
    65
 62
    -7
  6
CONTINUOUS
  0
LAYER
  2
0
 70
    64
 62
     7
  6
CONTINUOUS
  0
ENDTAB
  0
ENDSEC
  0
SECTION
  2
ENTITIES
  0
POLYLINE
  8
FOREGROUND
  6
CONTINUOUS
 66
     1
 40
0.000000
 41
0.000000
  0
VERTEX
  8
FOREGROUND
  6
CONTINUOUS
 10
0.000000
 20
10.290280
  0
VERTEX
  8
FOREGROUND
  6
CONTINUOUS
 10
8.499920
 20
10.290280
  0
VERTEX
  8
FOREGROUND
  6
CONTINUOUS
 10
8.499920
 20
-0.709720
  0
VERTEX
  8
FOREGROUND
  6
CONTINUOUS
 10
0.000000
 20
-0.709720
  0
VERTEX
  8
FOREGROUND
  6
CONTINUOUS
 10
0.000000
 20
10.290280
  0
SEQEND
  8
0
  0
POLYLINE
  8
FOREGROUND
  6
CONTINUOUS
 66
     1
 40
0.000000
 41
0.000000
  0
VERTEX
  8
FOREGROUND
  6
CONTINUOUS
 10
0.000000
 20
10.290280
  0
VERTEX
  8
FOREGROUND
  6
CONTINUOUS
 10
8.499920
 20
10.290280
  0
VERTEX
  8
FOREGROUND
  6
CONTINUOUS
 10
8.499920
 20
-0.709720
  0
VERTEX
  8
FOREGROUND
  6
CONTINUOUS
 10
0.000000
 20
-0.709720
  0
VERTEX
  8
FOREGROUND
  6
CONTINUOUS
 10
0.000000
 20
10.290280
  0
SEQEND
  8
0
  0
TEXT
  8
0
 10
3.233120
 20
4.091560
 40
0.138100
  1
BA  778
 41
1.000000
  7
SN0
 71
     0
 72
     5
 11
3.823009
 21
4.091560
  0
TEXT
  8
0
 10
3.077360
 20
3.899720
 40
0.138100
  1
5/8" x 1-3/4"
 41
1.000000
  7
SN0
 71
     0
 72
     5
 11
3.977622
 21
3.899720
  0
SOLID
  8
0
 62
    15
 10
3.438600
 20
4.795120
 11
4.077040
 21
5.165600
 12
3.470280
 22
4.774000
 13
4.109160
 23
5.144480
  0
POLYLINE
  8
0
  6
CONTINUOUS
 66
     1
 40
0.000000
 41
0.000000
  0
VERTEX
  8
0
  6
CONTINUOUS
 10
3.438600
 20
4.795120
  0
VERTEX
  8
0
  6
CONTINUOUS
 10
4.077040
 20
5.165600
  0
VERTEX
  8
0
  6
CONTINUOUS
 10
4.109160
 20
5.144480
  0
VERTEX
  8
0
  6
CONTINUOUS
 10
3.470280
 20
4.774000
  0
VERTEX
  8
0
  6
CONTINUOUS
 10
3.438600
 20
4.795120
  0
SEQEND
  8
0
  0
SOLID
  8
0
 62
    15
 10
2.673440
 20
4.873880
 11
3.312320
 21
5.244360
 12
2.794000
 22
4.876520
 13
3.432440
 23
5.246560
  0
POLYLINE
  8
0
  6
CONTINUOUS
 66
     1
 40
0.000000
 41
0.000000
  0
VERTEX
  8
0
  6
CONTINUOUS
 10
2.673440
 20
4.873880
  0
VERTEX
  8
0
  6
CONTINUOUS
 10
3.312320
 20
5.244360
  0
VERTEX
  8
0
  6
CONTINUOUS
 10
3.432440
 20
5.246560
  0
VERTEX
  8
0
  6
CONTINUOUS
 10
2.794000
 20
4.876520
  0
VERTEX
  8
0
  6
CONTINUOUS
 10
2.673440
 20
4.873880
  0
SEQEND
  8
0
  0
SOLID
  8
0
 62
    15
 10
2.794000
 20
4.876520
 11
3.432440
 21
5.246560
 12
2.903120
 22
4.876520
 13
3.542000
 23
5.247000
  0
POLYLINE
  8
0
  6
CONTINUOUS
 66
     1
 40
0.000000
 41
0.000000
  0
VERTEX
  8
0
  6
CONTINUOUS
 10
2.794000
 20
4.876520
  0
VERTEX
  8
0
  6
CONTINUOUS
 10
3.432440
 20
5.246560
  0
VERTEX
  8
0
  6
CONTINUOUS
 10
3.542000
 20
5.247000
  0
VERTEX
  8
0
  6
CONTINUOUS
 10
2.903120
 20
4.876520
  0
VERTEX
  8
0
  6
CONTINUOUS
 10
2.794000
 20
4.876520
  0
SEQEND
  8
0
  0
SOLID
  8
0
 62
    15
 10
2.903120
 20
4.876520
 11
3.542000
 21
5.247000
 12
3.001680
 22
4.874320
 13
3.640560
 23
5.244800
  0
POLYLINE
  8
0
  6
CONTINUOUS
 66
     1
 40
0.000000
 41
0.000000
  0
VERTEX
  8
0
  6
CONTINUOUS
 10
2.903120
 20
4.876520
  0
VERTEX
  8
0
  6
CONTINUOUS
 10
3.542000
 20
5.247000
  0
VERTEX
  8
0
  6
CONTINUOUS
 10
3.640560
 20
5.244800
  0
VERTEX
  8
0
  6
CONTINUOUS
 10
3.001680
 20
4.874320
  0
VERTEX
  8
0
  6
CONTINUOUS
 10
2.903120
 20
4.876520
  0
SEQEND
  8
0
  0
SOLID
  8
0
 62
    15
 10
3.001680
 20
4.874320
 11
3.640560
 21
5.244800
 12
3.090560
 22
4.869920
 13
3.729000
 23
5.240400
  0
POLYLINE
  8
0
  6
CONTINUOUS
 66
     1
 40
0.000000
 41
0.000000
  0
VERTEX
  8
0
  6
CONTINUOUS
 10
3.001680
 20
4.874320
  0
VERTEX
  8
0
  6
CONTINUOUS
 10
3.640560
 20
5.244800
  0
VERTEX
  8
0
  6
CONTINUOUS
 10
3.729000
 20
5.240400
  0
VERTEX
  8
0
  6
CONTINUOUS
 10
3.090560
 20
4.869920
  0
VERTEX
  8
0
  6
CONTINUOUS
 10
3.001680
 20
4.874320
  0
SEQEND
  8
0
  0
SOLID
  8
0
 62
    15
 10
3.090560
 20
4.869920
 11
3.729000
 21
5.240400
 12
3.169320
 22
4.863320
 13
3.808200
 23
5.233800
  0
POLYLINE
  8
0
  6
CONTINUOUS
 66
     1
 40
0.000000
 41
0.000000
  0
VERTEX
  8
0
  6
CONTINUOUS
 10
3.090560
 20
4.869920
  0
VERTEX
  8
0
  6
CONTINUOUS
 10
3.729000
 20
5.240400
  0
VERTEX
  8
0
  6
CONTINUOUS
 10
3.808200
 20
5.233800
  0
VERTEX
  8
0
  6
CONTINUOUS
 10
3.169320
 20
4.863320
  0
VERTEX
  8
0
  6
CONTINUOUS
 10
3.090560
 20
4.869920
  0
SEQEND
  8
0
  0
SOLID
  8
0
 62
    15
 10
3.169320
 20
4.863320
 11
3.808200
 21
5.233800
 12
3.239280
 22
4.854520
 13
3.878160
 23
5.225000
  0
POLYLINE
  8
0
  6
CONTINUOUS
 66
     1
 40
0.000000
 41
0.000000
  0
VERTEX
  8
0
  6
CONTINUOUS
 10
3.169320
 20
4.863320
  0
VERTEX
  8
0
  6
CONTINUOUS
 10
3.808200
 20
5.233800
  0
VERTEX
  8
0
  6
CONTINUOUS
 10
3.878160
 20
5.225000
  0
VERTEX
  8
0
  6
CONTINUOUS
 10
3.239280
 20
4.854520
  0
VERTEX
  8
0
  6
CONTINUOUS
 10
3.169320
 20
4.863320
  0
SEQEND
  8
0
  0
SOLID
  8
0
 62
    15
 10
3.239280
 20
4.854520
 11
3.878160
 21
5.225000
 12
3.300880
 22
4.843080
 13
3.939320
 23
5.213560
  0
POLYLINE
  8
0
  6
CONTINUOUS
 66
     1
 40
0.000000
 41
0.000000
  0
VERTEX
  8
0
  6
CONTINUOUS
 10
3.239280
 20
4.854520
  0
VERTEX
  8
0
  6
CONTINUOUS
 10
3.878160
 20
5.225000
  0
VERTEX
  8
0
  6
CONTINUOUS
 10
3.939320
 20
5.213560
  0
VERTEX
  8
0
  6
CONTINUOUS
 10
3.300880
 20
4.843080
  0
VERTEX
  8
0
  6
CONTINUOUS
 10
3.239280
 20
4.854520
  0
SEQEND
  8
0
  0
SOLID
  8
0
 62
    15
 10
3.300880
 20
4.843080
 11
3.939320
 21
5.213560
 12
3.354120
 22
4.829440
 13
3.992560
 23
5.199920
  0
POLYLINE
  8
0
  6
CONTINUOUS
 66
     1
 40
0.000000
 41
0.000000
  0
VERTEX
  8
0
  6
CONTINUOUS
 10
3.300880
 20
4.843080
  0
VERTEX
  8
0
  6
CONTINUOUS
 10
3.939320
 20
5.213560
  0
VERTEX
  8
0
  6
CONTINUOUS
 10
3.992560
 20
5.199920
  0
VERTEX
  8
0
  6
CONTINUOUS
 10
3.354120
 20
4.829440
  0
VERTEX
  8
0
  6
CONTINUOUS
 10
3.300880
 20
4.843080
  0
SEQEND
  8
0
  0
SOLID
  8
0
 62
    15
 10
3.354120
 20
4.829440
 11
3.992560
 21
5.199920
 12
3.399880
 22
4.813600
 13
4.038320
 23
5.183640
  0
POLYLINE
  8
0
  6
CONTINUOUS
 66
     1
 40
0.000000
 41
0.000000
  0
VERTEX
  8
0
  6
CONTINUOUS
 10
3.354120
 20
4.829440
  0
VERTEX
  8
0
  6
CONTINUOUS
 10
3.992560
 20
5.199920
  0
VERTEX
  8
0
  6
CONTINUOUS
 10
4.038320
 20
5.183640
  0
VERTEX
  8
0
  6
CONTINUOUS
 10
3.399880
 20
4.813600
  0
VERTEX
  8
0
  6
CONTINUOUS
 10
3.354120
 20
4.829440
  0
SEQEND
  8
0
  0
SOLID
  8
0
 62
    15
 10
3.399880
 20
4.813600
 11
4.038320
 21
5.183640
 12
3.438600
 22
4.795120
 13
4.077040
 23
5.165600
  0
POLYLINE
  8
0
  6
CONTINUOUS
 66
     1
 40
0.000000
 41
0.000000
  0
VERTEX
  8
0
  6
CONTINUOUS
 10
3.399880
 20
4.813600
  0
VERTEX
  8
0
  6
CONTINUOUS
 10
4.038320
 20
5.183640
  0
VERTEX
  8
0
  6
CONTINUOUS
 10
4.077040
 20
5.165600
  0
VERTEX
  8
0
  6
CONTINUOUS
 10
3.438600
 20
4.795120
  0
VERTEX
  8
0
  6
CONTINUOUS
 10
3.399880
 20
4.813600
  0
SEQEND
  8
0
  0
SOLID
  8
0
 62
    15
 10
2.660240
 20
4.947800
 11
3.298680
 21
5.318280
 12
2.673440
 22
4.873880
 13
3.312320
 23
5.244360
  0
POLYLINE
  8
0
  6
CONTINUOUS
 66
     1
 40
0.000000
 41
0.000000
  0
VERTEX
  8
0
  6
CONTINUOUS
 10
2.660240
 20
4.947800
  0
VERTEX
  8
0
  6
CONTINUOUS
 10
3.298680
 20
5.318280
  0
VERTEX
  8
0
  6
CONTINUOUS
 10
3.312320
 20
5.244360
  0
VERTEX
  8
0
  6
CONTINUOUS
 10
2.673440
 20
4.873880
  0
VERTEX
  8
0
  6
CONTINUOUS
 10
2.660240
 20
4.947800
  0
SEQEND
  8
0
  0
SOLID
  8
0
 62
    15
 10
3.470280
 20
4.774000
 11
4.109160
 21
5.144480
 12
3.496240
 22
4.751120
 13
4.134680
 23
5.121160
  0
POLYLINE
  8
0
  6
CONTINUOUS
 66
     1
 40
0.000000
 41
0.000000
  0
VERTEX
  8
0
  6
CONTINUOUS
 10
3.470280
 20
4.774000
  0
VERTEX
  8
0
  6
CONTINUOUS
 10
4.109160
 20
5.144480
  0
VERTEX
  8
0
  6
CONTINUOUS
 10
4.134680
 20
5.121160
  0
VERTEX
  8
0
  6
CONTINUOUS
 10
3.496240
 20
4.751120
  0
VERTEX
  8
0
  6
CONTINUOUS
 10
3.470280
 20
4.774000
  0
SEQEND
  8
0
  0
SOLID
  8
0
 62
    15
 10
3.496240
 20
4.751120
 11
4.134680
 21
5.121160
 12
3.516480
 22
4.725160
 13
4.154920
 23
5.095640
  0
POLYLINE
  8
0
  6
CONTINUOUS
 66
     1
 40
0.000000
 41
0.000000
  0
VERTEX
  8
0
  6
CONTINUOUS
 10
3.496240
 20
4.751120
  0
VERTEX
  8
0
  6
CONTINUOUS
 10
4.134680
 20
5.121160
  0
VERTEX
  8
0
  6
CONTINUOUS
 10
4.154920
 20
5.095640
  0
VERTEX
  8
0
  6
CONTINUOUS
 10
3.516480
 20
4.725160
  0
VERTEX
  8
0
  6
CONTINUOUS
 10
3.496240
 20
4.751120
  0
SEQEND
  8
0
  0
SOLID
  8
0
 62
    15
 10
3.516480
 20
4.725160
 11
4.154920
 21
5.095640
 12
3.531440
 22
4.697000
 13
4.170320
 23
5.067480
  0
POLYLINE
  8
0
  6
CONTINUOUS
 66
     1
 40
0.000000
 41
0.000000
  0
VERTEX
  8
0
  6
CONTINUOUS
 10
3.516480
 20
4.725160
  0
VERTEX
  8
0
  6
CONTINUOUS
 10
4.154920
 20
5.095640
  0
VERTEX
  8
0
  6
CONTINUOUS
 10
4.170320
 20
5.067480
  0
VERTEX
  8
0
  6
CONTINUOUS
 10
3.531440
 20
4.697000
  0
VERTEX
  8
0
  6
CONTINUOUS
 10
3.516480
 20
4.725160
  0
SEQEND
  8
0
  0
SOLID
  8
0
 62
    15
 10
3.531440
 20
4.697000
 11
4.170320
 21
5.067480
 12
3.542000
 22
4.666200
 13
4.180880
 23
5.036680
  0
POLYLINE
  8
0
  6
CONTINUOUS
 66
     1
 40
0.000000
 41
0.000000
  0
VERTEX
  8
0
  6
CONTINUOUS
 10
3.531440
 20
4.697000
  0
VERTEX
  8
0
  6
CONTINUOUS
 10
4.170320
 20
5.067480
  0
VERTEX
  8
0
  6
CONTINUOUS
 10
4.180880
 20
5.036680
  0
VERTEX
  8
0
  6
CONTINUOUS
 10
3.542000
 20
4.666200
  0
VERTEX
  8
0
  6
CONTINUOUS
 10
3.531440
 20
4.697000
  0
SEQEND
  8
0
  0
SOLID
  8
0
 62
    15
 10
3.542000
 20
4.666200
 11
4.180880
 21
5.036680
 12
3.548600
 22
4.633200
 13
4.187040
 23
5.003680
  0
POLYLINE
  8
0
  6
CONTINUOUS
 66
     1
 40
0.000000
 41
0.000000
  0
VERTEX
  8
0
  6
CONTINUOUS
 10
3.542000
 20
4.666200
  0
VERTEX
  8
0
  6
CONTINUOUS
 10
4.180880
 20
5.036680
  0
VERTEX
  8
0
  6
CONTINUOUS
 10
4.187040
 20
5.003680
  0
VERTEX
  8
0
  6
CONTINUOUS
 10
3.548600
 20
4.633200
  0
VERTEX
  8
0
  6
CONTINUOUS
 10
3.542000
 20
4.666200
  0
SEQEND
  8
0
  0
SOLID
  8
0
 62
    15
 10
3.548600
 20
4.633200
 11
4.187040
 21
5.003680
 12
4.103880
 22
4.507800
 13
4.742760
 23
4.878280
  0
POLYLINE
  8
0
  6
CONTINUOUS
 66
     1
 40
0.000000
 41
0.000000
  0
VERTEX
  8
0
  6
CONTINUOUS
 10
3.548600
 20
4.633200
  0
VERTEX
  8
0
  6
CONTINUOUS
 10
4.187040
 20
5.003680
  0
VERTEX
  8
0
  6
CONTINUOUS
 10
4.742760
 20
4.878280
  0
VERTEX
  8
0
  6
CONTINUOUS
 10
4.103880
 20
4.507800
  0
VERTEX
  8
0
  6
CONTINUOUS
 10
3.548600
 20
4.633200
  0
SEQEND
  8
0
  0
SOLID
  8
0
 62
    15
 10
4.103880
 20
4.507800
 11
4.742760
 21
4.878280
 12
4.103880
 22
4.331800
 13
4.742760
 23
4.702280
  0
POLYLINE
  8
0
  6
CONTINUOUS
 66
     1
 40
0.000000
 41
0.000000
  0
VERTEX
  8
0
  6
CONTINUOUS
 10
4.103880
 20
4.507800
  0
VERTEX
  8
0
  6
CONTINUOUS
 10
4.742760
 20
4.878280
  0
VERTEX
  8
0
  6
CONTINUOUS
 10
4.742760
 20
4.702280
  0
VERTEX
  8
0
  6
CONTINUOUS
 10
4.103880
 20
4.331800
  0
VERTEX
  8
0
  6
CONTINUOUS
 10
4.103880
 20
4.507800
  0
SEQEND
  8
0
  0
SOLID
  8
0
 62
    15
 10
2.355320
 20
4.934160
 11
2.993760
 21
5.304640
 12
2.369840
 22
4.941640
 13
3.008720
 23
5.312120
  0
POLYLINE
  8
0
  6
CONTINUOUS
 66
     1
 40
0.000000
 41
0.000000
  0
VERTEX
  8
0
  6
CONTINUOUS
 10
2.355320
 20
4.934160
  0
VERTEX
  8
0
  6
CONTINUOUS
 10
2.993760
 20
5.304640
  0
VERTEX
  8
0
  6
CONTINUOUS
 10
3.008720
 20
5.312120
  0
VERTEX
  8
0
  6
CONTINUOUS
 10
2.369840
 20
4.941640
  0
VERTEX
  8
0
  6
CONTINUOUS
 10
2.355320
 20
4.934160
  0
SEQEND
  8
0
  0
SOLID
  8
0
 62
    15
 10
2.369840
 20
4.941640
 11
3.008720
 21
5.312120
 12
2.386120
 22
4.946040
 13
3.024560
 23
5.316520
  0
POLYLINE
  8
0
  6
CONTINUOUS
 66
     1
 40
0.000000
 41
0.000000
  0
VERTEX
  8
0
  6
CONTINUOUS
 10
2.369840
 20
4.941640
  0
VERTEX
  8
0
  6
CONTINUOUS
 10
3.008720
 20
5.312120
  0
VERTEX
  8
0
  6
CONTINUOUS
 10
3.024560
 20
5.316520
  0
VERTEX
  8
0
  6
CONTINUOUS
 10
2.386120
 20
4.946040
  0
VERTEX
  8
0
  6
CONTINUOUS
 10
2.369840
 20
4.941640
  0
SEQEND
  8
0
  0
SOLID
  8
0
 62
    15
 10
2.386120
 20
4.946040
 11
3.024560
 21
5.316520
 12
2.402840
 22
4.947800
 13
3.041280
 23
5.318280
  0
POLYLINE
  8
0
  6
CONTINUOUS
 66
     1
 40
0.000000
 41
0.000000
  0
VERTEX
  8
0
  6
CONTINUOUS
 10
2.386120
 20
4.946040
  0
VERTEX
  8
0
  6
CONTINUOUS
 10
3.024560
 20
5.316520
  0
VERTEX
  8
0
  6
CONTINUOUS
 10
3.041280
 20
5.318280
  0
VERTEX
  8
0
  6
CONTINUOUS
 10
2.402840
 20
4.947800
  0
VERTEX
  8
0
  6
CONTINUOUS
 10
2.386120
 20
4.946040
  0
SEQEND
  8
0
  0
SOLID
  8
0
 62
    15
 10
2.402840
 20
4.947800
 11
3.041280
 21
5.318280
 12
2.660240
 22
4.947800
 13
3.298680
 23
5.318280
  0
POLYLINE
  8
0
  6
CONTINUOUS
 66
     1
 40
0.000000
 41
0.000000
  0
VERTEX
  8
0
  6
CONTINUOUS
 10
2.402840
 20
4.947800
  0
VERTEX
  8
0
  6
CONTINUOUS
 10
3.041280
 20
5.318280
  0
VERTEX
  8
0
  6
CONTINUOUS
 10
3.298680
 20
5.318280
  0
VERTEX
  8
0
  6
CONTINUOUS
 10
2.660240
 20
4.947800
  0
VERTEX
  8
0
  6
CONTINUOUS
 10
2.402840
 20
4.947800
  0
SEQEND
  8
0
  0
POLYLINE
  8
0
  6
CONTINUOUS
 66
     1
 40
0.000000
 41
0.000000
  0
VERTEX
  8
0
  6
CONTINUOUS
 10
2.660240
 20
4.947800
  0
VERTEX
  8
0
  6
CONTINUOUS
 10
2.673440
 20
4.873880
  0
VERTEX
  8
0
  6
CONTINUOUS
 10
2.794000
 20
4.876520
  0
VERTEX
  8
0
  6
CONTINUOUS
 10
2.903120
 20
4.876520
  0
VERTEX
  8
0
  6
CONTINUOUS
 10
3.001680
 20
4.874320
  0
VERTEX
  8
0
  6
CONTINUOUS
 10
3.090560
 20
4.869920
  0
VERTEX
  8
0
  6
CONTINUOUS
 10
3.169320
 20
4.863320
  0
VERTEX
  8
0
  6
CONTINUOUS
 10
3.239280
 20
4.854520
  0
VERTEX
  8
0
  6
CONTINUOUS
 10
3.300880
 20
4.843080
  0
VERTEX
  8
0
  6
CONTINUOUS
 10
3.354120
 20
4.829440
  0
VERTEX
  8
0
  6
CONTINUOUS
 10
3.399880
 20
4.813600
  0
VERTEX
  8
0
  6
CONTINUOUS
 10
3.438600
 20
4.795120
  0
VERTEX
  8
0
  6
CONTINUOUS
 10
3.470280
 20
4.774000
  0
VERTEX
  8
0
  6
CONTINUOUS
 10
3.496240
 20
4.751120
  0
VERTEX
  8
0
  6
CONTINUOUS
 10
3.516480
 20
4.725160
  0
VERTEX
  8
0
  6
CONTINUOUS
 10
3.531440
 20
4.697000
  0
VERTEX
  8
0
  6
CONTINUOUS
 10
3.542000
 20
4.666200
  0
VERTEX
  8
0
  6
CONTINUOUS
 10
3.548600
 20
4.633200
  0
VERTEX
  8
0
  6
CONTINUOUS
 10
4.103880
 20
4.507800
  0
VERTEX
  8
0
  6
CONTINUOUS
 10
4.103880
 20
4.331800
  0
VERTEX
  8
0
  6
CONTINUOUS
 10
2.314840
 20
4.331800
  0
VERTEX
  8
0
  6
CONTINUOUS
 10
2.314840
 20
4.865520
  0
VERTEX
  8
0
  6
CONTINUOUS
 10
2.317040
 20
4.882680
  0
VERTEX
  8
0
  6
CONTINUOUS
 10
2.322320
 20
4.898080
  0
VERTEX
  8
0
  6
CONTINUOUS
 10
2.330680
 20
4.912160
  0
VERTEX
  8
0
  6
CONTINUOUS
 10
2.342120
 20
4.924480
  0
VERTEX
  8
0
  6
CONTINUOUS
 10
2.355320
 20
4.934160
  0
VERTEX
  8
0
  6
CONTINUOUS
 10
2.369840
 20
4.941640
  0
VERTEX
  8
0
  6
CONTINUOUS
 10
2.386120
 20
4.946040
  0
VERTEX
  8
0
  6
CONTINUOUS
 10
2.402840
 20
4.947800
  0
VERTEX
  8
0
  6
CONTINUOUS
 10
2.660240
 20
4.947800
  0
SEQEND
  8
0
  0
POLYLINE
  8
0
  6
CONTINUOUS
 66
     1
 40
0.014080
 41
0.014080
  0
VERTEX
  8
0
  6
CONTINUOUS
 10
2.584560
 20
6.434120
  0
VERTEX
  8
0
  6
CONTINUOUS
 10
2.559920
 20
6.430600
  0
VERTEX
  8
0
  6
CONTINUOUS
 10
2.537040
 20
6.420480
  0
VERTEX
  8
0
  6
CONTINUOUS
 10
2.518120
 20
6.404640
  0
VERTEX
  8
0
  6
CONTINUOUS
 10
2.508440
 20
6.391440
  0
VERTEX
  8
0
  6
CONTINUOUS
 10
2.501400
 20
6.376480
  0
VERTEX
  8
0
  6
CONTINUOUS
 10
2.497440
 20
6.360200
  0
VERTEX
  8
0
  6
CONTINUOUS
 10
2.497000
 20
5.817680
  0
VERTEX
  8
0
  6
CONTINUOUS
 10
4.286040
 20
5.817680
  0
VERTEX
  8
0
  6
CONTINUOUS
 10
4.286040
 20
5.994120
  0
VERTEX
  8
0
  6
CONTINUOUS
 10
3.730760
 20
6.119520
  0
VERTEX
  8
0
  6
CONTINUOUS
 10
3.724160
 20
6.152520
  0
VERTEX
  8
0
  6
CONTINUOUS
 10
3.719760
 20
6.168360
  0
VERTEX
  8
0
  6
CONTINUOUS
 10
3.707000
 20
6.197840
  0
VERTEX
  8
0
  6
CONTINUOUS
 10
3.688960
 20
6.224680
  0
VERTEX
  8
0
  6
CONTINUOUS
 10
3.666080
 20
6.248880
  0
VERTEX
  8
0
  6
CONTINUOUS
 10
3.637040
 20
6.270880
  0
VERTEX
  8
0
  6
CONTINUOUS
 10
3.601840
 20
6.290680
  0
VERTEX
  8
0
  6
CONTINUOUS
 10
3.560040
 20
6.307840
  0
VERTEX
  8
0
  6
CONTINUOUS
 10
3.510320
 20
6.322800
  0
VERTEX
  8
0
  6
CONTINUOUS
 10
3.453120
 20
6.335120
  0
VERTEX
  8
0
  6
CONTINUOUS
 10
3.351480
 20
6.349640
  0
VERTEX
  8
0
  6
CONTINUOUS
 10
3.229160
 20
6.358880
  0
VERTEX
  8
0
  6
CONTINUOUS
 10
3.110800
 20
6.362400
  0
VERTEX
  8
0
  6
CONTINUOUS
 10
2.975720
 20
6.362400
  0
VERTEX
  8
0
  6
CONTINUOUS
 10
2.855600
 20
6.360200
  0
VERTEX
  8
0
  6
CONTINUOUS
 10
2.841960
 20
6.434120
  0
VERTEX
  8
0
  6
CONTINUOUS
 10
2.584560
 20
6.434120
  0
SEQEND
  8
0
  0
TEXT
  8
0
 10
2.848560
 20
6.104560
 40
0.138100
  1
BA  778
 41
1.000000
  7
SN0
 71
     0
 72
     5
 11
3.438449
 21
6.104560
  0
TEXT
  8
0
 10
2.692800
 20
5.912720
 40
0.138100
  1
5/8" x 1-3/4"
 41
1.000000
  7
SN0
 71
     0
 72
     5
 11
3.593062
 21
5.912720
  0
ENDSEC
  0
EOF
