  0
SECTION
  2
HEADER
  9
$ACADVER
  1
AC1006
  9
$EXTMIN
 10
1.963720
 20
2.006400
  9
$EXTMAX
 10
6.969160
 20
7.854000
  9
$LTSCALE
 40
0.044000
  9
$PDMODE
 70
    35
  9
$PDSIZE
 40
0.035200
  0
ENDSEC
  0
SECTION
  2
TABLES
  0
TABLE
  2
LTYPE
 70
     9
  0
LTYPE
  2
CONTINUOUS
 70
    64
  3
Solid line
 72
    65
 73
     0
 40
0.000000
  0
LTYPE
  2
DASHED
 70
    64
  3
__ __ __ __ __ __ __ __ __ __ __ __ __ __ __
 72
    65
 73
     2
 40
0.000330
 49
0.000220
 49
-0.000110
  0
LTYPE
  2
HIDDEN
 70
    64
  3
 _ _ _ _ _ _ _ _ _ _ _ _ _ _ _ _ _ _ _ _ _ _
 72
    65
 73
     2
 40
0.000165
 49
0.000110
 49
-0.000055
  0
LTYPE
  2
CENTER
 70
    64
  3
____ _ ____ _ ____ _ ____ _ ____ _ ____ _ ____
 72
    65
 73
     4
 40
0.000880
 49
0.000550
 49
-0.000110
 49
0.000110
 49
-0.000110
  0
LTYPE
  2
PHANTOM
 70
    64
  3
_____ _ _ _____ _ _ _____ _ _ _____ _ _ ____
 72
    65
 73
     6
 40
0.001100
 49
0.000550
 49
-0.000110
 49
0.000110
 49
-0.000110
 49
0.000110
 49
-0.000110
  0
LTYPE
  2
DOT
 70
    64
  3
...............................................
 72
    65
 73
     2
 40
0.000110
 49
0.000000
 49
-0.000110
  0
LTYPE
  2
DASHDOT
 70
    64
  3
__ . __ . __ . __ . __ . __ . __ . __ . __ . __
 72
    65
 73
     4
 40
0.000440
 49
0.000220
 49
-0.000110
 49
0.000000
 49
-0.000110
  0
LTYPE
  2
BORDER
 70
    64
  3
__ __ . __ __ . __ __ . __ __ . __ __ . __ __
 72
    65
 73
     6
 40
0.000770
 49
0.000220
 49
-0.000110
 49
0.000220
 49
-0.000110
 49
0.000000
 49
-0.000110
  0
LTYPE
  2
DIVIDE
 70
    64
  3
__ . . __ . . __ . . __ . . __ . . __ . . __
 72
    65
 73
     6
 40
0.000550
 49
0.000220
 49
-0.000110
 49
0.000000
 49
-0.000110
 49
0.000000
 49
-0.000110
  0
LTYPE
  2
DOTDOT
 70
    64
  3
 . .  . .  . .  . .  . .  . . 
 72
    65
 73
     5
 40
0.000242
 49
-0.000110
 49
0.000000
 49
-0.000110
 49
0.000000
 49
-0.000110
  0
ENDTAB
  0
TABLE
  2
STYLE
 70
     2
  0
STYLE
 70
     0
  2
SN0
 40
0.000000
 41
0.000440
 50
0.000000
 71
     0
 42
0.000000
  3
ROMAND
  0
STYLE
 70
    68
  2
SV0
 40
0.000000
 41
0.000440
 50
0.000000
 71
     0
 42
0.000000
  3
ROMAND
  0
ENDTAB
  0
TABLE
  2
LAYER
 70
     3
  0
LAYER
  2
FOREGROUND
 70
    64
 62
     7
  6
CONTINUOUS
  0
LAYER
  2
BACKGROUND
 70
    65
 62
    -7
  6
CONTINUOUS
  0
LAYER
  2
0
 70
    64
 62
     7
  6
CONTINUOUS
  0
ENDTAB
  0
ENDSEC
  0
SECTION
  2
ENTITIES
  0
POLYLINE
  8
FOREGROUND
  6
CONTINUOUS
 66
     1
 40
0.000000
 41
0.000000
  0
VERTEX
  8
FOREGROUND
  6
CONTINUOUS
 10
0.000000
 20
9.860400
  0
VERTEX
  8
FOREGROUND
  6
CONTINUOUS
 10
8.499920
 20
9.860400
  0
VERTEX
  8
FOREGROUND
  6
CONTINUOUS
 10
8.499920
 20
-1.139600
  0
VERTEX
  8
FOREGROUND
  6
CONTINUOUS
 10
0.000000
 20
-1.139600
  0
VERTEX
  8
FOREGROUND
  6
CONTINUOUS
 10
0.000000
 20
9.860400
  0
SEQEND
  8
0
  0
POLYLINE
  8
FOREGROUND
  6
CONTINUOUS
 66
     1
 40
0.000000
 41
0.000000
  0
VERTEX
  8
FOREGROUND
  6
CONTINUOUS
 10
0.000000
 20
9.860400
  0
VERTEX
  8
FOREGROUND
  6
CONTINUOUS
 10
8.499920
 20
9.860400
  0
VERTEX
  8
FOREGROUND
  6
CONTINUOUS
 10
8.499920
 20
-1.139600
  0
VERTEX
  8
FOREGROUND
  6
CONTINUOUS
 10
0.000000
 20
-1.139600
  0
VERTEX
  8
FOREGROUND
  6
CONTINUOUS
 10
0.000000
 20
9.860400
  0
SEQEND
  8
0
  0
SOLID
  8
0
 62
    15
 10
6.385720
 20
6.036800
 11
6.383080
 21
7.033400
 12
6.400680
 22
5.993680
 13
6.398040
 23
6.990720
  0
POLYLINE
  8
0
  6
CONTINUOUS
 66
     1
 40
0.000000
 41
0.000000
  0
VERTEX
  8
0
  6
CONTINUOUS
 10
6.385720
 20
6.036800
  0
VERTEX
  8
0
  6
CONTINUOUS
 10
6.383080
 20
7.033400
  0
VERTEX
  8
0
  6
CONTINUOUS
 10
6.398040
 20
6.990720
  0
VERTEX
  8
0
  6
CONTINUOUS
 10
6.400680
 20
5.993680
  0
VERTEX
  8
0
  6
CONTINUOUS
 10
6.385720
 20
6.036800
  0
SEQEND
  8
0
  0
SOLID
  8
0
 62
    15
 10
4.614720
 20
5.292320
 11
4.612080
 21
6.288920
 12
4.614720
 22
6.131840
 13
4.612080
 23
7.128880
  0
POLYLINE
  8
0
  6
CONTINUOUS
 66
     1
 40
0.000000
 41
0.000000
  0
VERTEX
  8
0
  6
CONTINUOUS
 10
4.614720
 20
5.292320
  0
VERTEX
  8
0
  6
CONTINUOUS
 10
4.612080
 20
6.288920
  0
VERTEX
  8
0
  6
CONTINUOUS
 10
4.612080
 20
7.128880
  0
VERTEX
  8
0
  6
CONTINUOUS
 10
4.614720
 20
6.131840
  0
VERTEX
  8
0
  6
CONTINUOUS
 10
4.614720
 20
5.292320
  0
SEQEND
  8
0
  0
SOLID
  8
0
 62
    15
 10
5.530360
 20
6.131840
 11
5.527720
 21
7.128880
 12
5.766200
 22
5.748160
 13
5.763560
 23
6.744760
  0
POLYLINE
  8
0
  6
CONTINUOUS
 66
     1
 40
0.000000
 41
0.000000
  0
VERTEX
  8
0
  6
CONTINUOUS
 10
5.530360
 20
6.131840
  0
VERTEX
  8
0
  6
CONTINUOUS
 10
5.527720
 20
7.128880
  0
VERTEX
  8
0
  6
CONTINUOUS
 10
5.763560
 20
6.744760
  0
VERTEX
  8
0
  6
CONTINUOUS
 10
5.766200
 20
5.748160
  0
VERTEX
  8
0
  6
CONTINUOUS
 10
5.530360
 20
6.131840
  0
SEQEND
  8
0
  0
SOLID
  8
0
 62
    15
 10
5.766200
 20
5.748160
 11
5.763560
 21
6.744760
 12
5.790400
 22
5.748160
 13
5.787760
 23
6.744760
  0
POLYLINE
  8
0
  6
CONTINUOUS
 66
     1
 40
0.000000
 41
0.000000
  0
VERTEX
  8
0
  6
CONTINUOUS
 10
5.766200
 20
5.748160
  0
VERTEX
  8
0
  6
CONTINUOUS
 10
5.763560
 20
6.744760
  0
VERTEX
  8
0
  6
CONTINUOUS
 10
5.787760
 20
6.744760
  0
VERTEX
  8
0
  6
CONTINUOUS
 10
5.790400
 20
5.748160
  0
VERTEX
  8
0
  6
CONTINUOUS
 10
5.766200
 20
5.748160
  0
SEQEND
  8
0
  0
SOLID
  8
0
 62
    15
 10
5.790400
 20
5.748160
 11
5.787760
 21
6.744760
 12
6.006440
 22
6.131840
 13
6.003800
 23
7.128880
  0
POLYLINE
  8
0
  6
CONTINUOUS
 66
     1
 40
0.000000
 41
0.000000
  0
VERTEX
  8
0
  6
CONTINUOUS
 10
5.790400
 20
5.748160
  0
VERTEX
  8
0
  6
CONTINUOUS
 10
5.787760
 20
6.744760
  0
VERTEX
  8
0
  6
CONTINUOUS
 10
6.003800
 20
7.128880
  0
VERTEX
  8
0
  6
CONTINUOUS
 10
6.006440
 20
6.131840
  0
VERTEX
  8
0
  6
CONTINUOUS
 10
5.790400
 20
5.748160
  0
SEQEND
  8
0
  0
SOLID
  8
0
 62
    15
 10
6.006440
 20
6.131840
 11
6.003800
 21
7.128880
 12
6.366360
 22
6.131840
 13
6.363720
 23
7.128880
  0
POLYLINE
  8
0
  6
CONTINUOUS
 66
     1
 40
0.000000
 41
0.000000
  0
VERTEX
  8
0
  6
CONTINUOUS
 10
6.006440
 20
6.131840
  0
VERTEX
  8
0
  6
CONTINUOUS
 10
6.003800
 20
7.128880
  0
VERTEX
  8
0
  6
CONTINUOUS
 10
6.363720
 20
7.128880
  0
VERTEX
  8
0
  6
CONTINUOUS
 10
6.366360
 20
6.131840
  0
VERTEX
  8
0
  6
CONTINUOUS
 10
6.006440
 20
6.131840
  0
SEQEND
  8
0
  0
SOLID
  8
0
 62
    15
 10
6.366360
 20
6.131840
 11
6.363720
 21
7.128880
 12
6.374280
 22
6.082560
 13
6.371640
 23
7.079600
  0
POLYLINE
  8
0
  6
CONTINUOUS
 66
     1
 40
0.000000
 41
0.000000
  0
VERTEX
  8
0
  6
CONTINUOUS
 10
6.366360
 20
6.131840
  0
VERTEX
  8
0
  6
CONTINUOUS
 10
6.363720
 20
7.128880
  0
VERTEX
  8
0
  6
CONTINUOUS
 10
6.371640
 20
7.079600
  0
VERTEX
  8
0
  6
CONTINUOUS
 10
6.374280
 20
6.082560
  0
VERTEX
  8
0
  6
CONTINUOUS
 10
6.366360
 20
6.131840
  0
SEQEND
  8
0
  0
SOLID
  8
0
 62
    15
 10
6.374280
 20
6.082560
 11
6.371640
 21
7.079600
 12
6.385720
 22
6.036800
 13
6.383080
 23
7.033400
  0
POLYLINE
  8
0
  6
CONTINUOUS
 66
     1
 40
0.000000
 41
0.000000
  0
VERTEX
  8
0
  6
CONTINUOUS
 10
6.374280
 20
6.082560
  0
VERTEX
  8
0
  6
CONTINUOUS
 10
6.371640
 20
7.079600
  0
VERTEX
  8
0
  6
CONTINUOUS
 10
6.383080
 20
7.033400
  0
VERTEX
  8
0
  6
CONTINUOUS
 10
6.385720
 20
6.036800
  0
VERTEX
  8
0
  6
CONTINUOUS
 10
6.374280
 20
6.082560
  0
SEQEND
  8
0
  0
SOLID
  8
0
 62
    15
 10
4.614720
 20
6.131840
 11
4.612080
 21
7.128880
 12
5.530360
 22
6.131840
 13
5.527720
 23
7.128880
  0
POLYLINE
  8
0
  6
CONTINUOUS
 66
     1
 40
0.000000
 41
0.000000
  0
VERTEX
  8
0
  6
CONTINUOUS
 10
4.614720
 20
6.131840
  0
VERTEX
  8
0
  6
CONTINUOUS
 10
4.612080
 20
7.128880
  0
VERTEX
  8
0
  6
CONTINUOUS
 10
5.527720
 20
7.128880
  0
VERTEX
  8
0
  6
CONTINUOUS
 10
5.530360
 20
6.131840
  0
VERTEX
  8
0
  6
CONTINUOUS
 10
4.614720
 20
6.131840
  0
SEQEND
  8
0
  0
SOLID
  8
0
 62
    15
 10
6.400680
 20
5.993680
 11
6.398040
 21
6.990720
 12
6.418720
 22
5.954080
 13
6.416080
 23
6.950680
  0
POLYLINE
  8
0
  6
CONTINUOUS
 66
     1
 40
0.000000
 41
0.000000
  0
VERTEX
  8
0
  6
CONTINUOUS
 10
6.400680
 20
5.993680
  0
VERTEX
  8
0
  6
CONTINUOUS
 10
6.398040
 20
6.990720
  0
VERTEX
  8
0
  6
CONTINUOUS
 10
6.416080
 20
6.950680
  0
VERTEX
  8
0
  6
CONTINUOUS
 10
6.418720
 20
5.954080
  0
VERTEX
  8
0
  6
CONTINUOUS
 10
6.400680
 20
5.993680
  0
SEQEND
  8
0
  0
SOLID
  8
0
 62
    15
 10
6.418720
 20
5.954080
 11
6.416080
 21
6.950680
 12
6.462720
 22
5.883680
 13
6.460080
 23
6.880720
  0
POLYLINE
  8
0
  6
CONTINUOUS
 66
     1
 40
0.000000
 41
0.000000
  0
VERTEX
  8
0
  6
CONTINUOUS
 10
6.418720
 20
5.954080
  0
VERTEX
  8
0
  6
CONTINUOUS
 10
6.416080
 20
6.950680
  0
VERTEX
  8
0
  6
CONTINUOUS
 10
6.460080
 20
6.880720
  0
VERTEX
  8
0
  6
CONTINUOUS
 10
6.462720
 20
5.883680
  0
VERTEX
  8
0
  6
CONTINUOUS
 10
6.418720
 20
5.954080
  0
SEQEND
  8
0
  0
SOLID
  8
0
 62
    15
 10
6.462720
 20
5.883680
 11
6.460080
 21
6.880720
 12
6.514640
 22
5.825160
 13
6.512000
 23
6.821760
  0
POLYLINE
  8
0
  6
CONTINUOUS
 66
     1
 40
0.000000
 41
0.000000
  0
VERTEX
  8
0
  6
CONTINUOUS
 10
6.462720
 20
5.883680
  0
VERTEX
  8
0
  6
CONTINUOUS
 10
6.460080
 20
6.880720
  0
VERTEX
  8
0
  6
CONTINUOUS
 10
6.512000
 20
6.821760
  0
VERTEX
  8
0
  6
CONTINUOUS
 10
6.514640
 20
5.825160
  0
VERTEX
  8
0
  6
CONTINUOUS
 10
6.462720
 20
5.883680
  0
SEQEND
  8
0
  0
SOLID
  8
0
 62
    15
 10
6.514640
 20
5.825160
 11
6.512000
 21
6.821760
 12
6.571840
 22
5.777200
 13
6.569200
 23
6.773800
  0
POLYLINE
  8
0
  6
CONTINUOUS
 66
     1
 40
0.000000
 41
0.000000
  0
VERTEX
  8
0
  6
CONTINUOUS
 10
6.514640
 20
5.825160
  0
VERTEX
  8
0
  6
CONTINUOUS
 10
6.512000
 20
6.821760
  0
VERTEX
  8
0
  6
CONTINUOUS
 10
6.569200
 20
6.773800
  0
VERTEX
  8
0
  6
CONTINUOUS
 10
6.571840
 20
5.777200
  0
VERTEX
  8
0
  6
CONTINUOUS
 10
6.514640
 20
5.825160
  0
SEQEND
  8
0
  0
SOLID
  8
0
 62
    15
 10
6.571840
 20
5.777200
 11
6.569200
 21
6.773800
 12
6.632120
 22
5.739360
 13
6.629480
 23
6.735960
  0
POLYLINE
  8
0
  6
CONTINUOUS
 66
     1
 40
0.000000
 41
0.000000
  0
VERTEX
  8
0
  6
CONTINUOUS
 10
6.571840
 20
5.777200
  0
VERTEX
  8
0
  6
CONTINUOUS
 10
6.569200
 20
6.773800
  0
VERTEX
  8
0
  6
CONTINUOUS
 10
6.629480
 20
6.735960
  0
VERTEX
  8
0
  6
CONTINUOUS
 10
6.632120
 20
5.739360
  0
VERTEX
  8
0
  6
CONTINUOUS
 10
6.571840
 20
5.777200
  0
SEQEND
  8
0
  0
SOLID
  8
0
 62
    15
 10
6.632120
 20
5.739360
 11
6.629480
 21
6.735960
 12
6.692400
 22
5.711200
 13
6.689760
 23
6.707800
  0
POLYLINE
  8
0
  6
CONTINUOUS
 66
     1
 40
0.000000
 41
0.000000
  0
VERTEX
  8
0
  6
CONTINUOUS
 10
6.632120
 20
5.739360
  0
VERTEX
  8
0
  6
CONTINUOUS
 10
6.629480
 20
6.735960
  0
VERTEX
  8
0
  6
CONTINUOUS
 10
6.689760
 20
6.707800
  0
VERTEX
  8
0
  6
CONTINUOUS
 10
6.692400
 20
5.711200
  0
VERTEX
  8
0
  6
CONTINUOUS
 10
6.632120
 20
5.739360
  0
SEQEND
  8
0
  0
SOLID
  8
0
 62
    15
 10
6.692400
 20
5.711200
 11
6.689760
 21
6.707800
 12
6.750040
 22
5.692280
 13
6.747400
 23
6.688880
  0
POLYLINE
  8
0
  6
CONTINUOUS
 66
     1
 40
0.000000
 41
0.000000
  0
VERTEX
  8
0
  6
CONTINUOUS
 10
6.692400
 20
5.711200
  0
VERTEX
  8
0
  6
CONTINUOUS
 10
6.689760
 20
6.707800
  0
VERTEX
  8
0
  6
CONTINUOUS
 10
6.747400
 20
6.688880
  0
VERTEX
  8
0
  6
CONTINUOUS
 10
6.750040
 20
5.692280
  0
VERTEX
  8
0
  6
CONTINUOUS
 10
6.692400
 20
5.711200
  0
SEQEND
  8
0
  0
POLYLINE
  8
0
  6
CONTINUOUS
 66
     1
 40
0.000000
 41
0.000000
  0
VERTEX
  8
0
  6
CONTINUOUS
 10
4.614720
 20
5.292320
  0
VERTEX
  8
0
  6
CONTINUOUS
 10
4.614720
 20
6.131840
  0
VERTEX
  8
0
  6
CONTINUOUS
 10
5.530360
 20
6.131840
  0
VERTEX
  8
0
  6
CONTINUOUS
 10
5.766200
 20
5.748160
  0
VERTEX
  8
0
  6
CONTINUOUS
 10
5.790400
 20
5.748160
  0
VERTEX
  8
0
  6
CONTINUOUS
 10
6.006440
 20
6.131840
  0
VERTEX
  8
0
  6
CONTINUOUS
 10
6.366360
 20
6.131840
  0
VERTEX
  8
0
  6
CONTINUOUS
 10
6.374280
 20
6.082560
  0
VERTEX
  8
0
  6
CONTINUOUS
 10
6.385720
 20
6.036800
  0
VERTEX
  8
0
  6
CONTINUOUS
 10
6.400680
 20
5.993680
  0
VERTEX
  8
0
  6
CONTINUOUS
 10
6.418720
 20
5.954080
  0
VERTEX
  8
0
  6
CONTINUOUS
 10
6.462720
 20
5.883680
  0
VERTEX
  8
0
  6
CONTINUOUS
 10
6.514640
 20
5.825160
  0
VERTEX
  8
0
  6
CONTINUOUS
 10
6.571840
 20
5.777200
  0
VERTEX
  8
0
  6
CONTINUOUS
 10
6.632120
 20
5.739360
  0
VERTEX
  8
0
  6
CONTINUOUS
 10
6.692400
 20
5.711200
  0
VERTEX
  8
0
  6
CONTINUOUS
 10
6.750040
 20
5.692280
  0
VERTEX
  8
0
  6
CONTINUOUS
 10
6.750040
 20
5.292320
  0
VERTEX
  8
0
  6
CONTINUOUS
 10
4.614720
 20
5.292320
  0
SEQEND
  8
0
  0
SOLID
  8
0
 62
    15
 10
3.758040
 20
6.990720
 11
3.758480
 21
7.732560
 12
3.814360
 22
6.948480
 13
3.815240
 23
7.690320
  0
POLYLINE
  8
0
  6
CONTINUOUS
 66
     1
 40
0.000000
 41
0.000000
  0
VERTEX
  8
0
  6
CONTINUOUS
 10
3.758040
 20
6.990720
  0
VERTEX
  8
0
  6
CONTINUOUS
 10
3.758480
 20
7.732560
  0
VERTEX
  8
0
  6
CONTINUOUS
 10
3.815240
 20
7.690320
  0
VERTEX
  8
0
  6
CONTINUOUS
 10
3.814360
 20
6.948480
  0
VERTEX
  8
0
  6
CONTINUOUS
 10
3.758040
 20
6.990720
  0
SEQEND
  8
0
  0
SOLID
  8
0
 62
    15
 10
2.093080
 20
7.111280
 11
2.093960
 21
7.853120
 12
2.726240
 22
7.111280
 13
2.727120
 23
7.853120
  0
POLYLINE
  8
0
  6
CONTINUOUS
 66
     1
 40
0.000000
 41
0.000000
  0
VERTEX
  8
0
  6
CONTINUOUS
 10
2.093080
 20
7.111280
  0
VERTEX
  8
0
  6
CONTINUOUS
 10
2.093960
 20
7.853120
  0
VERTEX
  8
0
  6
CONTINUOUS
 10
2.727120
 20
7.853120
  0
VERTEX
  8
0
  6
CONTINUOUS
 10
2.726240
 20
7.111280
  0
VERTEX
  8
0
  6
CONTINUOUS
 10
2.093080
 20
7.111280
  0
SEQEND
  8
0
  0
SOLID
  8
0
 62
    15
 10
2.726240
 20
7.111280
 11
2.727120
 21
7.853120
 12
2.750000
 22
7.053200
 13
2.750880
 23
7.794600
  0
POLYLINE
  8
0
  6
CONTINUOUS
 66
     1
 40
0.000000
 41
0.000000
  0
VERTEX
  8
0
  6
CONTINUOUS
 10
2.726240
 20
7.111280
  0
VERTEX
  8
0
  6
CONTINUOUS
 10
2.727120
 20
7.853120
  0
VERTEX
  8
0
  6
CONTINUOUS
 10
2.750880
 20
7.794600
  0
VERTEX
  8
0
  6
CONTINUOUS
 10
2.750000
 20
7.053200
  0
VERTEX
  8
0
  6
CONTINUOUS
 10
2.726240
 20
7.111280
  0
SEQEND
  8
0
  0
SOLID
  8
0
 62
    15
 10
2.750000
 20
7.053200
 11
2.750880
 21
7.794600
 12
2.785640
 22
6.999520
 13
2.786080
 23
7.741360
  0
POLYLINE
  8
0
  6
CONTINUOUS
 66
     1
 40
0.000000
 41
0.000000
  0
VERTEX
  8
0
  6
CONTINUOUS
 10
2.750000
 20
7.053200
  0
VERTEX
  8
0
  6
CONTINUOUS
 10
2.750880
 20
7.794600
  0
VERTEX
  8
0
  6
CONTINUOUS
 10
2.786080
 20
7.741360
  0
VERTEX
  8
0
  6
CONTINUOUS
 10
2.785640
 20
6.999520
  0
VERTEX
  8
0
  6
CONTINUOUS
 10
2.750000
 20
7.053200
  0
SEQEND
  8
0
  0
SOLID
  8
0
 62
    15
 10
2.785640
 20
6.999520
 11
2.786080
 21
7.741360
 12
2.876280
 22
6.910200
 13
2.876720
 23
7.652040
  0
POLYLINE
  8
0
  6
CONTINUOUS
 66
     1
 40
0.000000
 41
0.000000
  0
VERTEX
  8
0
  6
CONTINUOUS
 10
2.785640
 20
6.999520
  0
VERTEX
  8
0
  6
CONTINUOUS
 10
2.786080
 20
7.741360
  0
VERTEX
  8
0
  6
CONTINUOUS
 10
2.876720
 20
7.652040
  0
VERTEX
  8
0
  6
CONTINUOUS
 10
2.876280
 20
6.910200
  0
VERTEX
  8
0
  6
CONTINUOUS
 10
2.785640
 20
6.999520
  0
SEQEND
  8
0
  0
SOLID
  8
0
 62
    15
 10
2.876280
 20
6.910200
 11
2.876720
 21
7.652040
 12
2.922920
 22
6.875880
 13
2.923800
 23
7.617720
  0
POLYLINE
  8
0
  6
CONTINUOUS
 66
     1
 40
0.000000
 41
0.000000
  0
VERTEX
  8
0
  6
CONTINUOUS
 10
2.876280
 20
6.910200
  0
VERTEX
  8
0
  6
CONTINUOUS
 10
2.876720
 20
7.652040
  0
VERTEX
  8
0
  6
CONTINUOUS
 10
2.923800
 20
7.617720
  0
VERTEX
  8
0
  6
CONTINUOUS
 10
2.922920
 20
6.875880
  0
VERTEX
  8
0
  6
CONTINUOUS
 10
2.876280
 20
6.910200
  0
SEQEND
  8
0
  0
SOLID
  8
0
 62
    15
 10
2.922920
 20
6.875880
 11
2.923800
 21
7.617720
 12
2.965160
 22
6.849480
 13
2.966040
 23
7.591320
  0
POLYLINE
  8
0
  6
CONTINUOUS
 66
     1
 40
0.000000
 41
0.000000
  0
VERTEX
  8
0
  6
CONTINUOUS
 10
2.922920
 20
6.875880
  0
VERTEX
  8
0
  6
CONTINUOUS
 10
2.923800
 20
7.617720
  0
VERTEX
  8
0
  6
CONTINUOUS
 10
2.966040
 20
7.591320
  0
VERTEX
  8
0
  6
CONTINUOUS
 10
2.965160
 20
6.849480
  0
VERTEX
  8
0
  6
CONTINUOUS
 10
2.922920
 20
6.875880
  0
SEQEND
  8
0
  0
SOLID
  8
0
 62
    15
 10
2.965160
 20
6.849480
 11
2.966040
 21
7.591320
 12
2.998600
 22
6.831440
 13
2.999480
 23
7.573280
  0
POLYLINE
  8
0
  6
CONTINUOUS
 66
     1
 40
0.000000
 41
0.000000
  0
VERTEX
  8
0
  6
CONTINUOUS
 10
2.965160
 20
6.849480
  0
VERTEX
  8
0
  6
CONTINUOUS
 10
2.966040
 20
7.591320
  0
VERTEX
  8
0
  6
CONTINUOUS
 10
2.999480
 20
7.573280
  0
VERTEX
  8
0
  6
CONTINUOUS
 10
2.998600
 20
6.831440
  0
VERTEX
  8
0
  6
CONTINUOUS
 10
2.965160
 20
6.849480
  0
SEQEND
  8
0
  0
SOLID
  8
0
 62
    15
 10
2.998600
 20
6.831440
 11
2.999480
 21
7.573280
 12
3.019720
 22
6.822640
 13
3.020160
 23
7.564480
  0
POLYLINE
  8
0
  6
CONTINUOUS
 66
     1
 40
0.000000
 41
0.000000
  0
VERTEX
  8
0
  6
CONTINUOUS
 10
2.998600
 20
6.831440
  0
VERTEX
  8
0
  6
CONTINUOUS
 10
2.999480
 20
7.573280
  0
VERTEX
  8
0
  6
CONTINUOUS
 10
3.020160
 20
7.564480
  0
VERTEX
  8
0
  6
CONTINUOUS
 10
3.019720
 20
6.822640
  0
VERTEX
  8
0
  6
CONTINUOUS
 10
2.998600
 20
6.831440
  0
SEQEND
  8
0
  0
SOLID
  8
0
 62
    15
 10
3.019720
 20
6.822640
 11
3.020160
 21
7.564480
 12
3.133240
 22
6.917240
 13
3.134120
 23
7.659080
  0
POLYLINE
  8
0
  6
CONTINUOUS
 66
     1
 40
0.000000
 41
0.000000
  0
VERTEX
  8
0
  6
CONTINUOUS
 10
3.019720
 20
6.822640
  0
VERTEX
  8
0
  6
CONTINUOUS
 10
3.020160
 20
7.564480
  0
VERTEX
  8
0
  6
CONTINUOUS
 10
3.134120
 20
7.659080
  0
VERTEX
  8
0
  6
CONTINUOUS
 10
3.133240
 20
6.917240
  0
VERTEX
  8
0
  6
CONTINUOUS
 10
3.019720
 20
6.822640
  0
SEQEND
  8
0
  0
SOLID
  8
0
 62
    15
 10
3.133240
 20
6.917240
 11
3.134120
 21
7.659080
 12
3.256000
 22
6.990720
 13
3.256440
 23
7.732560
  0
POLYLINE
  8
0
  6
CONTINUOUS
 66
     1
 40
0.000000
 41
0.000000
  0
VERTEX
  8
0
  6
CONTINUOUS
 10
3.133240
 20
6.917240
  0
VERTEX
  8
0
  6
CONTINUOUS
 10
3.134120
 20
7.659080
  0
VERTEX
  8
0
  6
CONTINUOUS
 10
3.256440
 20
7.732560
  0
VERTEX
  8
0
  6
CONTINUOUS
 10
3.256000
 20
6.990720
  0
VERTEX
  8
0
  6
CONTINUOUS
 10
3.133240
 20
6.917240
  0
SEQEND
  8
0
  0
SOLID
  8
0
 62
    15
 10
3.256000
 20
6.990720
 11
3.256440
 21
7.732560
 12
3.383160
 22
7.039120
 13
3.383600
 23
7.780960
  0
POLYLINE
  8
0
  6
CONTINUOUS
 66
     1
 40
0.000000
 41
0.000000
  0
VERTEX
  8
0
  6
CONTINUOUS
 10
3.256000
 20
6.990720
  0
VERTEX
  8
0
  6
CONTINUOUS
 10
3.256440
 20
7.732560
  0
VERTEX
  8
0
  6
CONTINUOUS
 10
3.383600
 20
7.780960
  0
VERTEX
  8
0
  6
CONTINUOUS
 10
3.383160
 20
7.039120
  0
VERTEX
  8
0
  6
CONTINUOUS
 10
3.256000
 20
6.990720
  0
SEQEND
  8
0
  0
SOLID
  8
0
 62
    15
 10
3.383160
 20
7.039120
 11
3.383600
 21
7.780960
 12
3.511640
 22
7.058480
 13
3.512520
 23
7.800320
  0
POLYLINE
  8
0
  6
CONTINUOUS
 66
     1
 40
0.000000
 41
0.000000
  0
VERTEX
  8
0
  6
CONTINUOUS
 10
3.383160
 20
7.039120
  0
VERTEX
  8
0
  6
CONTINUOUS
 10
3.383600
 20
7.780960
  0
VERTEX
  8
0
  6
CONTINUOUS
 10
3.512520
 20
7.800320
  0
VERTEX
  8
0
  6
CONTINUOUS
 10
3.511640
 20
7.058480
  0
VERTEX
  8
0
  6
CONTINUOUS
 10
3.383160
 20
7.039120
  0
SEQEND
  8
0
  0
SOLID
  8
0
 62
    15
 10
3.511640
 20
7.058480
 11
3.512520
 21
7.800320
 12
3.575440
 22
7.055400
 13
3.575880
 23
7.797240
  0
POLYLINE
  8
0
  6
CONTINUOUS
 66
     1
 40
0.000000
 41
0.000000
  0
VERTEX
  8
0
  6
CONTINUOUS
 10
3.511640
 20
7.058480
  0
VERTEX
  8
0
  6
CONTINUOUS
 10
3.512520
 20
7.800320
  0
VERTEX
  8
0
  6
CONTINUOUS
 10
3.575880
 20
7.797240
  0
VERTEX
  8
0
  6
CONTINUOUS
 10
3.575440
 20
7.055400
  0
VERTEX
  8
0
  6
CONTINUOUS
 10
3.511640
 20
7.058480
  0
SEQEND
  8
0
  0
SOLID
  8
0
 62
    15
 10
3.575440
 20
7.055400
 11
3.575880
 21
7.797240
 12
3.637920
 22
7.043520
 13
3.638800
 23
7.785360
  0
POLYLINE
  8
0
  6
CONTINUOUS
 66
     1
 40
0.000000
 41
0.000000
  0
VERTEX
  8
0
  6
CONTINUOUS
 10
3.575440
 20
7.055400
  0
VERTEX
  8
0
  6
CONTINUOUS
 10
3.575880
 20
7.797240
  0
VERTEX
  8
0
  6
CONTINUOUS
 10
3.638800
 20
7.785360
  0
VERTEX
  8
0
  6
CONTINUOUS
 10
3.637920
 20
7.043520
  0
VERTEX
  8
0
  6
CONTINUOUS
 10
3.575440
 20
7.055400
  0
SEQEND
  8
0
  0
SOLID
  8
0
 62
    15
 10
3.637920
 20
7.043520
 11
3.638800
 21
7.785360
 12
3.699080
 22
7.021960
 13
3.699520
 23
7.763800
  0
POLYLINE
  8
0
  6
CONTINUOUS
 66
     1
 40
0.000000
 41
0.000000
  0
VERTEX
  8
0
  6
CONTINUOUS
 10
3.637920
 20
7.043520
  0
VERTEX
  8
0
  6
CONTINUOUS
 10
3.638800
 20
7.785360
  0
VERTEX
  8
0
  6
CONTINUOUS
 10
3.699520
 20
7.763800
  0
VERTEX
  8
0
  6
CONTINUOUS
 10
3.699080
 20
7.021960
  0
VERTEX
  8
0
  6
CONTINUOUS
 10
3.637920
 20
7.043520
  0
SEQEND
  8
0
  0
SOLID
  8
0
 62
    15
 10
3.699080
 20
7.021960
 11
3.699520
 21
7.763800
 12
3.758040
 22
6.990720
 13
3.758480
 23
7.732560
  0
POLYLINE
  8
0
  6
CONTINUOUS
 66
     1
 40
0.000000
 41
0.000000
  0
VERTEX
  8
0
  6
CONTINUOUS
 10
3.699080
 20
7.021960
  0
VERTEX
  8
0
  6
CONTINUOUS
 10
3.699520
 20
7.763800
  0
VERTEX
  8
0
  6
CONTINUOUS
 10
3.758480
 20
7.732560
  0
VERTEX
  8
0
  6
CONTINUOUS
 10
3.758040
 20
6.990720
  0
VERTEX
  8
0
  6
CONTINUOUS
 10
3.699080
 20
7.021960
  0
SEQEND
  8
0
  0
SOLID
  8
0
 62
    15
 10
4.617800
 20
6.131400
 11
4.618680
 21
6.873240
 12
4.617800
 22
5.291440
 13
4.618680
 23
6.033280
  0
POLYLINE
  8
0
  6
CONTINUOUS
 66
     1
 40
0.000000
 41
0.000000
  0
VERTEX
  8
0
  6
CONTINUOUS
 10
4.617800
 20
6.131400
  0
VERTEX
  8
0
  6
CONTINUOUS
 10
4.618680
 20
6.873240
  0
VERTEX
  8
0
  6
CONTINUOUS
 10
4.618680
 20
6.033280
  0
VERTEX
  8
0
  6
CONTINUOUS
 10
4.617800
 20
5.291440
  0
VERTEX
  8
0
  6
CONTINUOUS
 10
4.617800
 20
6.131400
  0
SEQEND
  8
0
  0
SOLID
  8
0
 62
    15
 10
3.814360
 20
6.948480
 11
3.815240
 21
7.690320
 12
3.868040
 22
6.895240
 13
3.868920
 23
7.637080
  0
POLYLINE
  8
0
  6
CONTINUOUS
 66
     1
 40
0.000000
 41
0.000000
  0
VERTEX
  8
0
  6
CONTINUOUS
 10
3.814360
 20
6.948480
  0
VERTEX
  8
0
  6
CONTINUOUS
 10
3.815240
 20
7.690320
  0
VERTEX
  8
0
  6
CONTINUOUS
 10
3.868920
 20
7.637080
  0
VERTEX
  8
0
  6
CONTINUOUS
 10
3.868040
 20
6.895240
  0
VERTEX
  8
0
  6
CONTINUOUS
 10
3.814360
 20
6.948480
  0
SEQEND
  8
0
  0
SOLID
  8
0
 62
    15
 10
3.868040
 20
6.895240
 11
3.868920
 21
7.637080
 12
3.918200
 22
6.830120
 13
3.919080
 23
7.571960
  0
POLYLINE
  8
0
  6
CONTINUOUS
 66
     1
 40
0.000000
 41
0.000000
  0
VERTEX
  8
0
  6
CONTINUOUS
 10
3.868040
 20
6.895240
  0
VERTEX
  8
0
  6
CONTINUOUS
 10
3.868920
 20
7.637080
  0
VERTEX
  8
0
  6
CONTINUOUS
 10
3.919080
 20
7.571960
  0
VERTEX
  8
0
  6
CONTINUOUS
 10
3.918200
 20
6.830120
  0
VERTEX
  8
0
  6
CONTINUOUS
 10
3.868040
 20
6.895240
  0
SEQEND
  8
0
  0
SOLID
  8
0
 62
    15
 10
3.918200
 20
6.830120
 11
3.919080
 21
7.571960
 12
3.964840
 22
6.752680
 13
3.965280
 23
7.494520
  0
POLYLINE
  8
0
  6
CONTINUOUS
 66
     1
 40
0.000000
 41
0.000000
  0
VERTEX
  8
0
  6
CONTINUOUS
 10
3.918200
 20
6.830120
  0
VERTEX
  8
0
  6
CONTINUOUS
 10
3.919080
 20
7.571960
  0
VERTEX
  8
0
  6
CONTINUOUS
 10
3.965280
 20
7.494520
  0
VERTEX
  8
0
  6
CONTINUOUS
 10
3.964840
 20
6.752680
  0
VERTEX
  8
0
  6
CONTINUOUS
 10
3.918200
 20
6.830120
  0
SEQEND
  8
0
  0
SOLID
  8
0
 62
    15
 10
3.964840
 20
6.752680
 11
3.965280
 21
7.494520
 12
4.008840
 22
6.675680
 13
4.009280
 23
7.417520
  0
POLYLINE
  8
0
  6
CONTINUOUS
 66
     1
 40
0.000000
 41
0.000000
  0
VERTEX
  8
0
  6
CONTINUOUS
 10
3.964840
 20
6.752680
  0
VERTEX
  8
0
  6
CONTINUOUS
 10
3.965280
 20
7.494520
  0
VERTEX
  8
0
  6
CONTINUOUS
 10
4.009280
 20
7.417520
  0
VERTEX
  8
0
  6
CONTINUOUS
 10
4.008840
 20
6.675680
  0
VERTEX
  8
0
  6
CONTINUOUS
 10
3.964840
 20
6.752680
  0
SEQEND
  8
0
  0
SOLID
  8
0
 62
    15
 10
4.008840
 20
6.675680
 11
4.009280
 21
7.417520
 12
4.052400
 22
6.612320
 13
4.052840
 23
7.354160
  0
POLYLINE
  8
0
  6
CONTINUOUS
 66
     1
 40
0.000000
 41
0.000000
  0
VERTEX
  8
0
  6
CONTINUOUS
 10
4.008840
 20
6.675680
  0
VERTEX
  8
0
  6
CONTINUOUS
 10
4.009280
 20
7.417520
  0
VERTEX
  8
0
  6
CONTINUOUS
 10
4.052840
 20
7.354160
  0
VERTEX
  8
0
  6
CONTINUOUS
 10
4.052400
 20
6.612320
  0
VERTEX
  8
0
  6
CONTINUOUS
 10
4.008840
 20
6.675680
  0
SEQEND
  8
0
  0
SOLID
  8
0
 62
    15
 10
4.052400
 20
6.612320
 11
4.052840
 21
7.354160
 12
4.095080
 22
6.561280
 13
4.095520
 23
7.302680
  0
POLYLINE
  8
0
  6
CONTINUOUS
 66
     1
 40
0.000000
 41
0.000000
  0
VERTEX
  8
0
  6
CONTINUOUS
 10
4.052400
 20
6.612320
  0
VERTEX
  8
0
  6
CONTINUOUS
 10
4.052840
 20
7.354160
  0
VERTEX
  8
0
  6
CONTINUOUS
 10
4.095520
 20
7.302680
  0
VERTEX
  8
0
  6
CONTINUOUS
 10
4.095080
 20
6.561280
  0
VERTEX
  8
0
  6
CONTINUOUS
 10
4.052400
 20
6.612320
  0
SEQEND
  8
0
  0
SOLID
  8
0
 62
    15
 10
4.095080
 20
6.561280
 11
4.095520
 21
7.302680
 12
4.137320
 22
6.521240
 13
4.137760
 23
7.263080
  0
POLYLINE
  8
0
  6
CONTINUOUS
 66
     1
 40
0.000000
 41
0.000000
  0
VERTEX
  8
0
  6
CONTINUOUS
 10
4.095080
 20
6.561280
  0
VERTEX
  8
0
  6
CONTINUOUS
 10
4.095520
 20
7.302680
  0
VERTEX
  8
0
  6
CONTINUOUS
 10
4.137760
 20
7.263080
  0
VERTEX
  8
0
  6
CONTINUOUS
 10
4.137320
 20
6.521240
  0
VERTEX
  8
0
  6
CONTINUOUS
 10
4.095080
 20
6.561280
  0
SEQEND
  8
0
  0
SOLID
  8
0
 62
    15
 10
4.137320
 20
6.521240
 11
4.137760
 21
7.263080
 12
4.178680
 22
6.491760
 13
4.179120
 23
7.233600
  0
POLYLINE
  8
0
  6
CONTINUOUS
 66
     1
 40
0.000000
 41
0.000000
  0
VERTEX
  8
0
  6
CONTINUOUS
 10
4.137320
 20
6.521240
  0
VERTEX
  8
0
  6
CONTINUOUS
 10
4.137760
 20
7.263080
  0
VERTEX
  8
0
  6
CONTINUOUS
 10
4.179120
 20
7.233600
  0
VERTEX
  8
0
  6
CONTINUOUS
 10
4.178680
 20
6.491760
  0
VERTEX
  8
0
  6
CONTINUOUS
 10
4.137320
 20
6.521240
  0
SEQEND
  8
0
  0
SOLID
  8
0
 62
    15
 10
4.178680
 20
6.491760
 11
4.179120
 21
7.233600
 12
4.219160
 22
6.471520
 13
4.219600
 23
7.213360
  0
POLYLINE
  8
0
  6
CONTINUOUS
 66
     1
 40
0.000000
 41
0.000000
  0
VERTEX
  8
0
  6
CONTINUOUS
 10
4.178680
 20
6.491760
  0
VERTEX
  8
0
  6
CONTINUOUS
 10
4.179120
 20
7.233600
  0
VERTEX
  8
0
  6
CONTINUOUS
 10
4.219600
 20
7.213360
  0
VERTEX
  8
0
  6
CONTINUOUS
 10
4.219160
 20
6.471520
  0
VERTEX
  8
0
  6
CONTINUOUS
 10
4.178680
 20
6.491760
  0
SEQEND
  8
0
  0
SOLID
  8
0
 62
    15
 10
4.219160
 20
6.471520
 11
4.219600
 21
7.213360
 12
4.297040
 22
6.456120
 13
4.297920
 23
7.197960
  0
POLYLINE
  8
0
  6
CONTINUOUS
 66
     1
 40
0.000000
 41
0.000000
  0
VERTEX
  8
0
  6
CONTINUOUS
 10
4.219160
 20
6.471520
  0
VERTEX
  8
0
  6
CONTINUOUS
 10
4.219600
 20
7.213360
  0
VERTEX
  8
0
  6
CONTINUOUS
 10
4.297920
 20
7.197960
  0
VERTEX
  8
0
  6
CONTINUOUS
 10
4.297040
 20
6.456120
  0
VERTEX
  8
0
  6
CONTINUOUS
 10
4.219160
 20
6.471520
  0
SEQEND
  8
0
  0
SOLID
  8
0
 62
    15
 10
4.297040
 20
6.456120
 11
4.297920
 21
7.197960
 12
4.371400
 22
6.467560
 13
4.371840
 23
7.209400
  0
POLYLINE
  8
0
  6
CONTINUOUS
 66
     1
 40
0.000000
 41
0.000000
  0
VERTEX
  8
0
  6
CONTINUOUS
 10
4.297040
 20
6.456120
  0
VERTEX
  8
0
  6
CONTINUOUS
 10
4.297920
 20
7.197960
  0
VERTEX
  8
0
  6
CONTINUOUS
 10
4.371840
 20
7.209400
  0
VERTEX
  8
0
  6
CONTINUOUS
 10
4.371400
 20
6.467560
  0
VERTEX
  8
0
  6
CONTINUOUS
 10
4.297040
 20
6.456120
  0
SEQEND
  8
0
  0
SOLID
  8
0
 62
    15
 10
4.371400
 20
6.467560
 11
4.371840
 21
7.209400
 12
4.440920
 22
6.497920
 13
4.441360
 23
7.239760
  0
POLYLINE
  8
0
  6
CONTINUOUS
 66
     1
 40
0.000000
 41
0.000000
  0
VERTEX
  8
0
  6
CONTINUOUS
 10
4.371400
 20
6.467560
  0
VERTEX
  8
0
  6
CONTINUOUS
 10
4.371840
 20
7.209400
  0
VERTEX
  8
0
  6
CONTINUOUS
 10
4.441360
 20
7.239760
  0
VERTEX
  8
0
  6
CONTINUOUS
 10
4.440920
 20
6.497920
  0
VERTEX
  8
0
  6
CONTINUOUS
 10
4.371400
 20
6.467560
  0
SEQEND
  8
0
  0
SOLID
  8
0
 62
    15
 10
4.440920
 20
6.497920
 11
4.441360
 21
7.239760
 12
4.564120
 22
6.586360
 13
4.564560
 23
7.328200
  0
POLYLINE
  8
0
  6
CONTINUOUS
 66
     1
 40
0.000000
 41
0.000000
  0
VERTEX
  8
0
  6
CONTINUOUS
 10
4.440920
 20
6.497920
  0
VERTEX
  8
0
  6
CONTINUOUS
 10
4.441360
 20
7.239760
  0
VERTEX
  8
0
  6
CONTINUOUS
 10
4.564560
 20
7.328200
  0
VERTEX
  8
0
  6
CONTINUOUS
 10
4.564120
 20
6.586360
  0
VERTEX
  8
0
  6
CONTINUOUS
 10
4.440920
 20
6.497920
  0
SEQEND
  8
0
  0
SOLID
  8
0
 62
    15
 10
4.867280
 20
6.394960
 11
4.867720
 21
7.136800
 12
4.867280
 22
6.132720
 13
4.867720
 23
6.874560
  0
POLYLINE
  8
0
  6
CONTINUOUS
 66
     1
 40
0.000000
 41
0.000000
  0
VERTEX
  8
0
  6
CONTINUOUS
 10
4.867280
 20
6.394960
  0
VERTEX
  8
0
  6
CONTINUOUS
 10
4.867720
 20
7.136800
  0
VERTEX
  8
0
  6
CONTINUOUS
 10
4.867720
 20
6.874560
  0
VERTEX
  8
0
  6
CONTINUOUS
 10
4.867280
 20
6.132720
  0
VERTEX
  8
0
  6
CONTINUOUS
 10
4.867280
 20
6.394960
  0
SEQEND
  8
0
  0
SOLID
  8
0
 62
    15
 10
4.617800
 20
6.132720
 11
4.618680
 21
6.874560
 12
4.617800
 22
5.293200
 13
4.618680
 23
6.035040
  0
POLYLINE
  8
0
  6
CONTINUOUS
 66
     1
 40
0.000000
 41
0.000000
  0
VERTEX
  8
0
  6
CONTINUOUS
 10
4.617800
 20
6.132720
  0
VERTEX
  8
0
  6
CONTINUOUS
 10
4.618680
 20
6.874560
  0
VERTEX
  8
0
  6
CONTINUOUS
 10
4.618680
 20
6.035040
  0
VERTEX
  8
0
  6
CONTINUOUS
 10
4.617800
 20
5.293200
  0
VERTEX
  8
0
  6
CONTINUOUS
 10
4.617800
 20
6.132720
  0
SEQEND
  8
0
  0
SOLID
  8
0
 62
    15
 10
4.564120
 20
6.586360
 11
4.564560
 21
7.328200
 12
4.867280
 22
6.394960
 13
4.867720
 23
7.136800
  0
POLYLINE
  8
0
  6
CONTINUOUS
 66
     1
 40
0.000000
 41
0.000000
  0
VERTEX
  8
0
  6
CONTINUOUS
 10
4.564120
 20
6.586360
  0
VERTEX
  8
0
  6
CONTINUOUS
 10
4.564560
 20
7.328200
  0
VERTEX
  8
0
  6
CONTINUOUS
 10
4.867720
 20
7.136800
  0
VERTEX
  8
0
  6
CONTINUOUS
 10
4.867280
 20
6.394960
  0
VERTEX
  8
0
  6
CONTINUOUS
 10
4.564120
 20
6.586360
  0
SEQEND
  8
0
  0
POLYLINE
  8
0
  6
CONTINUOUS
 66
     1
 40
0.000000
 41
0.000000
  0
VERTEX
  8
0
  6
CONTINUOUS
 10
4.617800
 20
6.131400
  0
VERTEX
  8
0
  6
CONTINUOUS
 10
4.617800
 20
5.291440
  0
VERTEX
  8
0
  6
CONTINUOUS
 10
2.093080
 20
5.291440
  0
VERTEX
  8
0
  6
CONTINUOUS
 10
2.093080
 20
7.111280
  0
VERTEX
  8
0
  6
CONTINUOUS
 10
2.726240
 20
7.111280
  0
VERTEX
  8
0
  6
CONTINUOUS
 10
2.750000
 20
7.053200
  0
VERTEX
  8
0
  6
CONTINUOUS
 10
2.785640
 20
6.999520
  0
VERTEX
  8
0
  6
CONTINUOUS
 10
2.876280
 20
6.910200
  0
VERTEX
  8
0
  6
CONTINUOUS
 10
2.922920
 20
6.875880
  0
VERTEX
  8
0
  6
CONTINUOUS
 10
2.965160
 20
6.849480
  0
VERTEX
  8
0
  6
CONTINUOUS
 10
2.998600
 20
6.831440
  0
VERTEX
  8
0
  6
CONTINUOUS
 10
3.019720
 20
6.822640
  0
VERTEX
  8
0
  6
CONTINUOUS
 10
3.133240
 20
6.917240
  0
VERTEX
  8
0
  6
CONTINUOUS
 10
3.256000
 20
6.990720
  0
VERTEX
  8
0
  6
CONTINUOUS
 10
3.383160
 20
7.039120
  0
VERTEX
  8
0
  6
CONTINUOUS
 10
3.511640
 20
7.058480
  0
VERTEX
  8
0
  6
CONTINUOUS
 10
3.575440
 20
7.055400
  0
VERTEX
  8
0
  6
CONTINUOUS
 10
3.637920
 20
7.043520
  0
VERTEX
  8
0
  6
CONTINUOUS
 10
3.699080
 20
7.021960
  0
VERTEX
  8
0
  6
CONTINUOUS
 10
3.758040
 20
6.990720
  0
VERTEX
  8
0
  6
CONTINUOUS
 10
3.814360
 20
6.948480
  0
VERTEX
  8
0
  6
CONTINUOUS
 10
3.868040
 20
6.895240
  0
VERTEX
  8
0
  6
CONTINUOUS
 10
3.918200
 20
6.830120
  0
VERTEX
  8
0
  6
CONTINUOUS
 10
3.964840
 20
6.752680
  0
VERTEX
  8
0
  6
CONTINUOUS
 10
4.008840
 20
6.675680
  0
VERTEX
  8
0
  6
CONTINUOUS
 10
4.052400
 20
6.612320
  0
VERTEX
  8
0
  6
CONTINUOUS
 10
4.095080
 20
6.561280
  0
VERTEX
  8
0
  6
CONTINUOUS
 10
4.137320
 20
6.521240
  0
VERTEX
  8
0
  6
CONTINUOUS
 10
4.178680
 20
6.491760
  0
VERTEX
  8
0
  6
CONTINUOUS
 10
4.219160
 20
6.471520
  0
VERTEX
  8
0
  6
CONTINUOUS
 10
4.297040
 20
6.456120
  0
VERTEX
  8
0
  6
CONTINUOUS
 10
4.371400
 20
6.467560
  0
VERTEX
  8
0
  6
CONTINUOUS
 10
4.440920
 20
6.497920
  0
VERTEX
  8
0
  6
CONTINUOUS
 10
4.564120
 20
6.586360
  0
VERTEX
  8
0
  6
CONTINUOUS
 10
4.867280
 20
6.394960
  0
VERTEX
  8
0
  6
CONTINUOUS
 10
4.867280
 20
6.132720
  0
VERTEX
  8
0
  6
CONTINUOUS
 10
4.617800
 20
6.132720
  0
VERTEX
  8
0
  6
CONTINUOUS
 10
4.617800
 20
5.293200
  0
VERTEX
  8
0
  6
CONTINUOUS
 10
4.617800
 20
6.131400
  0
SEQEND
  8
0
  0
TEXT
  8
0
 10
3.586000
 20
5.035360
 40
0.138033
  1
BA  774A 1-13/16" x 2-3/4"
 41
1.000000
  7
SN0
 71
     0
 72
     5
 11
5.563658
 21
5.035360
  0
TEXT
  8
0
 10
3.586000
 20
4.843520
 40
0.138033
  1
BA  774B  7/8" x 2-1/8"
 41
1.000000
  7
SN0
 71
     0
 72
     5
 11
5.278295
 21
4.843520
  0
TEXT
  8
0
 10
2.268640
 20
5.376360
 40
0.138033
  1
A
 41
1.000000
  7
SN0
 71
     0
 72
     5
 11
2.379744
 21
5.376360
  0
TEXT
  8
0
 10
4.792480
 20
5.376360
 40
0.138033
  1
B
 41
1.000000
  7
SN0
 71
     0
 72
     5
 11
4.903584
 21
5.376360
  0
POLYLINE
  8
0
  6
CONTINUOUS
 66
     1
 40
0.000000
 41
0.000000
  0
VERTEX
  8
0
  6
CONTINUOUS
 10
1.964600
 20
2.523840
  0
VERTEX
  8
0
  6
CONTINUOUS
 10
1.964600
 20
4.342360
  0
VERTEX
  8
0
  6
CONTINUOUS
 10
2.596440
 20
4.342360
  0
VERTEX
  8
0
  6
CONTINUOUS
 10
2.618880
 20
4.295280
  0
VERTEX
  8
0
  6
CONTINUOUS
 10
2.646160
 20
4.252600
  0
VERTEX
  8
0
  6
CONTINUOUS
 10
2.665960
 20
4.225760
  0
VERTEX
  8
0
  6
CONTINUOUS
 10
2.686640
 20
4.201120
  0
VERTEX
  8
0
  6
CONTINUOUS
 10
2.730640
 20
4.157560
  0
VERTEX
  8
0
  6
CONTINUOUS
 10
2.774640
 20
4.120600
  0
VERTEX
  8
0
  6
CONTINUOUS
 10
2.816000
 20
4.091560
  0
VERTEX
  8
0
  6
CONTINUOUS
 10
2.867040
 20
4.062080
  0
VERTEX
  8
0
  6
CONTINUOUS
 10
2.889480
 20
4.052400
  0
VERTEX
  8
0
  6
CONTINUOUS
 10
2.933920
 20
4.092880
  0
VERTEX
  8
0
  6
CONTINUOUS
 10
2.983200
 20
4.132040
  0
VERTEX
  8
0
  6
CONTINUOUS
 10
3.036880
 20
4.169000
  0
VERTEX
  8
0
  6
CONTINUOUS
 10
3.094080
 20
4.202880
  0
VERTEX
  8
0
  6
CONTINUOUS
 10
3.154800
 20
4.232800
  0
VERTEX
  8
0
  6
CONTINUOUS
 10
3.217280
 20
4.257000
  0
VERTEX
  8
0
  6
CONTINUOUS
 10
3.249400
 20
4.267120
  0
VERTEX
  8
0
  6
CONTINUOUS
 10
3.281520
 20
4.275480
  0
VERTEX
  8
0
  6
CONTINUOUS
 10
3.314080
 20
4.282080
  0
VERTEX
  8
0
  6
CONTINUOUS
 10
3.347080
 20
4.286480
  0
VERTEX
  8
0
  6
CONTINUOUS
 10
3.380080
 20
4.289120
  0
VERTEX
  8
0
  6
CONTINUOUS
 10
3.413080
 20
4.289120
  0
VERTEX
  8
0
  6
CONTINUOUS
 10
3.445640
 20
4.287360
  0
VERTEX
  8
0
  6
CONTINUOUS
 10
3.478640
 20
4.282960
  0
VERTEX
  8
0
  6
CONTINUOUS
 10
3.511200
 20
4.275920
  0
VERTEX
  8
0
  6
CONTINUOUS
 10
3.559160
 20
4.260080
  0
VERTEX
  8
0
  6
CONTINUOUS
 10
3.606680
 20
4.237640
  0
VERTEX
  8
0
  6
CONTINUOUS
 10
3.652440
 20
4.208600
  0
VERTEX
  8
0
  6
CONTINUOUS
 10
3.682360
 20
4.185280
  0
VERTEX
  8
0
  6
CONTINUOUS
 10
3.725920
 20
4.143480
  0
VERTEX
  8
0
  6
CONTINUOUS
 10
3.767280
 20
4.093320
  0
VERTEX
  8
0
  6
CONTINUOUS
 10
3.806440
 20
4.035240
  0
VERTEX
  8
0
  6
CONTINUOUS
 10
3.867160
 20
3.927000
  0
VERTEX
  8
0
  6
CONTINUOUS
 10
3.902800
 20
3.871560
  0
VERTEX
  8
0
  6
CONTINUOUS
 10
3.938000
 20
3.824920
  0
VERTEX
  8
0
  6
CONTINUOUS
 10
3.972320
 20
3.785760
  0
VERTEX
  8
0
  6
CONTINUOUS
 10
4.017640
 20
3.745280
  0
VERTEX
  8
0
  6
CONTINUOUS
 10
4.050640
 20
3.722840
  0
VERTEX
  8
0
  6
CONTINUOUS
 10
4.083200
 20
3.706120
  0
VERTEX
  8
0
  6
CONTINUOUS
 10
4.104320
 20
3.698200
  0
VERTEX
  8
0
  6
CONTINUOUS
 10
4.145680
 20
3.689400
  0
VERTEX
  8
0
  6
CONTINUOUS
 10
4.165920
 20
3.688080
  0
VERTEX
  8
0
  6
CONTINUOUS
 10
4.205080
 20
3.690280
  0
VERTEX
  8
0
  6
CONTINUOUS
 10
4.242040
 20
3.699080
  0
VERTEX
  8
0
  6
CONTINUOUS
 10
4.277680
 20
3.712280
  0
VERTEX
  8
0
  6
CONTINUOUS
 10
4.311120
 20
3.729000
  0
VERTEX
  8
0
  6
CONTINUOUS
 10
4.357320
 20
3.758040
  0
VERTEX
  8
0
  6
CONTINUOUS
 10
4.433880
 20
3.813920
  0
VERTEX
  8
0
  6
CONTINUOUS
 10
4.736600
 20
3.626920
  0
VERTEX
  8
0
  6
CONTINUOUS
 10
4.736600
 20
3.362040
  0
VERTEX
  8
0
  6
CONTINUOUS
 10
4.491960
 20
3.362040
  0
VERTEX
  8
0
  6
CONTINUOUS
 10
4.491960
 20
2.523840
  0
VERTEX
  8
0
  6
CONTINUOUS
 10
1.964600
 20
2.523840
  0
SEQEND
  8
0
  0
POLYLINE
  8
0
  6
CONTINUOUS
 66
     1
 40
0.000000
 41
0.000000
  0
VERTEX
  8
0
  6
CONTINUOUS
 10
4.839560
 20
2.522520
  0
VERTEX
  8
0
  6
CONTINUOUS
 10
4.839560
 20
3.364240
  0
VERTEX
  8
0
  6
CONTINUOUS
 10
5.749480
 20
3.364240
  0
VERTEX
  8
0
  6
CONTINUOUS
 10
5.985760
 20
2.980120
  0
VERTEX
  8
0
  6
CONTINUOUS
 10
6.009520
 20
2.980120
  0
VERTEX
  8
0
  6
CONTINUOUS
 10
6.226000
 20
3.364240
  0
VERTEX
  8
0
  6
CONTINUOUS
 10
6.586360
 20
3.364240
  0
VERTEX
  8
0
  6
CONTINUOUS
 10
6.589440
 20
3.339600
  0
VERTEX
  8
0
  6
CONTINUOUS
 10
6.593840
 20
3.315400
  0
VERTEX
  8
0
  6
CONTINUOUS
 10
6.599120
 20
3.292080
  0
VERTEX
  8
0
  6
CONTINUOUS
 10
6.605280
 20
3.269640
  0
VERTEX
  8
0
  6
CONTINUOUS
 10
6.611880
 20
3.248080
  0
VERTEX
  8
0
  6
CONTINUOUS
 10
6.619800
 20
3.227400
  0
VERTEX
  8
0
  6
CONTINUOUS
 10
6.628160
 20
3.207160
  0
VERTEX
  8
0
  6
CONTINUOUS
 10
6.637400
 20
3.187800
  0
VERTEX
  8
0
  6
CONTINUOUS
 10
6.647080
 20
3.169320
  0
VERTEX
  8
0
  6
CONTINUOUS
 10
6.657640
 20
3.151280
  0
VERTEX
  8
0
  6
CONTINUOUS
 10
6.668640
 20
3.134120
  0
VERTEX
  8
0
  6
CONTINUOUS
 10
6.680520
 20
3.117840
  0
VERTEX
  8
0
  6
CONTINUOUS
 10
6.692840
 20
3.102000
  0
VERTEX
  8
0
  6
CONTINUOUS
 10
6.705160
 20
3.087040
  0
VERTEX
  8
0
  6
CONTINUOUS
 10
6.718360
 20
3.072520
  0
VERTEX
  8
0
  6
CONTINUOUS
 10
6.732000
 20
3.058880
  0
VERTEX
  8
0
  6
CONTINUOUS
 10
6.745640
 20
3.046120
  0
VERTEX
  8
0
  6
CONTINUOUS
 10
6.759720
 20
3.033800
  0
VERTEX
  8
0
  6
CONTINUOUS
 10
6.774240
 20
3.022360
  0
VERTEX
  8
0
  6
CONTINUOUS
 10
6.789200
 20
3.011360
  0
VERTEX
  8
0
  6
CONTINUOUS
 10
6.803720
 20
3.000800
  0
VERTEX
  8
0
  6
CONTINUOUS
 10
6.819120
 20
2.991120
  0
VERTEX
  8
0
  6
CONTINUOUS
 10
6.849480
 20
2.973520
  0
VERTEX
  8
0
  6
CONTINUOUS
 10
6.879840
 20
2.958120
  0
VERTEX
  8
0
  6
CONTINUOUS
 10
6.910200
 20
2.944920
  0
VERTEX
  8
0
  6
CONTINUOUS
 10
6.940120
 20
2.934360
  0
VERTEX
  8
0
  6
CONTINUOUS
 10
6.969160
 20
2.925560
  0
VERTEX
  8
0
  6
CONTINUOUS
 10
6.969160
 20
2.524280
  0
VERTEX
  8
0
  6
CONTINUOUS
 10
4.839560
 20
2.524280
  0
SEQEND
  8
0
  0
TEXT
  8
0
 10
3.280640
 20
2.233880
 40
0.138033
  1
BA  774A 1-13/16" x 2-3/4"
 41
1.000000
  7
SN0
 71
     0
 72
     5
 11
5.258298
 21
2.233880
  0
TEXT
  8
0
 10
3.280640
 20
2.042040
 40
0.138033
  1
BA  774B  7/8" x 2-1/8"
 41
1.000000
  7
SN0
 71
     0
 72
     5
 11
4.972935
 21
2.042040
  0
TEXT
  8
0
 10
2.012560
 20
2.605240
 40
0.138033
  1
A
 41
1.000000
  7
SN0
 71
     0
 72
     5
 11
2.123664
 21
2.605240
  0
TEXT
  8
0
 10
4.918760
 20
2.610960
 40
0.138033
  1
B
 41
1.000000
  7
SN0
 71
     0
 72
     5
 11
5.029864
 21
2.610960
  0
ENDSEC
  0
EOF
