  0
SECTION
  2
HEADER
  9
$ACADVER
  1
AC1006
  9
$EXTMIN
 10
-0.021144
 20
-0.006607
  9
$EXTMAX
 10
8.521427
 20
11.006274
  9
$LTSCALE
 40
0.044050
  9
$PDMODE
 70
    35
  9
$PDSIZE
 40
0.035240
  0
ENDSEC
  0
SECTION
  2
TABLES
  0
TABLE
  2
LTYPE
 70
     9
  0
LTYPE
  2
CONTINUOUS
 70
    64
  3
Solid line
 72
    65
 73
     0
 40
0.000000
  0
LTYPE
  2
DASHED
 70
    64
  3
__ __ __ __ __ __ __ __ __ __ __ __ __ __ __
 72
    65
 73
     2
 40
0.000330
 49
0.000220
 49
-0.000110
  0
LTYPE
  2
HIDDEN
 70
    64
  3
 _ _ _ _ _ _ _ _ _ _ _ _ _ _ _ _ _ _ _ _ _ _
 72
    65
 73
     2
 40
0.000165
 49
0.000110
 49
-0.000055
  0
LTYPE
  2
CENTER
 70
    64
  3
____ _ ____ _ ____ _ ____ _ ____ _ ____ _ ____
 72
    65
 73
     4
 40
0.000881
 49
0.000551
 49
-0.000110
 49
0.000110
 49
-0.000110
  0
LTYPE
  2
PHANTOM
 70
    64
  3
_____ _ _ _____ _ _ _____ _ _ _____ _ _ ____
 72
    65
 73
     6
 40
0.001101
 49
0.000551
 49
-0.000110
 49
0.000110
 49
-0.000110
 49
0.000110
 49
-0.000110
  0
LTYPE
  2
DOT
 70
    64
  3
...............................................
 72
    65
 73
     2
 40
0.000110
 49
0.000000
 49
-0.000110
  0
LTYPE
  2
DASHDOT
 70
    64
  3
__ . __ . __ . __ . __ . __ . __ . __ . __ . __
 72
    65
 73
     4
 40
0.000440
 49
0.000220
 49
-0.000110
 49
0.000000
 49
-0.000110
  0
LTYPE
  2
BORDER
 70
    64
  3
__ __ . __ __ . __ __ . __ __ . __ __ . __ __
 72
    65
 73
     6
 40
0.000771
 49
0.000220
 49
-0.000110
 49
0.000220
 49
-0.000110
 49
0.000000
 49
-0.000110
  0
LTYPE
  2
DIVIDE
 70
    64
  3
__ . . __ . . __ . . __ . . __ . . __ . . __
 72
    65
 73
     6
 40
0.000551
 49
0.000220
 49
-0.000110
 49
0.000000
 49
-0.000110
 49
0.000000
 49
-0.000110
  0
LTYPE
  2
DOTDOT
 70
    64
  3
 . .  . .  . .  . .  . .  . . 
 72
    65
 73
     5
 40
0.000242
 49
-0.000110
 49
0.000000
 49
-0.000110
 49
0.000000
 49
-0.000110
  0
ENDTAB
  0
TABLE
  2
STYLE
 70
     2
  0
STYLE
 70
     0
  2
SN0
 40
0.000000
 41
0.000440
 50
0.000000
 71
     0
 42
0.000000
  3
ROMAND
  0
STYLE
 70
    68
  2
SV0
 40
0.000000
 41
0.000440
 50
0.000000
 71
     0
 42
0.000000
  3
ROMAND
  0
ENDTAB
  0
TABLE
  2
LAYER
 70
     3
  0
LAYER
  2
FOREGROUND
 70
    64
 62
     7
  6
CONTINUOUS
  0
LAYER
  2
BACKGROUND
 70
    65
 62
    -7
  6
CONTINUOUS
  0
LAYER
  2
0
 70
    64
 62
     7
  6
CONTINUOUS
  0
ENDTAB
  0
ENDSEC
  0
SECTION
  2
ENTITIES
  0
POLYLINE
  8
FOREGROUND
  6
CONTINUOUS
 66
     1
 40
0.000000
 41
0.000000
  0
VERTEX
  8
FOREGROUND
  6
CONTINUOUS
 10
0.000000
 20
10.999667
  0
VERTEX
  8
FOREGROUND
  6
CONTINUOUS
 10
8.499842
 20
10.999667
  0
VERTEX
  8
FOREGROUND
  6
CONTINUOUS
 10
8.499842
 20
-0.000440
  0
VERTEX
  8
FOREGROUND
  6
CONTINUOUS
 10
0.000000
 20
-0.000440
  0
VERTEX
  8
FOREGROUND
  6
CONTINUOUS
 10
0.000000
 20
10.999667
  0
SEQEND
  8
0
  0
POLYLINE
  8
FOREGROUND
  6
CONTINUOUS
 66
     1
 40
0.000000
 41
0.000000
  0
VERTEX
  8
FOREGROUND
  6
CONTINUOUS
 10
0.000000
 20
10.999667
  0
VERTEX
  8
FOREGROUND
  6
CONTINUOUS
 10
8.499842
 20
10.999667
  0
VERTEX
  8
FOREGROUND
  6
CONTINUOUS
 10
8.499842
 20
-0.000440
  0
VERTEX
  8
FOREGROUND
  6
CONTINUOUS
 10
0.000000
 20
-0.000440
  0
VERTEX
  8
FOREGROUND
  6
CONTINUOUS
 10
0.000000
 20
10.999667
  0
SEQEND
  8
0
  0
POLYLINE
  8
0
  6
CONTINUOUS
 66
     1
 40
0.027751
 41
0.027751
  0
VERTEX
  8
0
  6
CONTINUOUS
 10
-0.007048
 20
10.992178
  0
VERTEX
  8
0
  6
CONTINUOUS
 10
8.507331
 20
10.992178
  0
VERTEX
  8
0
  6
CONTINUOUS
 10
8.507331
 20
0.007488
  0
VERTEX
  8
0
  6
CONTINUOUS
 10
-0.007048
 20
0.007488
  0
VERTEX
  8
0
  6
CONTINUOUS
 10
-0.007048
 20
10.992178
  0
SEQEND
  8
0
  0
SOLID
  8
0
 62
    15
 10
3.446013
 20
8.754450
 11
4.093985
 21
9.125790
 12
3.449977
 22
8.727580
 13
4.097950
 23
9.098919
  0
POLYLINE
  8
0
  6
CONTINUOUS
 66
     1
 40
0.000000
 41
0.000000
  0
VERTEX
  8
0
  6
CONTINUOUS
 10
3.446013
 20
8.754450
  0
VERTEX
  8
0
  6
CONTINUOUS
 10
4.093985
 20
9.125790
  0
VERTEX
  8
0
  6
CONTINUOUS
 10
4.097950
 20
9.098919
  0
VERTEX
  8
0
  6
CONTINUOUS
 10
3.449977
 20
8.727580
  0
VERTEX
  8
0
  6
CONTINUOUS
 10
3.446013
 20
8.754450
  0
SEQEND
  8
0
  0
SOLID
  8
0
 62
    15
 10
3.176428
 20
9.588312
 11
3.823960
 21
9.959652
 12
3.184357
 22
9.513427
 13
3.832329
 23
9.884767
  0
POLYLINE
  8
0
  6
CONTINUOUS
 66
     1
 40
0.000000
 41
0.000000
  0
VERTEX
  8
0
  6
CONTINUOUS
 10
3.176428
 20
9.588312
  0
VERTEX
  8
0
  6
CONTINUOUS
 10
3.823960
 20
9.959652
  0
VERTEX
  8
0
  6
CONTINUOUS
 10
3.832329
 20
9.884767
  0
VERTEX
  8
0
  6
CONTINUOUS
 10
3.184357
 20
9.513427
  0
VERTEX
  8
0
  6
CONTINUOUS
 10
3.176428
 20
9.588312
  0
SEQEND
  8
0
  0
SOLID
  8
0
 62
    15
 10
3.184357
 20
9.513427
 11
3.832329
 21
9.884767
 12
3.202418
 22
9.456603
 13
3.849949
 23
9.827943
  0
POLYLINE
  8
0
  6
CONTINUOUS
 66
     1
 40
0.000000
 41
0.000000
  0
VERTEX
  8
0
  6
CONTINUOUS
 10
3.184357
 20
9.513427
  0
VERTEX
  8
0
  6
CONTINUOUS
 10
3.832329
 20
9.884767
  0
VERTEX
  8
0
  6
CONTINUOUS
 10
3.849949
 20
9.827943
  0
VERTEX
  8
0
  6
CONTINUOUS
 10
3.202418
 20
9.456603
  0
VERTEX
  8
0
  6
CONTINUOUS
 10
3.184357
 20
9.513427
  0
SEQEND
  8
0
  0
SOLID
  8
0
 62
    15
 10
3.202418
 20
9.456603
 11
3.849949
 21
9.827943
 12
3.227967
 22
9.414316
 13
3.875939
 23
9.785655
  0
POLYLINE
  8
0
  6
CONTINUOUS
 66
     1
 40
0.000000
 41
0.000000
  0
VERTEX
  8
0
  6
CONTINUOUS
 10
3.202418
 20
9.456603
  0
VERTEX
  8
0
  6
CONTINUOUS
 10
3.849949
 20
9.827943
  0
VERTEX
  8
0
  6
CONTINUOUS
 10
3.875939
 20
9.785655
  0
VERTEX
  8
0
  6
CONTINUOUS
 10
3.227967
 20
9.414316
  0
VERTEX
  8
0
  6
CONTINUOUS
 10
3.202418
 20
9.456603
  0
SEQEND
  8
0
  0
SOLID
  8
0
 62
    15
 10
3.227967
 20
9.414316
 11
3.875939
 21
9.785655
 12
3.259683
 22
9.383921
 13
3.907655
 23
9.755701
  0
POLYLINE
  8
0
  6
CONTINUOUS
 66
     1
 40
0.000000
 41
0.000000
  0
VERTEX
  8
0
  6
CONTINUOUS
 10
3.227967
 20
9.414316
  0
VERTEX
  8
0
  6
CONTINUOUS
 10
3.875939
 20
9.785655
  0
VERTEX
  8
0
  6
CONTINUOUS
 10
3.907655
 20
9.755701
  0
VERTEX
  8
0
  6
CONTINUOUS
 10
3.259683
 20
9.383921
  0
VERTEX
  8
0
  6
CONTINUOUS
 10
3.227967
 20
9.414316
  0
SEQEND
  8
0
  0
SOLID
  8
0
 62
    15
 10
3.259683
 20
9.383921
 11
3.907655
 21
9.755701
 12
3.295803
 22
9.363218
 13
3.943775
 23
9.734557
  0
POLYLINE
  8
0
  6
CONTINUOUS
 66
     1
 40
0.000000
 41
0.000000
  0
VERTEX
  8
0
  6
CONTINUOUS
 10
3.259683
 20
9.383921
  0
VERTEX
  8
0
  6
CONTINUOUS
 10
3.907655
 20
9.755701
  0
VERTEX
  8
0
  6
CONTINUOUS
 10
3.943775
 20
9.734557
  0
VERTEX
  8
0
  6
CONTINUOUS
 10
3.295803
 20
9.363218
  0
VERTEX
  8
0
  6
CONTINUOUS
 10
3.259683
 20
9.383921
  0
SEQEND
  8
0
  0
SOLID
  8
0
 62
    15
 10
3.295803
 20
9.363218
 11
3.943775
 21
9.734557
 12
3.335008
 22
9.348681
 13
3.982539
 23
9.720461
  0
POLYLINE
  8
0
  6
CONTINUOUS
 66
     1
 40
0.000000
 41
0.000000
  0
VERTEX
  8
0
  6
CONTINUOUS
 10
3.295803
 20
9.363218
  0
VERTEX
  8
0
  6
CONTINUOUS
 10
3.943775
 20
9.734557
  0
VERTEX
  8
0
  6
CONTINUOUS
 10
3.982539
 20
9.720461
  0
VERTEX
  8
0
  6
CONTINUOUS
 10
3.335008
 20
9.348681
  0
VERTEX
  8
0
  6
CONTINUOUS
 10
3.295803
 20
9.363218
  0
SEQEND
  8
0
  0
SOLID
  8
0
 62
    15
 10
3.335008
 20
9.348681
 11
3.982539
 21
9.720461
 12
3.375093
 22
9.338109
 13
4.022624
 23
9.709889
  0
POLYLINE
  8
0
  6
CONTINUOUS
 66
     1
 40
0.000000
 41
0.000000
  0
VERTEX
  8
0
  6
CONTINUOUS
 10
3.335008
 20
9.348681
  0
VERTEX
  8
0
  6
CONTINUOUS
 10
3.982539
 20
9.720461
  0
VERTEX
  8
0
  6
CONTINUOUS
 10
4.022624
 20
9.709889
  0
VERTEX
  8
0
  6
CONTINUOUS
 10
3.375093
 20
9.338109
  0
VERTEX
  8
0
  6
CONTINUOUS
 10
3.335008
 20
9.348681
  0
SEQEND
  8
0
  0
SOLID
  8
0
 62
    15
 10
3.375093
 20
9.338109
 11
4.022624
 21
9.709889
 12
3.394915
 22
9.333704
 13
4.042447
 23
9.705044
  0
POLYLINE
  8
0
  6
CONTINUOUS
 66
     1
 40
0.000000
 41
0.000000
  0
VERTEX
  8
0
  6
CONTINUOUS
 10
3.375093
 20
9.338109
  0
VERTEX
  8
0
  6
CONTINUOUS
 10
4.022624
 20
9.709889
  0
VERTEX
  8
0
  6
CONTINUOUS
 10
4.042447
 20
9.705044
  0
VERTEX
  8
0
  6
CONTINUOUS
 10
3.394915
 20
9.333704
  0
VERTEX
  8
0
  6
CONTINUOUS
 10
3.375093
 20
9.338109
  0
SEQEND
  8
0
  0
SOLID
  8
0
 62
    15
 10
3.394915
 20
9.333704
 11
4.042447
 21
9.705044
 12
3.414297
 22
9.328859
 13
4.062269
 23
9.700198
  0
POLYLINE
  8
0
  6
CONTINUOUS
 66
     1
 40
0.000000
 41
0.000000
  0
VERTEX
  8
0
  6
CONTINUOUS
 10
3.394915
 20
9.333704
  0
VERTEX
  8
0
  6
CONTINUOUS
 10
4.042447
 20
9.705044
  0
VERTEX
  8
0
  6
CONTINUOUS
 10
4.062269
 20
9.700198
  0
VERTEX
  8
0
  6
CONTINUOUS
 10
3.414297
 20
9.328859
  0
VERTEX
  8
0
  6
CONTINUOUS
 10
3.394915
 20
9.333704
  0
SEQEND
  8
0
  0
SOLID
  8
0
 62
    15
 10
3.414297
 20
9.328859
 11
4.062269
 21
9.700198
 12
3.414297
 22
9.241640
 13
4.062269
 23
9.612980
  0
POLYLINE
  8
0
  6
CONTINUOUS
 66
     1
 40
0.000000
 41
0.000000
  0
VERTEX
  8
0
  6
CONTINUOUS
 10
3.414297
 20
9.328859
  0
VERTEX
  8
0
  6
CONTINUOUS
 10
4.062269
 20
9.700198
  0
VERTEX
  8
0
  6
CONTINUOUS
 10
4.062269
 20
9.612980
  0
VERTEX
  8
0
  6
CONTINUOUS
 10
3.414297
 20
9.241640
  0
VERTEX
  8
0
  6
CONTINUOUS
 10
3.414297
 20
9.328859
  0
SEQEND
  8
0
  0
SOLID
  8
0
 62
    15
 10
3.414297
 20
9.241640
 11
4.062269
 21
9.612980
 12
3.483896
 22
9.231509
 13
4.131868
 23
9.603289
  0
POLYLINE
  8
0
  6
CONTINUOUS
 66
     1
 40
0.000000
 41
0.000000
  0
VERTEX
  8
0
  6
CONTINUOUS
 10
3.414297
 20
9.241640
  0
VERTEX
  8
0
  6
CONTINUOUS
 10
4.062269
 20
9.612980
  0
VERTEX
  8
0
  6
CONTINUOUS
 10
4.131868
 20
9.603289
  0
VERTEX
  8
0
  6
CONTINUOUS
 10
3.483896
 20
9.231509
  0
VERTEX
  8
0
  6
CONTINUOUS
 10
3.414297
 20
9.241640
  0
SEQEND
  8
0
  0
SOLID
  8
0
 62
    15
 10
3.483896
 20
9.231509
 11
4.131868
 21
9.603289
 12
3.542923
 22
9.213889
 13
4.190895
 23
9.585229
  0
POLYLINE
  8
0
  6
CONTINUOUS
 66
     1
 40
0.000000
 41
0.000000
  0
VERTEX
  8
0
  6
CONTINUOUS
 10
3.483896
 20
9.231509
  0
VERTEX
  8
0
  6
CONTINUOUS
 10
4.131868
 20
9.603289
  0
VERTEX
  8
0
  6
CONTINUOUS
 10
4.190895
 20
9.585229
  0
VERTEX
  8
0
  6
CONTINUOUS
 10
3.542923
 20
9.213889
  0
VERTEX
  8
0
  6
CONTINUOUS
 10
3.483896
 20
9.231509
  0
SEQEND
  8
0
  0
SOLID
  8
0
 62
    15
 10
3.542923
 20
9.213889
 11
4.190895
 21
9.585229
 12
3.591818
 22
9.189221
 13
4.239790
 23
9.560561
  0
POLYLINE
  8
0
  6
CONTINUOUS
 66
     1
 40
0.000000
 41
0.000000
  0
VERTEX
  8
0
  6
CONTINUOUS
 10
3.542923
 20
9.213889
  0
VERTEX
  8
0
  6
CONTINUOUS
 10
4.190895
 20
9.585229
  0
VERTEX
  8
0
  6
CONTINUOUS
 10
4.239790
 20
9.560561
  0
VERTEX
  8
0
  6
CONTINUOUS
 10
3.591818
 20
9.189221
  0
VERTEX
  8
0
  6
CONTINUOUS
 10
3.542923
 20
9.213889
  0
SEQEND
  8
0
  0
SOLID
  8
0
 62
    15
 10
3.591818
 20
9.189221
 11
4.239790
 21
9.560561
 12
3.630582
 22
9.158827
 13
4.278554
 23
9.530607
  0
POLYLINE
  8
0
  6
CONTINUOUS
 66
     1
 40
0.000000
 41
0.000000
  0
VERTEX
  8
0
  6
CONTINUOUS
 10
3.591818
 20
9.189221
  0
VERTEX
  8
0
  6
CONTINUOUS
 10
4.239790
 20
9.560561
  0
VERTEX
  8
0
  6
CONTINUOUS
 10
4.278554
 20
9.530607
  0
VERTEX
  8
0
  6
CONTINUOUS
 10
3.630582
 20
9.158827
  0
VERTEX
  8
0
  6
CONTINUOUS
 10
3.591818
 20
9.189221
  0
SEQEND
  8
0
  0
SOLID
  8
0
 62
    15
 10
3.630582
 20
9.158827
 11
4.278554
 21
9.530607
 12
3.660095
 22
9.124468
 13
4.308067
 23
9.495808
  0
POLYLINE
  8
0
  6
CONTINUOUS
 66
     1
 40
0.000000
 41
0.000000
  0
VERTEX
  8
0
  6
CONTINUOUS
 10
3.630582
 20
9.158827
  0
VERTEX
  8
0
  6
CONTINUOUS
 10
4.278554
 20
9.530607
  0
VERTEX
  8
0
  6
CONTINUOUS
 10
4.308067
 20
9.495808
  0
VERTEX
  8
0
  6
CONTINUOUS
 10
3.660095
 20
9.124468
  0
VERTEX
  8
0
  6
CONTINUOUS
 10
3.630582
 20
9.158827
  0
SEQEND
  8
0
  0
SOLID
  8
0
 62
    15
 10
3.660095
 20
9.124468
 11
4.308067
 21
9.495808
 12
3.680358
 22
9.086145
 13
4.327889
 23
9.457925
  0
POLYLINE
  8
0
  6
CONTINUOUS
 66
     1
 40
0.000000
 41
0.000000
  0
VERTEX
  8
0
  6
CONTINUOUS
 10
3.660095
 20
9.124468
  0
VERTEX
  8
0
  6
CONTINUOUS
 10
4.308067
 20
9.495808
  0
VERTEX
  8
0
  6
CONTINUOUS
 10
4.327889
 20
9.457925
  0
VERTEX
  8
0
  6
CONTINUOUS
 10
3.680358
 20
9.086145
  0
VERTEX
  8
0
  6
CONTINUOUS
 10
3.660095
 20
9.124468
  0
SEQEND
  8
0
  0
SOLID
  8
0
 62
    15
 10
3.680358
 20
9.086145
 11
4.327889
 21
9.457925
 12
3.691370
 22
9.046059
 13
4.339342
 23
9.417399
  0
POLYLINE
  8
0
  6
CONTINUOUS
 66
     1
 40
0.000000
 41
0.000000
  0
VERTEX
  8
0
  6
CONTINUOUS
 10
3.680358
 20
9.086145
  0
VERTEX
  8
0
  6
CONTINUOUS
 10
4.327889
 20
9.457925
  0
VERTEX
  8
0
  6
CONTINUOUS
 10
4.339342
 20
9.417399
  0
VERTEX
  8
0
  6
CONTINUOUS
 10
3.691370
 20
9.046059
  0
VERTEX
  8
0
  6
CONTINUOUS
 10
3.680358
 20
9.086145
  0
SEQEND
  8
0
  0
SOLID
  8
0
 62
    15
 10
3.691370
 20
9.046059
 11
4.339342
 21
9.417399
 12
3.694013
 22
9.004653
 13
4.341985
 23
9.376433
  0
POLYLINE
  8
0
  6
CONTINUOUS
 66
     1
 40
0.000000
 41
0.000000
  0
VERTEX
  8
0
  6
CONTINUOUS
 10
3.691370
 20
9.046059
  0
VERTEX
  8
0
  6
CONTINUOUS
 10
4.339342
 20
9.417399
  0
VERTEX
  8
0
  6
CONTINUOUS
 10
4.341985
 20
9.376433
  0
VERTEX
  8
0
  6
CONTINUOUS
 10
3.694013
 20
9.004653
  0
VERTEX
  8
0
  6
CONTINUOUS
 10
3.691370
 20
9.046059
  0
SEQEND
  8
0
  0
SOLID
  8
0
 62
    15
 10
3.694013
 20
9.004653
 11
4.341985
 21
9.376433
 12
3.688287
 22
8.963686
 13
4.336259
 23
9.335026
  0
POLYLINE
  8
0
  6
CONTINUOUS
 66
     1
 40
0.000000
 41
0.000000
  0
VERTEX
  8
0
  6
CONTINUOUS
 10
3.694013
 20
9.004653
  0
VERTEX
  8
0
  6
CONTINUOUS
 10
4.341985
 20
9.376433
  0
VERTEX
  8
0
  6
CONTINUOUS
 10
4.336259
 20
9.335026
  0
VERTEX
  8
0
  6
CONTINUOUS
 10
3.688287
 20
8.963686
  0
VERTEX
  8
0
  6
CONTINUOUS
 10
3.694013
 20
9.004653
  0
SEQEND
  8
0
  0
SOLID
  8
0
 62
    15
 10
3.688287
 20
8.963686
 11
4.336259
 21
9.335026
 12
3.674631
 22
8.924042
 13
4.322603
 23
9.295381
  0
POLYLINE
  8
0
  6
CONTINUOUS
 66
     1
 40
0.000000
 41
0.000000
  0
VERTEX
  8
0
  6
CONTINUOUS
 10
3.688287
 20
8.963686
  0
VERTEX
  8
0
  6
CONTINUOUS
 10
4.336259
 20
9.335026
  0
VERTEX
  8
0
  6
CONTINUOUS
 10
4.322603
 20
9.295381
  0
VERTEX
  8
0
  6
CONTINUOUS
 10
3.674631
 20
8.924042
  0
VERTEX
  8
0
  6
CONTINUOUS
 10
3.688287
 20
8.963686
  0
SEQEND
  8
0
  0
SOLID
  8
0
 62
    15
 10
3.443811
 20
8.777356
 11
4.091783
 21
9.148695
 12
3.444251
 22
8.771189
 13
4.092223
 23
9.142969
  0
POLYLINE
  8
0
  6
CONTINUOUS
 66
     1
 40
0.000000
 41
0.000000
  0
VERTEX
  8
0
  6
CONTINUOUS
 10
3.443811
 20
8.777356
  0
VERTEX
  8
0
  6
CONTINUOUS
 10
4.091783
 20
9.148695
  0
VERTEX
  8
0
  6
CONTINUOUS
 10
4.092223
 20
9.142969
  0
VERTEX
  8
0
  6
CONTINUOUS
 10
3.444251
 20
8.771189
  0
VERTEX
  8
0
  6
CONTINUOUS
 10
3.443811
 20
8.777356
  0
SEQEND
  8
0
  0
SOLID
  8
0
 62
    15
 10
3.444251
 20
8.771189
 11
4.092223
 21
9.142969
 12
3.446013
 22
8.754450
 13
4.093985
 23
9.125790
  0
POLYLINE
  8
0
  6
CONTINUOUS
 66
     1
 40
0.000000
 41
0.000000
  0
VERTEX
  8
0
  6
CONTINUOUS
 10
3.444251
 20
8.771189
  0
VERTEX
  8
0
  6
CONTINUOUS
 10
4.092223
 20
9.142969
  0
VERTEX
  8
0
  6
CONTINUOUS
 10
4.093985
 20
9.125790
  0
VERTEX
  8
0
  6
CONTINUOUS
 10
3.446013
 20
8.754450
  0
VERTEX
  8
0
  6
CONTINUOUS
 10
3.444251
 20
8.771189
  0
SEQEND
  8
0
  0
SOLID
  8
0
 62
    15
 10
3.624855
 20
8.852681
 11
4.272387
 21
9.224461
 12
3.589175
 22
8.824049
 13
4.237147
 23
9.195388
  0
POLYLINE
  8
0
  6
CONTINUOUS
 66
     1
 40
0.000000
 41
0.000000
  0
VERTEX
  8
0
  6
CONTINUOUS
 10
3.624855
 20
8.852681
  0
VERTEX
  8
0
  6
CONTINUOUS
 10
4.272387
 20
9.224461
  0
VERTEX
  8
0
  6
CONTINUOUS
 10
4.237147
 20
9.195388
  0
VERTEX
  8
0
  6
CONTINUOUS
 10
3.589175
 20
8.824049
  0
VERTEX
  8
0
  6
CONTINUOUS
 10
3.624855
 20
8.852681
  0
SEQEND
  8
0
  0
SOLID
  8
0
 62
    15
 10
3.674631
 20
8.924042
 11
4.322603
 21
9.295381
 12
3.653487
 22
8.886599
 13
4.301019
 23
9.257939
  0
POLYLINE
  8
0
  6
CONTINUOUS
 66
     1
 40
0.000000
 41
0.000000
  0
VERTEX
  8
0
  6
CONTINUOUS
 10
3.674631
 20
8.924042
  0
VERTEX
  8
0
  6
CONTINUOUS
 10
4.322603
 20
9.295381
  0
VERTEX
  8
0
  6
CONTINUOUS
 10
4.301019
 20
9.257939
  0
VERTEX
  8
0
  6
CONTINUOUS
 10
3.653487
 20
8.886599
  0
VERTEX
  8
0
  6
CONTINUOUS
 10
3.674631
 20
8.924042
  0
SEQEND
  8
0
  0
SOLID
  8
0
 62
    15
 10
3.653487
 20
8.886599
 11
4.301019
 21
9.257939
 12
3.624855
 22
8.852681
 13
4.272387
 23
9.224461
  0
POLYLINE
  8
0
  6
CONTINUOUS
 66
     1
 40
0.000000
 41
0.000000
  0
VERTEX
  8
0
  6
CONTINUOUS
 10
3.653487
 20
8.886599
  0
VERTEX
  8
0
  6
CONTINUOUS
 10
4.301019
 20
9.257939
  0
VERTEX
  8
0
  6
CONTINUOUS
 10
4.272387
 20
9.224461
  0
VERTEX
  8
0
  6
CONTINUOUS
 10
3.624855
 20
8.852681
  0
VERTEX
  8
0
  6
CONTINUOUS
 10
3.653487
 20
8.886599
  0
SEQEND
  8
0
  0
SOLID
  8
0
 62
    15
 10
2.943405
 20
9.588312
 11
3.591377
 21
9.959652
 12
3.176428
 22
9.588312
 13
3.823960
 23
9.959652
  0
POLYLINE
  8
0
  6
CONTINUOUS
 66
     1
 40
0.000000
 41
0.000000
  0
VERTEX
  8
0
  6
CONTINUOUS
 10
2.943405
 20
9.588312
  0
VERTEX
  8
0
  6
CONTINUOUS
 10
3.591377
 20
9.959652
  0
VERTEX
  8
0
  6
CONTINUOUS
 10
3.823960
 20
9.959652
  0
VERTEX
  8
0
  6
CONTINUOUS
 10
3.176428
 20
9.588312
  0
VERTEX
  8
0
  6
CONTINUOUS
 10
2.943405
 20
9.588312
  0
SEQEND
  8
0
  0
SOLID
  8
0
 62
    15
 10
3.449977
 20
8.727580
 11
4.097950
 21
9.098919
 12
3.456585
 22
8.692340
 13
4.104557
 23
9.064120
  0
POLYLINE
  8
0
  6
CONTINUOUS
 66
     1
 40
0.000000
 41
0.000000
  0
VERTEX
  8
0
  6
CONTINUOUS
 10
3.449977
 20
8.727580
  0
VERTEX
  8
0
  6
CONTINUOUS
 10
4.097950
 20
9.098919
  0
VERTEX
  8
0
  6
CONTINUOUS
 10
4.104557
 20
9.064120
  0
VERTEX
  8
0
  6
CONTINUOUS
 10
3.456585
 20
8.692340
  0
VERTEX
  8
0
  6
CONTINUOUS
 10
3.449977
 20
8.727580
  0
SEQEND
  8
0
  0
SOLID
  8
0
 62
    15
 10
3.456585
 20
8.692340
 11
4.104557
 21
9.064120
 12
3.466276
 22
8.650493
 13
4.114248
 23
9.021832
  0
POLYLINE
  8
0
  6
CONTINUOUS
 66
     1
 40
0.000000
 41
0.000000
  0
VERTEX
  8
0
  6
CONTINUOUS
 10
3.456585
 20
8.692340
  0
VERTEX
  8
0
  6
CONTINUOUS
 10
4.104557
 20
9.064120
  0
VERTEX
  8
0
  6
CONTINUOUS
 10
4.114248
 20
9.021832
  0
VERTEX
  8
0
  6
CONTINUOUS
 10
3.466276
 20
8.650493
  0
VERTEX
  8
0
  6
CONTINUOUS
 10
3.456585
 20
8.692340
  0
SEQEND
  8
0
  0
SOLID
  8
0
 62
    15
 10
3.466276
 20
8.650493
 11
4.114248
 21
9.021832
 12
3.480372
 22
8.602478
 13
4.127903
 23
8.974258
  0
POLYLINE
  8
0
  6
CONTINUOUS
 66
     1
 40
0.000000
 41
0.000000
  0
VERTEX
  8
0
  6
CONTINUOUS
 10
3.466276
 20
8.650493
  0
VERTEX
  8
0
  6
CONTINUOUS
 10
4.114248
 20
9.021832
  0
VERTEX
  8
0
  6
CONTINUOUS
 10
4.127903
 20
8.974258
  0
VERTEX
  8
0
  6
CONTINUOUS
 10
3.480372
 20
8.602478
  0
VERTEX
  8
0
  6
CONTINUOUS
 10
3.466276
 20
8.650493
  0
SEQEND
  8
0
  0
SOLID
  8
0
 62
    15
 10
3.480372
 20
8.602478
 11
4.127903
 21
8.974258
 12
3.522219
 22
8.495437
 13
4.170191
 23
8.867217
  0
POLYLINE
  8
0
  6
CONTINUOUS
 66
     1
 40
0.000000
 41
0.000000
  0
VERTEX
  8
0
  6
CONTINUOUS
 10
3.480372
 20
8.602478
  0
VERTEX
  8
0
  6
CONTINUOUS
 10
4.127903
 20
8.974258
  0
VERTEX
  8
0
  6
CONTINUOUS
 10
4.170191
 20
8.867217
  0
VERTEX
  8
0
  6
CONTINUOUS
 10
3.522219
 20
8.495437
  0
VERTEX
  8
0
  6
CONTINUOUS
 10
3.480372
 20
8.602478
  0
SEQEND
  8
0
  0
SOLID
  8
0
 62
    15
 10
3.522219
 20
8.495437
 11
4.170191
 21
8.867217
 12
3.587853
 22
8.382230
 13
4.235385
 23
8.754010
  0
POLYLINE
  8
0
  6
CONTINUOUS
 66
     1
 40
0.000000
 41
0.000000
  0
VERTEX
  8
0
  6
CONTINUOUS
 10
3.522219
 20
8.495437
  0
VERTEX
  8
0
  6
CONTINUOUS
 10
4.170191
 20
8.867217
  0
VERTEX
  8
0
  6
CONTINUOUS
 10
4.235385
 20
8.754010
  0
VERTEX
  8
0
  6
CONTINUOUS
 10
3.587853
 20
8.382230
  0
VERTEX
  8
0
  6
CONTINUOUS
 10
3.522219
 20
8.495437
  0
SEQEND
  8
0
  0
SOLID
  8
0
 62
    15
 10
3.587853
 20
8.382230
 11
4.235385
 21
8.754010
 12
3.630582
 22
8.326727
 13
4.278554
 23
8.698066
  0
POLYLINE
  8
0
  6
CONTINUOUS
 66
     1
 40
0.000000
 41
0.000000
  0
VERTEX
  8
0
  6
CONTINUOUS
 10
3.587853
 20
8.382230
  0
VERTEX
  8
0
  6
CONTINUOUS
 10
4.235385
 20
8.754010
  0
VERTEX
  8
0
  6
CONTINUOUS
 10
4.278554
 20
8.698066
  0
VERTEX
  8
0
  6
CONTINUOUS
 10
3.630582
 20
8.326727
  0
VERTEX
  8
0
  6
CONTINUOUS
 10
3.587853
 20
8.382230
  0
SEQEND
  8
0
  0
SOLID
  8
0
 62
    15
 10
3.630582
 20
8.326727
 11
4.278554
 21
8.698066
 12
3.681679
 22
8.273427
 13
4.329651
 23
8.645207
  0
POLYLINE
  8
0
  6
CONTINUOUS
 66
     1
 40
0.000000
 41
0.000000
  0
VERTEX
  8
0
  6
CONTINUOUS
 10
3.630582
 20
8.326727
  0
VERTEX
  8
0
  6
CONTINUOUS
 10
4.278554
 20
8.698066
  0
VERTEX
  8
0
  6
CONTINUOUS
 10
4.329651
 20
8.645207
  0
VERTEX
  8
0
  6
CONTINUOUS
 10
3.681679
 20
8.273427
  0
VERTEX
  8
0
  6
CONTINUOUS
 10
3.630582
 20
8.326727
  0
SEQEND
  8
0
  0
SOLID
  8
0
 62
    15
 10
3.681679
 20
8.273427
 11
4.329651
 21
8.645207
 12
3.741146
 22
8.224531
 13
4.388678
 23
8.595871
  0
POLYLINE
  8
0
  6
CONTINUOUS
 66
     1
 40
0.000000
 41
0.000000
  0
VERTEX
  8
0
  6
CONTINUOUS
 10
3.681679
 20
8.273427
  0
VERTEX
  8
0
  6
CONTINUOUS
 10
4.329651
 20
8.645207
  0
VERTEX
  8
0
  6
CONTINUOUS
 10
4.388678
 20
8.595871
  0
VERTEX
  8
0
  6
CONTINUOUS
 10
3.741146
 20
8.224531
  0
VERTEX
  8
0
  6
CONTINUOUS
 10
3.681679
 20
8.273427
  0
SEQEND
  8
0
  0
SOLID
  8
0
 62
    15
 10
3.741146
 20
8.224531
 11
4.388678
 21
8.595871
 12
3.809424
 22
8.180482
 13
4.456955
 23
8.551821
  0
POLYLINE
  8
0
  6
CONTINUOUS
 66
     1
 40
0.000000
 41
0.000000
  0
VERTEX
  8
0
  6
CONTINUOUS
 10
3.741146
 20
8.224531
  0
VERTEX
  8
0
  6
CONTINUOUS
 10
4.388678
 20
8.595871
  0
VERTEX
  8
0
  6
CONTINUOUS
 10
4.456955
 20
8.551821
  0
VERTEX
  8
0
  6
CONTINUOUS
 10
3.809424
 20
8.180482
  0
VERTEX
  8
0
  6
CONTINUOUS
 10
3.741146
 20
8.224531
  0
SEQEND
  8
0
  0
SOLID
  8
0
 62
    15
 10
3.809424
 20
8.180482
 11
4.456955
 21
8.551821
 12
3.887392
 22
8.143039
 13
4.535364
 23
8.514379
  0
POLYLINE
  8
0
  6
CONTINUOUS
 66
     1
 40
0.000000
 41
0.000000
  0
VERTEX
  8
0
  6
CONTINUOUS
 10
3.809424
 20
8.180482
  0
VERTEX
  8
0
  6
CONTINUOUS
 10
4.456955
 20
8.551821
  0
VERTEX
  8
0
  6
CONTINUOUS
 10
4.535364
 20
8.514379
  0
VERTEX
  8
0
  6
CONTINUOUS
 10
3.887392
 20
8.143039
  0
VERTEX
  8
0
  6
CONTINUOUS
 10
3.809424
 20
8.180482
  0
SEQEND
  8
0
  0
SOLID
  8
0
 62
    15
 10
3.887392
 20
8.143039
 11
4.535364
 21
8.514379
 12
3.975932
 22
8.113526
 13
4.623463
 23
8.484865
  0
POLYLINE
  8
0
  6
CONTINUOUS
 66
     1
 40
0.000000
 41
0.000000
  0
VERTEX
  8
0
  6
CONTINUOUS
 10
3.887392
 20
8.143039
  0
VERTEX
  8
0
  6
CONTINUOUS
 10
4.535364
 20
8.514379
  0
VERTEX
  8
0
  6
CONTINUOUS
 10
4.623463
 20
8.484865
  0
VERTEX
  8
0
  6
CONTINUOUS
 10
3.975932
 20
8.113526
  0
VERTEX
  8
0
  6
CONTINUOUS
 10
3.887392
 20
8.143039
  0
SEQEND
  8
0
  0
SOLID
  8
0
 62
    15
 10
3.975932
 20
8.113526
 11
4.623463
 21
8.484865
 12
4.062710
 22
8.080489
 13
4.710682
 23
8.452269
  0
POLYLINE
  8
0
  6
CONTINUOUS
 66
     1
 40
0.000000
 41
0.000000
  0
VERTEX
  8
0
  6
CONTINUOUS
 10
3.975932
 20
8.113526
  0
VERTEX
  8
0
  6
CONTINUOUS
 10
4.623463
 20
8.484865
  0
VERTEX
  8
0
  6
CONTINUOUS
 10
4.710682
 20
8.452269
  0
VERTEX
  8
0
  6
CONTINUOUS
 10
4.062710
 20
8.080489
  0
VERTEX
  8
0
  6
CONTINUOUS
 10
3.975932
 20
8.113526
  0
SEQEND
  8
0
  0
SOLID
  8
0
 62
    15
 10
4.062710
 20
8.080489
 11
4.710682
 21
8.452269
 12
4.136273
 22
8.034236
 13
4.784245
 23
8.405576
  0
POLYLINE
  8
0
  6
CONTINUOUS
 66
     1
 40
0.000000
 41
0.000000
  0
VERTEX
  8
0
  6
CONTINUOUS
 10
4.062710
 20
8.080489
  0
VERTEX
  8
0
  6
CONTINUOUS
 10
4.710682
 20
8.452269
  0
VERTEX
  8
0
  6
CONTINUOUS
 10
4.784245
 20
8.405576
  0
VERTEX
  8
0
  6
CONTINUOUS
 10
4.136273
 20
8.034236
  0
VERTEX
  8
0
  6
CONTINUOUS
 10
4.062710
 20
8.080489
  0
SEQEND
  8
0
  0
SOLID
  8
0
 62
    15
 10
4.136273
 20
8.034236
 11
4.784245
 21
8.405576
 12
4.197502
 22
7.975650
 13
4.845034
 23
8.347430
  0
POLYLINE
  8
0
  6
CONTINUOUS
 66
     1
 40
0.000000
 41
0.000000
  0
VERTEX
  8
0
  6
CONTINUOUS
 10
4.136273
 20
8.034236
  0
VERTEX
  8
0
  6
CONTINUOUS
 10
4.784245
 20
8.405576
  0
VERTEX
  8
0
  6
CONTINUOUS
 10
4.845034
 20
8.347430
  0
VERTEX
  8
0
  6
CONTINUOUS
 10
4.197502
 20
7.975650
  0
VERTEX
  8
0
  6
CONTINUOUS
 10
4.136273
 20
8.034236
  0
SEQEND
  8
0
  0
SOLID
  8
0
 62
    15
 10
4.197502
 20
7.975650
 11
4.845034
 21
8.347430
 12
4.245957
 22
7.907814
 13
4.893488
 23
8.279153
  0
POLYLINE
  8
0
  6
CONTINUOUS
 66
     1
 40
0.000000
 41
0.000000
  0
VERTEX
  8
0
  6
CONTINUOUS
 10
4.197502
 20
7.975650
  0
VERTEX
  8
0
  6
CONTINUOUS
 10
4.845034
 20
8.347430
  0
VERTEX
  8
0
  6
CONTINUOUS
 10
4.893488
 20
8.279153
  0
VERTEX
  8
0
  6
CONTINUOUS
 10
4.245957
 20
7.907814
  0
VERTEX
  8
0
  6
CONTINUOUS
 10
4.197502
 20
7.975650
  0
SEQEND
  8
0
  0
SOLID
  8
0
 62
    15
 10
4.245957
 20
7.907814
 11
4.893488
 21
8.279153
 12
4.282518
 22
7.832048
 13
4.930490
 23
8.203388
  0
POLYLINE
  8
0
  6
CONTINUOUS
 66
     1
 40
0.000000
 41
0.000000
  0
VERTEX
  8
0
  6
CONTINUOUS
 10
4.245957
 20
7.907814
  0
VERTEX
  8
0
  6
CONTINUOUS
 10
4.893488
 20
8.279153
  0
VERTEX
  8
0
  6
CONTINUOUS
 10
4.930490
 20
8.203388
  0
VERTEX
  8
0
  6
CONTINUOUS
 10
4.282518
 20
7.832048
  0
VERTEX
  8
0
  6
CONTINUOUS
 10
4.245957
 20
7.907814
  0
SEQEND
  8
0
  0
SOLID
  8
0
 62
    15
 10
4.282518
 20
7.832048
 11
4.930490
 21
8.203388
 12
4.307626
 22
7.750556
 13
4.955158
 23
8.121895
  0
POLYLINE
  8
0
  6
CONTINUOUS
 66
     1
 40
0.000000
 41
0.000000
  0
VERTEX
  8
0
  6
CONTINUOUS
 10
4.282518
 20
7.832048
  0
VERTEX
  8
0
  6
CONTINUOUS
 10
4.930490
 20
8.203388
  0
VERTEX
  8
0
  6
CONTINUOUS
 10
4.955158
 20
8.121895
  0
VERTEX
  8
0
  6
CONTINUOUS
 10
4.307626
 20
7.750556
  0
VERTEX
  8
0
  6
CONTINUOUS
 10
4.282518
 20
7.832048
  0
SEQEND
  8
0
  0
SOLID
  8
0
 62
    15
 10
4.307626
 20
7.750556
 11
4.955158
 21
8.121895
 12
4.321282
 22
7.665099
 13
4.969254
 23
8.036879
  0
POLYLINE
  8
0
  6
CONTINUOUS
 66
     1
 40
0.000000
 41
0.000000
  0
VERTEX
  8
0
  6
CONTINUOUS
 10
4.307626
 20
7.750556
  0
VERTEX
  8
0
  6
CONTINUOUS
 10
4.955158
 20
8.121895
  0
VERTEX
  8
0
  6
CONTINUOUS
 10
4.969254
 20
8.036879
  0
VERTEX
  8
0
  6
CONTINUOUS
 10
4.321282
 20
7.665099
  0
VERTEX
  8
0
  6
CONTINUOUS
 10
4.307626
 20
7.750556
  0
SEQEND
  8
0
  0
SOLID
  8
0
 62
    15
 10
4.321282
 20
7.665099
 11
4.969254
 21
8.036879
 12
4.324806
 22
7.578321
 13
4.972778
 23
7.950101
  0
POLYLINE
  8
0
  6
CONTINUOUS
 66
     1
 40
0.000000
 41
0.000000
  0
VERTEX
  8
0
  6
CONTINUOUS
 10
4.321282
 20
7.665099
  0
VERTEX
  8
0
  6
CONTINUOUS
 10
4.969254
 20
8.036879
  0
VERTEX
  8
0
  6
CONTINUOUS
 10
4.972778
 20
7.950101
  0
VERTEX
  8
0
  6
CONTINUOUS
 10
4.324806
 20
7.578321
  0
VERTEX
  8
0
  6
CONTINUOUS
 10
4.321282
 20
7.665099
  0
SEQEND
  8
0
  0
SOLID
  8
0
 62
    15
 10
4.324806
 20
7.578321
 11
4.972778
 21
7.950101
 12
4.317758
 22
7.491984
 13
4.965730
 23
7.863764
  0
POLYLINE
  8
0
  6
CONTINUOUS
 66
     1
 40
0.000000
 41
0.000000
  0
VERTEX
  8
0
  6
CONTINUOUS
 10
4.324806
 20
7.578321
  0
VERTEX
  8
0
  6
CONTINUOUS
 10
4.972778
 20
7.950101
  0
VERTEX
  8
0
  6
CONTINUOUS
 10
4.965730
 20
7.863764
  0
VERTEX
  8
0
  6
CONTINUOUS
 10
4.317758
 20
7.491984
  0
VERTEX
  8
0
  6
CONTINUOUS
 10
4.324806
 20
7.578321
  0
SEQEND
  8
0
  0
SOLID
  8
0
 62
    15
 10
4.317758
 20
7.491984
 11
4.965730
 21
7.863764
 12
4.301019
 22
7.408289
 13
4.948991
 23
7.779629
  0
POLYLINE
  8
0
  6
CONTINUOUS
 66
     1
 40
0.000000
 41
0.000000
  0
VERTEX
  8
0
  6
CONTINUOUS
 10
4.317758
 20
7.491984
  0
VERTEX
  8
0
  6
CONTINUOUS
 10
4.965730
 20
7.863764
  0
VERTEX
  8
0
  6
CONTINUOUS
 10
4.948991
 20
7.779629
  0
VERTEX
  8
0
  6
CONTINUOUS
 10
4.301019
 20
7.408289
  0
VERTEX
  8
0
  6
CONTINUOUS
 10
4.317758
 20
7.491984
  0
SEQEND
  8
0
  0
SOLID
  8
0
 62
    15
 10
4.301019
 20
7.408289
 11
4.948991
 21
7.779629
 12
4.275030
 22
7.328559
 13
4.923002
 23
7.700339
  0
POLYLINE
  8
0
  6
CONTINUOUS
 66
     1
 40
0.000000
 41
0.000000
  0
VERTEX
  8
0
  6
CONTINUOUS
 10
4.301019
 20
7.408289
  0
VERTEX
  8
0
  6
CONTINUOUS
 10
4.948991
 20
7.779629
  0
VERTEX
  8
0
  6
CONTINUOUS
 10
4.923002
 20
7.700339
  0
VERTEX
  8
0
  6
CONTINUOUS
 10
4.275030
 20
7.328559
  0
VERTEX
  8
0
  6
CONTINUOUS
 10
4.301019
 20
7.408289
  0
SEQEND
  8
0
  0
SOLID
  8
0
 62
    15
 10
4.275030
 20
7.328559
 11
4.923002
 21
7.700339
 12
4.240230
 22
7.255877
 13
4.888202
 23
7.627217
  0
POLYLINE
  8
0
  6
CONTINUOUS
 66
     1
 40
0.000000
 41
0.000000
  0
VERTEX
  8
0
  6
CONTINUOUS
 10
4.275030
 20
7.328559
  0
VERTEX
  8
0
  6
CONTINUOUS
 10
4.923002
 20
7.700339
  0
VERTEX
  8
0
  6
CONTINUOUS
 10
4.888202
 20
7.627217
  0
VERTEX
  8
0
  6
CONTINUOUS
 10
4.240230
 20
7.255877
  0
VERTEX
  8
0
  6
CONTINUOUS
 10
4.275030
 20
7.328559
  0
SEQEND
  8
0
  0
SOLID
  8
0
 62
    15
 10
4.240230
 20
7.255877
 11
4.888202
 21
7.627217
 12
4.196621
 22
7.191124
 13
4.844593
 23
7.562904
  0
POLYLINE
  8
0
  6
CONTINUOUS
 66
     1
 40
0.000000
 41
0.000000
  0
VERTEX
  8
0
  6
CONTINUOUS
 10
4.240230
 20
7.255877
  0
VERTEX
  8
0
  6
CONTINUOUS
 10
4.888202
 20
7.627217
  0
VERTEX
  8
0
  6
CONTINUOUS
 10
4.844593
 20
7.562904
  0
VERTEX
  8
0
  6
CONTINUOUS
 10
4.196621
 20
7.191124
  0
VERTEX
  8
0
  6
CONTINUOUS
 10
4.240230
 20
7.255877
  0
SEQEND
  8
0
  0
SOLID
  8
0
 62
    15
 10
4.145083
 20
7.137383
 11
4.793055
 21
7.508723
 12
4.086056
 22
7.095976
 13
4.734028
 23
7.467756
  0
POLYLINE
  8
0
  6
CONTINUOUS
 66
     1
 40
0.000000
 41
0.000000
  0
VERTEX
  8
0
  6
CONTINUOUS
 10
4.145083
 20
7.137383
  0
VERTEX
  8
0
  6
CONTINUOUS
 10
4.793055
 20
7.508723
  0
VERTEX
  8
0
  6
CONTINUOUS
 10
4.734028
 20
7.467756
  0
VERTEX
  8
0
  6
CONTINUOUS
 10
4.086056
 20
7.095976
  0
VERTEX
  8
0
  6
CONTINUOUS
 10
4.145083
 20
7.137383
  0
SEQEND
  8
0
  0
SOLID
  8
0
 62
    15
 10
4.196621
 20
7.191124
 11
4.844593
 21
7.562904
 12
4.145083
 22
7.137383
 13
4.793055
 23
7.508723
  0
POLYLINE
  8
0
  6
CONTINUOUS
 66
     1
 40
0.000000
 41
0.000000
  0
VERTEX
  8
0
  6
CONTINUOUS
 10
4.196621
 20
7.191124
  0
VERTEX
  8
0
  6
CONTINUOUS
 10
4.844593
 20
7.562904
  0
VERTEX
  8
0
  6
CONTINUOUS
 10
4.793055
 20
7.508723
  0
VERTEX
  8
0
  6
CONTINUOUS
 10
4.145083
 20
7.137383
  0
VERTEX
  8
0
  6
CONTINUOUS
 10
4.196621
 20
7.191124
  0
SEQEND
  8
0
  0
POLYLINE
  8
0
  6
CONTINUOUS
 66
     1
 40
0.000000
 41
0.000000
  0
VERTEX
  8
0
  6
CONTINUOUS
 10
4.015576
 20
7.068666
  0
VERTEX
  8
0
  6
CONTINUOUS
 10
2.943405
 20
7.068666
  0
VERTEX
  8
0
  6
CONTINUOUS
 10
2.943405
 20
9.588312
  0
VERTEX
  8
0
  6
CONTINUOUS
 10
3.176428
 20
9.588312
  0
VERTEX
  8
0
  6
CONTINUOUS
 10
3.184357
 20
9.513427
  0
VERTEX
  8
0
  6
CONTINUOUS
 10
3.202418
 20
9.456603
  0
VERTEX
  8
0
  6
CONTINUOUS
 10
3.227967
 20
9.414316
  0
VERTEX
  8
0
  6
CONTINUOUS
 10
3.259683
 20
9.383921
  0
VERTEX
  8
0
  6
CONTINUOUS
 10
3.295803
 20
9.363218
  0
VERTEX
  8
0
  6
CONTINUOUS
 10
3.335008
 20
9.348681
  0
VERTEX
  8
0
  6
CONTINUOUS
 10
3.414297
 20
9.328859
  0
VERTEX
  8
0
  6
CONTINUOUS
 10
3.414297
 20
9.241640
  0
VERTEX
  8
0
  6
CONTINUOUS
 10
3.483896
 20
9.231509
  0
VERTEX
  8
0
  6
CONTINUOUS
 10
3.542923
 20
9.213889
  0
VERTEX
  8
0
  6
CONTINUOUS
 10
3.591818
 20
9.189221
  0
VERTEX
  8
0
  6
CONTINUOUS
 10
3.630582
 20
9.158827
  0
VERTEX
  8
0
  6
CONTINUOUS
 10
3.660095
 20
9.124468
  0
VERTEX
  8
0
  6
CONTINUOUS
 10
3.680358
 20
9.086145
  0
VERTEX
  8
0
  6
CONTINUOUS
 10
3.691370
 20
9.046059
  0
VERTEX
  8
0
  6
CONTINUOUS
 10
3.694013
 20
9.004653
  0
VERTEX
  8
0
  6
CONTINUOUS
 10
3.688287
 20
8.963686
  0
VERTEX
  8
0
  6
CONTINUOUS
 10
3.674631
 20
8.924042
  0
VERTEX
  8
0
  6
CONTINUOUS
 10
3.653487
 20
8.886599
  0
VERTEX
  8
0
  6
CONTINUOUS
 10
3.624855
 20
8.852681
  0
VERTEX
  8
0
  6
CONTINUOUS
 10
3.589175
 20
8.824049
  0
VERTEX
  8
0
  6
CONTINUOUS
 10
3.546887
 20
8.801143
  0
VERTEX
  8
0
  6
CONTINUOUS
 10
3.498432
 20
8.784844
  0
VERTEX
  8
0
  6
CONTINUOUS
 10
3.443811
 20
8.777356
  0
VERTEX
  8
0
  6
CONTINUOUS
 10
3.449977
 20
8.727580
  0
VERTEX
  8
0
  6
CONTINUOUS
 10
3.456585
 20
8.692340
  0
VERTEX
  8
0
  6
CONTINUOUS
 10
3.466276
 20
8.650493
  0
VERTEX
  8
0
  6
CONTINUOUS
 10
3.480372
 20
8.602478
  0
VERTEX
  8
0
  6
CONTINUOUS
 10
3.522219
 20
8.495437
  0
VERTEX
  8
0
  6
CONTINUOUS
 10
3.587853
 20
8.382230
  0
VERTEX
  8
0
  6
CONTINUOUS
 10
3.630582
 20
8.326727
  0
VERTEX
  8
0
  6
CONTINUOUS
 10
3.681679
 20
8.273427
  0
VERTEX
  8
0
  6
CONTINUOUS
 10
3.741146
 20
8.224531
  0
VERTEX
  8
0
  6
CONTINUOUS
 10
3.809424
 20
8.180482
  0
VERTEX
  8
0
  6
CONTINUOUS
 10
3.887392
 20
8.143039
  0
VERTEX
  8
0
  6
CONTINUOUS
 10
3.975932
 20
8.113526
  0
VERTEX
  8
0
  6
CONTINUOUS
 10
4.062710
 20
8.080489
  0
VERTEX
  8
0
  6
CONTINUOUS
 10
4.136273
 20
8.034236
  0
VERTEX
  8
0
  6
CONTINUOUS
 10
4.197502
 20
7.975650
  0
VERTEX
  8
0
  6
CONTINUOUS
 10
4.245957
 20
7.907814
  0
VERTEX
  8
0
  6
CONTINUOUS
 10
4.282518
 20
7.832048
  0
VERTEX
  8
0
  6
CONTINUOUS
 10
4.307626
 20
7.750556
  0
VERTEX
  8
0
  6
CONTINUOUS
 10
4.321282
 20
7.665099
  0
VERTEX
  8
0
  6
CONTINUOUS
 10
4.324806
 20
7.578321
  0
VERTEX
  8
0
  6
CONTINUOUS
 10
4.317758
 20
7.491984
  0
VERTEX
  8
0
  6
CONTINUOUS
 10
4.301019
 20
7.408289
  0
VERTEX
  8
0
  6
CONTINUOUS
 10
4.275030
 20
7.328559
  0
VERTEX
  8
0
  6
CONTINUOUS
 10
4.240230
 20
7.255877
  0
VERTEX
  8
0
  6
CONTINUOUS
 10
4.196621
 20
7.191124
  0
VERTEX
  8
0
  6
CONTINUOUS
 10
4.145083
 20
7.137383
  0
VERTEX
  8
0
  6
CONTINUOUS
 10
4.086056
 20
7.095976
  0
VERTEX
  8
0
  6
CONTINUOUS
 10
4.015576
 20
7.068666
  0
SEQEND
  8
0
  0
TEXT
  8
0
 10
3.662297
 20
6.826392
 40
0.137804
  1
BA  773
 41
1.000000
  7
SN0
 71
     0
 72
     5
 11
4.253689
 21
6.826392
  0
TEXT
  8
0
 10
3.432798
 20
6.634775
 40
0.137804
  1
1-3/8" x 2-1/2"
 41
1.000000
  7
SN0
 71
     0
 72
     5
 11
4.485079
 21
6.634775
  0
POLYLINE
  8
0
  6
CONTINUOUS
 66
     1
 40
0.027751
 41
0.027751
  0
VERTEX
  8
0
  6
CONTINUOUS
 10
-0.007048
 20
10.992178
  0
VERTEX
  8
0
  6
CONTINUOUS
 10
8.507331
 20
10.992178
  0
VERTEX
  8
0
  6
CONTINUOUS
 10
8.507331
 20
0.007488
  0
VERTEX
  8
0
  6
CONTINUOUS
 10
-0.007048
 20
0.007488
  0
VERTEX
  8
0
  6
CONTINUOUS
 10
-0.007048
 20
10.992178
  0
SEQEND
  8
0
  0
TEXT
  8
0
 10
3.889594
 20
3.214311
 40
0.137804
  1
BA  773
 41
1.000000
  7
SN0
 71
     0
 72
     5
 11
4.480986
 21
3.214311
  0
TEXT
  8
0
 10
3.660095
 20
3.022695
 40
0.137804
  1
1-3/8" x 2-1/2"
 41
1.000000
  7
SN0
 71
     0
 72
     5
 11
4.712376
 21
3.022695
  0
POLYLINE
  8
0
  6
CONTINUOUS
 66
     1
 40
0.000000
 41
0.000000
  0
VERTEX
  8
0
  6
CONTINUOUS
 10
3.820877
 20
6.018519
  0
VERTEX
  8
0
  6
CONTINUOUS
 10
3.823079
 20
5.983279
  0
VERTEX
  8
0
  6
CONTINUOUS
 10
3.830567
 20
5.936587
  0
VERTEX
  8
0
  6
CONTINUOUS
 10
3.842461
 20
5.897823
  0
VERTEX
  8
0
  6
CONTINUOUS
 10
3.858319
 20
5.865667
  0
VERTEX
  8
0
  6
CONTINUOUS
 10
3.878141
 20
5.839237
  0
VERTEX
  8
0
  6
CONTINUOUS
 10
3.893118
 20
5.824260
  0
VERTEX
  8
0
  6
CONTINUOUS
 10
3.909857
 20
5.811485
  0
VERTEX
  8
0
  6
CONTINUOUS
 10
3.927477
 20
5.800473
  0
VERTEX
  8
0
  6
CONTINUOUS
 10
3.967122
 20
5.782853
  0
VERTEX
  8
0
  6
CONTINUOUS
 10
4.010731
 20
5.768757
  0
VERTEX
  8
0
  6
CONTINUOUS
 10
4.058305
 20
5.757304
  0
VERTEX
  8
0
  6
CONTINUOUS
 10
4.058305
 20
5.671848
  0
VERTEX
  8
0
  6
CONTINUOUS
 10
4.116010
 20
5.663038
  0
VERTEX
  8
0
  6
CONTINUOUS
 10
4.166227
 20
5.649823
  0
VERTEX
  8
0
  6
CONTINUOUS
 10
4.209395
 20
5.632643
  0
VERTEX
  8
0
  6
CONTINUOUS
 10
4.245957
 20
5.611940
  0
VERTEX
  8
0
  6
CONTINUOUS
 10
4.276351
 20
5.588594
  0
VERTEX
  8
0
  6
CONTINUOUS
 10
4.300138
 20
5.562604
  0
VERTEX
  8
0
  6
CONTINUOUS
 10
4.318198
 20
5.534412
  0
VERTEX
  8
0
  6
CONTINUOUS
 10
4.330532
 20
5.505339
  0
VERTEX
  8
0
  6
CONTINUOUS
 10
4.335818
 20
5.485077
  0
VERTEX
  8
0
  6
CONTINUOUS
 10
4.338461
 20
5.464373
  0
VERTEX
  8
0
  6
CONTINUOUS
 10
4.339342
 20
5.443670
  0
VERTEX
  8
0
  6
CONTINUOUS
 10
4.338021
 20
5.423407
  0
VERTEX
  8
0
  6
CONTINUOUS
 10
4.334497
 20
5.402704
  0
VERTEX
  8
0
  6
CONTINUOUS
 10
4.328770
 20
5.382441
  0
VERTEX
  8
0
  6
CONTINUOUS
 10
4.321282
 20
5.362618
  0
VERTEX
  8
0
  6
CONTINUOUS
 10
4.301459
 20
5.324735
  0
VERTEX
  8
0
  6
CONTINUOUS
 10
4.274589
 20
5.290377
  0
VERTEX
  8
0
  6
CONTINUOUS
 10
4.241552
 20
5.260423
  0
VERTEX
  8
0
  6
CONTINUOUS
 10
4.223051
 20
5.247648
  0
VERTEX
  8
0
  6
CONTINUOUS
 10
4.203228
 20
5.236195
  0
VERTEX
  8
0
  6
CONTINUOUS
 10
4.182085
 20
5.226504
  0
VERTEX
  8
0
  6
CONTINUOUS
 10
4.137154
 20
5.212849
  0
VERTEX
  8
0
  6
CONTINUOUS
 10
4.100593
 20
5.208444
  0
VERTEX
  8
0
  6
CONTINUOUS
 10
4.088259
 20
5.208004
  0
VERTEX
  8
0
  6
CONTINUOUS
 10
4.103676
 20
5.122107
  0
VERTEX
  8
0
  6
CONTINUOUS
 10
4.123498
 20
5.042817
  0
VERTEX
  8
0
  6
CONTINUOUS
 10
4.142880
 20
4.985112
  0
VERTEX
  8
0
  6
CONTINUOUS
 10
4.168870
 20
4.923883
  0
VERTEX
  8
0
  6
CONTINUOUS
 10
4.202788
 20
4.860010
  0
VERTEX
  8
0
  6
CONTINUOUS
 10
4.223051
 20
4.826973
  0
VERTEX
  8
0
  6
CONTINUOUS
 10
4.271506
 20
4.760898
  0
VERTEX
  8
0
  6
CONTINUOUS
 10
4.309388
 20
4.718170
  0
VERTEX
  8
0
  6
CONTINUOUS
 10
4.348152
 20
4.681168
  0
VERTEX
  8
0
  6
CONTINUOUS
 10
4.375023
 20
4.659584
  0
VERTEX
  8
0
  6
CONTINUOUS
 10
4.430085
 20
4.622582
  0
VERTEX
  8
0
  6
CONTINUOUS
 10
4.486468
 20
4.592188
  0
VERTEX
  8
0
  6
CONTINUOUS
 10
4.543733
 20
4.567080
  0
VERTEX
  8
0
  6
CONTINUOUS
 10
4.601438
 20
4.545055
  0
VERTEX
  8
0
  6
CONTINUOUS
 10
4.731385
 20
4.498802
  0
VERTEX
  8
0
  6
CONTINUOUS
 10
4.773232
 20
4.475896
  0
VERTEX
  8
0
  6
CONTINUOUS
 10
4.799222
 20
4.456515
  0
VERTEX
  8
0
  6
CONTINUOUS
 10
4.834462
 20
4.421715
  0
VERTEX
  8
0
  6
CONTINUOUS
 10
4.866618
 20
4.381190
  0
VERTEX
  8
0
  6
CONTINUOUS
 10
4.894369
 20
4.334937
  0
VERTEX
  8
0
  6
CONTINUOUS
 10
4.917716
 20
4.284721
  0
VERTEX
  8
0
  6
CONTINUOUS
 10
4.931371
 20
4.248600
  0
VERTEX
  8
0
  6
CONTINUOUS
 10
4.942824
 20
4.211598
  0
VERTEX
  8
0
  6
CONTINUOUS
 10
4.952515
 20
4.173275
  0
VERTEX
  8
0
  6
CONTINUOUS
 10
4.960003
 20
4.133630
  0
VERTEX
  8
0
  6
CONTINUOUS
 10
4.965289
 20
4.093545
  0
VERTEX
  8
0
  6
CONTINUOUS
 10
4.968813
 20
4.052578
  0
VERTEX
  8
0
  6
CONTINUOUS
 10
4.969694
 20
4.011612
  0
VERTEX
  8
0
  6
CONTINUOUS
 10
4.968813
 20
3.970646
  0
VERTEX
  8
0
  6
CONTINUOUS
 10
4.965730
 20
3.929679
  0
VERTEX
  8
0
  6
CONTINUOUS
 10
4.960444
 20
3.889154
  0
VERTEX
  8
0
  6
CONTINUOUS
 10
4.947669
 20
3.829246
  0
VERTEX
  8
0
  6
CONTINUOUS
 10
4.930050
 20
3.771981
  0
VERTEX
  8
0
  6
CONTINUOUS
 10
4.906703
 20
3.717360
  0
VERTEX
  8
0
  6
CONTINUOUS
 10
4.888202
 20
3.683001
  0
VERTEX
  8
0
  6
CONTINUOUS
 10
4.867058
 20
3.650404
  0
VERTEX
  8
0
  6
CONTINUOUS
 10
4.830497
 20
3.605914
  0
VERTEX
  8
0
  6
CONTINUOUS
 10
4.802746
 20
3.579043
  0
VERTEX
  8
0
  6
CONTINUOUS
 10
4.772351
 20
3.554816
  0
VERTEX
  8
0
  6
CONTINUOUS
 10
4.739314
 20
3.533672
  0
VERTEX
  8
0
  6
CONTINUOUS
 10
4.703634
 20
3.515612
  0
VERTEX
  8
0
  6
CONTINUOUS
 10
4.664870
 20
3.500635
  0
VERTEX
  8
0
  6
CONTINUOUS
 10
3.589175
 20
3.500635
  0
VERTEX
  8
0
  6
CONTINUOUS
 10
3.589175
 20
6.018960
  0
VERTEX
  8
0
  6
CONTINUOUS
 10
3.820877
 20
6.018519
  0
SEQEND
  8
0
  0
ENDSEC
  0
EOF
