  0
SECTION
  2
HEADER
  9
$ACADVER
  1
AC1006
  9
$EXTMIN
 10
2.645280
 20
0.740520
  9
$EXTMAX
 10
6.765440
 20
4.896320
  9
$LTSCALE
 40
0.044000
  9
$PDMODE
 70
    35
  9
$PDSIZE
 40
0.035200
  0
ENDSEC
  0
SECTION
  2
TABLES
  0
TABLE
  2
LTYPE
 70
     9
  0
LTYPE
  2
CONTINUOUS
 70
    64
  3
Solid line
 72
    65
 73
     0
 40
0.000000
  0
LTYPE
  2
DASHED
 70
    64
  3
__ __ __ __ __ __ __ __ __ __ __ __ __ __ __
 72
    65
 73
     2
 40
0.000330
 49
0.000220
 49
-0.000110
  0
LTYPE
  2
HIDDEN
 70
    64
  3
 _ _ _ _ _ _ _ _ _ _ _ _ _ _ _ _ _ _ _ _ _ _
 72
    65
 73
     2
 40
0.000165
 49
0.000110
 49
-0.000055
  0
LTYPE
  2
CENTER
 70
    64
  3
____ _ ____ _ ____ _ ____ _ ____ _ ____ _ ____
 72
    65
 73
     4
 40
0.000880
 49
0.000550
 49
-0.000110
 49
0.000110
 49
-0.000110
  0
LTYPE
  2
PHANTOM
 70
    64
  3
_____ _ _ _____ _ _ _____ _ _ _____ _ _ ____
 72
    65
 73
     6
 40
0.001100
 49
0.000550
 49
-0.000110
 49
0.000110
 49
-0.000110
 49
0.000110
 49
-0.000110
  0
LTYPE
  2
DOT
 70
    64
  3
...............................................
 72
    65
 73
     2
 40
0.000110
 49
0.000000
 49
-0.000110
  0
LTYPE
  2
DASHDOT
 70
    64
  3
__ . __ . __ . __ . __ . __ . __ . __ . __ . __
 72
    65
 73
     4
 40
0.000440
 49
0.000220
 49
-0.000110
 49
0.000000
 49
-0.000110
  0
LTYPE
  2
BORDER
 70
    64
  3
__ __ . __ __ . __ __ . __ __ . __ __ . __ __
 72
    65
 73
     6
 40
0.000770
 49
0.000220
 49
-0.000110
 49
0.000220
 49
-0.000110
 49
0.000000
 49
-0.000110
  0
LTYPE
  2
DIVIDE
 70
    64
  3
__ . . __ . . __ . . __ . . __ . . __ . . __
 72
    65
 73
     6
 40
0.000550
 49
0.000220
 49
-0.000110
 49
0.000000
 49
-0.000110
 49
0.000000
 49
-0.000110
  0
LTYPE
  2
DOTDOT
 70
    64
  3
 . .  . .  . .  . .  . .  . . 
 72
    65
 73
     5
 40
0.000242
 49
-0.000110
 49
0.000000
 49
-0.000110
 49
0.000000
 49
-0.000110
  0
ENDTAB
  0
TABLE
  2
STYLE
 70
     2
  0
STYLE
 70
     0
  2
SN0
 40
0.000000
 41
0.000440
 50
0.000000
 71
     0
 42
0.000000
  3
ROMAND
  0
STYLE
 70
    68
  2
SV0
 40
0.000000
 41
0.000440
 50
0.000000
 71
     0
 42
0.000000
  3
ROMAND
  0
ENDTAB
  0
TABLE
  2
LAYER
 70
     3
  0
LAYER
  2
FOREGROUND
 70
    64
 62
     7
  6
CONTINUOUS
  0
LAYER
  2
BACKGROUND
 70
    65
 62
    -7
  6
CONTINUOUS
  0
LAYER
  2
0
 70
    64
 62
     7
  6
CONTINUOUS
  0
ENDTAB
  0
ENDSEC
  0
SECTION
  2
ENTITIES
  0
POLYLINE
  8
FOREGROUND
  6
CONTINUOUS
 66
     1
 40
0.000000
 41
0.000000
  0
VERTEX
  8
FOREGROUND
  6
CONTINUOUS
 10
0.000000
 20
5.636840
  0
VERTEX
  8
FOREGROUND
  6
CONTINUOUS
 10
8.499920
 20
5.636840
  0
VERTEX
  8
FOREGROUND
  6
CONTINUOUS
 10
8.499920
 20
-5.363160
  0
VERTEX
  8
FOREGROUND
  6
CONTINUOUS
 10
0.000000
 20
-5.363160
  0
VERTEX
  8
FOREGROUND
  6
CONTINUOUS
 10
0.000000
 20
5.636840
  0
SEQEND
  8
0
  0
POLYLINE
  8
FOREGROUND
  6
CONTINUOUS
 66
     1
 40
0.000000
 41
0.000000
  0
VERTEX
  8
FOREGROUND
  6
CONTINUOUS
 10
0.000000
 20
5.636840
  0
VERTEX
  8
FOREGROUND
  6
CONTINUOUS
 10
8.499920
 20
5.636840
  0
VERTEX
  8
FOREGROUND
  6
CONTINUOUS
 10
8.499920
 20
-5.363160
  0
VERTEX
  8
FOREGROUND
  6
CONTINUOUS
 10
0.000000
 20
-5.363160
  0
VERTEX
  8
FOREGROUND
  6
CONTINUOUS
 10
0.000000
 20
5.636840
  0
SEQEND
  8
0
  0
SOLID
  8
0
 62
    15
 10
5.249200
 20
2.077680
 11
5.253160
 21
2.826120
 12
5.308160
 22
2.061400
 13
5.311680
 23
2.809840
  0
POLYLINE
  8
0
  6
CONTINUOUS
 66
     1
 40
0.000000
 41
0.000000
  0
VERTEX
  8
0
  6
CONTINUOUS
 10
5.249200
 20
2.077680
  0
VERTEX
  8
0
  6
CONTINUOUS
 10
5.253160
 20
2.826120
  0
VERTEX
  8
0
  6
CONTINUOUS
 10
5.311680
 20
2.809840
  0
VERTEX
  8
0
  6
CONTINUOUS
 10
5.308160
 20
2.061400
  0
VERTEX
  8
0
  6
CONTINUOUS
 10
5.249200
 20
2.077680
  0
SEQEND
  8
0
  0
SOLID
  8
0
 62
    15
 10
3.113440
 20
2.308680
 11
3.116960
 21
3.057120
 12
3.144240
 22
2.308680
 13
3.148200
 23
3.057120
  0
POLYLINE
  8
0
  6
CONTINUOUS
 66
     1
 40
0.000000
 41
0.000000
  0
VERTEX
  8
0
  6
CONTINUOUS
 10
3.113440
 20
2.308680
  0
VERTEX
  8
0
  6
CONTINUOUS
 10
3.116960
 20
3.057120
  0
VERTEX
  8
0
  6
CONTINUOUS
 10
3.148200
 20
3.057120
  0
VERTEX
  8
0
  6
CONTINUOUS
 10
3.144240
 20
2.308680
  0
VERTEX
  8
0
  6
CONTINUOUS
 10
3.113440
 20
2.308680
  0
SEQEND
  8
0
  0
SOLID
  8
0
 62
    15
 10
3.144240
 20
2.308680
 11
3.148200
 21
3.057120
 12
3.186040
 22
2.345200
 13
3.190000
 23
3.093640
  0
POLYLINE
  8
0
  6
CONTINUOUS
 66
     1
 40
0.000000
 41
0.000000
  0
VERTEX
  8
0
  6
CONTINUOUS
 10
3.144240
 20
2.308680
  0
VERTEX
  8
0
  6
CONTINUOUS
 10
3.148200
 20
3.057120
  0
VERTEX
  8
0
  6
CONTINUOUS
 10
3.190000
 20
3.093640
  0
VERTEX
  8
0
  6
CONTINUOUS
 10
3.186040
 20
2.345200
  0
VERTEX
  8
0
  6
CONTINUOUS
 10
3.144240
 20
2.308680
  0
SEQEND
  8
0
  0
SOLID
  8
0
 62
    15
 10
3.186040
 20
2.345200
 11
3.190000
 21
3.093640
 12
3.237520
 22
2.371160
 13
3.241040
 23
3.119600
  0
POLYLINE
  8
0
  6
CONTINUOUS
 66
     1
 40
0.000000
 41
0.000000
  0
VERTEX
  8
0
  6
CONTINUOUS
 10
3.186040
 20
2.345200
  0
VERTEX
  8
0
  6
CONTINUOUS
 10
3.190000
 20
3.093640
  0
VERTEX
  8
0
  6
CONTINUOUS
 10
3.241040
 20
3.119600
  0
VERTEX
  8
0
  6
CONTINUOUS
 10
3.237520
 20
2.371160
  0
VERTEX
  8
0
  6
CONTINUOUS
 10
3.186040
 20
2.345200
  0
SEQEND
  8
0
  0
SOLID
  8
0
 62
    15
 10
3.237520
 20
2.371160
 11
3.241040
 21
3.119600
 12
3.295160
 22
2.384360
 13
3.298680
 23
3.132800
  0
POLYLINE
  8
0
  6
CONTINUOUS
 66
     1
 40
0.000000
 41
0.000000
  0
VERTEX
  8
0
  6
CONTINUOUS
 10
3.237520
 20
2.371160
  0
VERTEX
  8
0
  6
CONTINUOUS
 10
3.241040
 20
3.119600
  0
VERTEX
  8
0
  6
CONTINUOUS
 10
3.298680
 20
3.132800
  0
VERTEX
  8
0
  6
CONTINUOUS
 10
3.295160
 20
2.384360
  0
VERTEX
  8
0
  6
CONTINUOUS
 10
3.237520
 20
2.371160
  0
SEQEND
  8
0
  0
SOLID
  8
0
 62
    15
 10
3.295160
 20
2.384360
 11
3.298680
 21
3.132800
 12
3.356760
 22
2.383920
 13
3.360280
 23
3.132360
  0
POLYLINE
  8
0
  6
CONTINUOUS
 66
     1
 40
0.000000
 41
0.000000
  0
VERTEX
  8
0
  6
CONTINUOUS
 10
3.295160
 20
2.384360
  0
VERTEX
  8
0
  6
CONTINUOUS
 10
3.298680
 20
3.132800
  0
VERTEX
  8
0
  6
CONTINUOUS
 10
3.360280
 20
3.132360
  0
VERTEX
  8
0
  6
CONTINUOUS
 10
3.356760
 20
2.383920
  0
VERTEX
  8
0
  6
CONTINUOUS
 10
3.295160
 20
2.384360
  0
SEQEND
  8
0
  0
SOLID
  8
0
 62
    15
 10
3.356760
 20
2.383920
 11
3.360280
 21
3.132360
 12
3.419240
 22
2.368080
 13
3.423200
 23
3.116520
  0
POLYLINE
  8
0
  6
CONTINUOUS
 66
     1
 40
0.000000
 41
0.000000
  0
VERTEX
  8
0
  6
CONTINUOUS
 10
3.356760
 20
2.383920
  0
VERTEX
  8
0
  6
CONTINUOUS
 10
3.360280
 20
3.132360
  0
VERTEX
  8
0
  6
CONTINUOUS
 10
3.423200
 20
3.116520
  0
VERTEX
  8
0
  6
CONTINUOUS
 10
3.419240
 20
2.368080
  0
VERTEX
  8
0
  6
CONTINUOUS
 10
3.356760
 20
2.383920
  0
SEQEND
  8
0
  0
SOLID
  8
0
 62
    15
 10
3.419240
 20
2.368080
 11
3.423200
 21
3.116520
 12
3.480840
 22
2.335080
 13
3.484360
 23
3.083520
  0
POLYLINE
  8
0
  6
CONTINUOUS
 66
     1
 40
0.000000
 41
0.000000
  0
VERTEX
  8
0
  6
CONTINUOUS
 10
3.419240
 20
2.368080
  0
VERTEX
  8
0
  6
CONTINUOUS
 10
3.423200
 20
3.116520
  0
VERTEX
  8
0
  6
CONTINUOUS
 10
3.484360
 20
3.083520
  0
VERTEX
  8
0
  6
CONTINUOUS
 10
3.480840
 20
2.335080
  0
VERTEX
  8
0
  6
CONTINUOUS
 10
3.419240
 20
2.368080
  0
SEQEND
  8
0
  0
SOLID
  8
0
 62
    15
 10
3.480840
 20
2.335080
 11
3.484360
 21
3.083520
 12
3.538040
 22
2.283600
 13
3.541560
 23
3.032040
  0
POLYLINE
  8
0
  6
CONTINUOUS
 66
     1
 40
0.000000
 41
0.000000
  0
VERTEX
  8
0
  6
CONTINUOUS
 10
3.480840
 20
2.335080
  0
VERTEX
  8
0
  6
CONTINUOUS
 10
3.484360
 20
3.083520
  0
VERTEX
  8
0
  6
CONTINUOUS
 10
3.541560
 20
3.032040
  0
VERTEX
  8
0
  6
CONTINUOUS
 10
3.538040
 20
2.283600
  0
VERTEX
  8
0
  6
CONTINUOUS
 10
3.480840
 20
2.335080
  0
SEQEND
  8
0
  0
SOLID
  8
0
 62
    15
 10
3.538040
 20
2.283600
 11
3.541560
 21
3.032040
 12
3.588200
 22
2.211440
 13
3.591720
 23
2.959880
  0
POLYLINE
  8
0
  6
CONTINUOUS
 66
     1
 40
0.000000
 41
0.000000
  0
VERTEX
  8
0
  6
CONTINUOUS
 10
3.538040
 20
2.283600
  0
VERTEX
  8
0
  6
CONTINUOUS
 10
3.541560
 20
3.032040
  0
VERTEX
  8
0
  6
CONTINUOUS
 10
3.591720
 20
2.959880
  0
VERTEX
  8
0
  6
CONTINUOUS
 10
3.588200
 20
2.211440
  0
VERTEX
  8
0
  6
CONTINUOUS
 10
3.538040
 20
2.283600
  0
SEQEND
  8
0
  0
SOLID
  8
0
 62
    15
 10
3.588200
 20
2.211440
 11
3.591720
 21
2.959880
 12
3.632640
 22
2.136200
 13
3.636160
 23
2.884640
  0
POLYLINE
  8
0
  6
CONTINUOUS
 66
     1
 40
0.000000
 41
0.000000
  0
VERTEX
  8
0
  6
CONTINUOUS
 10
3.588200
 20
2.211440
  0
VERTEX
  8
0
  6
CONTINUOUS
 10
3.591720
 20
2.959880
  0
VERTEX
  8
0
  6
CONTINUOUS
 10
3.636160
 20
2.884640
  0
VERTEX
  8
0
  6
CONTINUOUS
 10
3.632640
 20
2.136200
  0
VERTEX
  8
0
  6
CONTINUOUS
 10
3.588200
 20
2.211440
  0
SEQEND
  8
0
  0
SOLID
  8
0
 62
    15
 10
3.632640
 20
2.136200
 11
3.636160
 21
2.884640
 12
3.675320
 22
2.074160
 13
3.678840
 23
2.822600
  0
POLYLINE
  8
0
  6
CONTINUOUS
 66
     1
 40
0.000000
 41
0.000000
  0
VERTEX
  8
0
  6
CONTINUOUS
 10
3.632640
 20
2.136200
  0
VERTEX
  8
0
  6
CONTINUOUS
 10
3.636160
 20
2.884640
  0
VERTEX
  8
0
  6
CONTINUOUS
 10
3.678840
 20
2.822600
  0
VERTEX
  8
0
  6
CONTINUOUS
 10
3.675320
 20
2.074160
  0
VERTEX
  8
0
  6
CONTINUOUS
 10
3.632640
 20
2.136200
  0
SEQEND
  8
0
  0
SOLID
  8
0
 62
    15
 10
3.675320
 20
2.074160
 11
3.678840
 21
2.822600
 12
3.718000
 22
2.024000
 13
3.721520
 23
2.772440
  0
POLYLINE
  8
0
  6
CONTINUOUS
 66
     1
 40
0.000000
 41
0.000000
  0
VERTEX
  8
0
  6
CONTINUOUS
 10
3.675320
 20
2.074160
  0
VERTEX
  8
0
  6
CONTINUOUS
 10
3.678840
 20
2.822600
  0
VERTEX
  8
0
  6
CONTINUOUS
 10
3.721520
 20
2.772440
  0
VERTEX
  8
0
  6
CONTINUOUS
 10
3.718000
 20
2.024000
  0
VERTEX
  8
0
  6
CONTINUOUS
 10
3.675320
 20
2.074160
  0
SEQEND
  8
0
  0
SOLID
  8
0
 62
    15
 10
3.718000
 20
2.024000
 11
3.721520
 21
2.772440
 12
3.762880
 22
1.984400
 13
3.766400
 23
2.733280
  0
POLYLINE
  8
0
  6
CONTINUOUS
 66
     1
 40
0.000000
 41
0.000000
  0
VERTEX
  8
0
  6
CONTINUOUS
 10
3.718000
 20
2.024000
  0
VERTEX
  8
0
  6
CONTINUOUS
 10
3.721520
 20
2.772440
  0
VERTEX
  8
0
  6
CONTINUOUS
 10
3.766400
 20
2.733280
  0
VERTEX
  8
0
  6
CONTINUOUS
 10
3.762880
 20
1.984400
  0
VERTEX
  8
0
  6
CONTINUOUS
 10
3.718000
 20
2.024000
  0
SEQEND
  8
0
  0
SOLID
  8
0
 62
    15
 10
3.762880
 20
1.984400
 11
3.766400
 21
2.733280
 12
3.811720
 22
1.954480
 13
3.815680
 23
2.702920
  0
POLYLINE
  8
0
  6
CONTINUOUS
 66
     1
 40
0.000000
 41
0.000000
  0
VERTEX
  8
0
  6
CONTINUOUS
 10
3.762880
 20
1.984400
  0
VERTEX
  8
0
  6
CONTINUOUS
 10
3.766400
 20
2.733280
  0
VERTEX
  8
0
  6
CONTINUOUS
 10
3.815680
 20
2.702920
  0
VERTEX
  8
0
  6
CONTINUOUS
 10
3.811720
 20
1.954480
  0
VERTEX
  8
0
  6
CONTINUOUS
 10
3.762880
 20
1.984400
  0
SEQEND
  8
0
  0
SOLID
  8
0
 62
    15
 10
3.811720
 20
1.954480
 11
3.815680
 21
2.702920
 12
3.866720
 22
1.932040
 13
3.870680
 23
2.680480
  0
POLYLINE
  8
0
  6
CONTINUOUS
 66
     1
 40
0.000000
 41
0.000000
  0
VERTEX
  8
0
  6
CONTINUOUS
 10
3.811720
 20
1.954480
  0
VERTEX
  8
0
  6
CONTINUOUS
 10
3.815680
 20
2.702920
  0
VERTEX
  8
0
  6
CONTINUOUS
 10
3.870680
 20
2.680480
  0
VERTEX
  8
0
  6
CONTINUOUS
 10
3.866720
 20
1.932040
  0
VERTEX
  8
0
  6
CONTINUOUS
 10
3.811720
 20
1.954480
  0
SEQEND
  8
0
  0
SOLID
  8
0
 62
    15
 10
3.866720
 20
1.932040
 11
3.870680
 21
2.680480
 12
3.929640
 22
1.915760
 13
3.933600
 23
2.664200
  0
POLYLINE
  8
0
  6
CONTINUOUS
 66
     1
 40
0.000000
 41
0.000000
  0
VERTEX
  8
0
  6
CONTINUOUS
 10
3.866720
 20
1.932040
  0
VERTEX
  8
0
  6
CONTINUOUS
 10
3.870680
 20
2.680480
  0
VERTEX
  8
0
  6
CONTINUOUS
 10
3.933600
 20
2.664200
  0
VERTEX
  8
0
  6
CONTINUOUS
 10
3.929640
 20
1.915760
  0
VERTEX
  8
0
  6
CONTINUOUS
 10
3.866720
 20
1.932040
  0
SEQEND
  8
0
  0
SOLID
  8
0
 62
    15
 10
3.929640
 20
1.915760
 11
3.933600
 21
2.664200
 12
4.002680
 22
1.905200
 13
4.006200
 23
2.653640
  0
POLYLINE
  8
0
  6
CONTINUOUS
 66
     1
 40
0.000000
 41
0.000000
  0
VERTEX
  8
0
  6
CONTINUOUS
 10
3.929640
 20
1.915760
  0
VERTEX
  8
0
  6
CONTINUOUS
 10
3.933600
 20
2.664200
  0
VERTEX
  8
0
  6
CONTINUOUS
 10
4.006200
 20
2.653640
  0
VERTEX
  8
0
  6
CONTINUOUS
 10
4.002680
 20
1.905200
  0
VERTEX
  8
0
  6
CONTINUOUS
 10
3.929640
 20
1.915760
  0
SEQEND
  8
0
  0
SOLID
  8
0
 62
    15
 10
4.002680
 20
1.905200
 11
4.006200
 21
2.653640
 12
4.006200
 22
1.855040
 13
4.009720
 23
2.603480
  0
POLYLINE
  8
0
  6
CONTINUOUS
 66
     1
 40
0.000000
 41
0.000000
  0
VERTEX
  8
0
  6
CONTINUOUS
 10
4.002680
 20
1.905200
  0
VERTEX
  8
0
  6
CONTINUOUS
 10
4.006200
 20
2.653640
  0
VERTEX
  8
0
  6
CONTINUOUS
 10
4.009720
 20
2.603480
  0
VERTEX
  8
0
  6
CONTINUOUS
 10
4.006200
 20
1.855040
  0
VERTEX
  8
0
  6
CONTINUOUS
 10
4.002680
 20
1.905200
  0
SEQEND
  8
0
  0
SOLID
  8
0
 62
    15
 10
4.006200
 20
1.855040
 11
4.009720
 21
2.603480
 12
5.063080
 22
1.855040
 13
5.067040
 23
2.603480
  0
POLYLINE
  8
0
  6
CONTINUOUS
 66
     1
 40
0.000000
 41
0.000000
  0
VERTEX
  8
0
  6
CONTINUOUS
 10
4.006200
 20
1.855040
  0
VERTEX
  8
0
  6
CONTINUOUS
 10
4.009720
 20
2.603480
  0
VERTEX
  8
0
  6
CONTINUOUS
 10
5.067040
 20
2.603480
  0
VERTEX
  8
0
  6
CONTINUOUS
 10
5.063080
 20
1.855040
  0
VERTEX
  8
0
  6
CONTINUOUS
 10
4.006200
 20
1.855040
  0
SEQEND
  8
0
  0
SOLID
  8
0
 62
    15
 10
5.063080
 20
1.855040
 11
5.067040
 21
2.603480
 12
5.067480
 22
1.899480
 13
5.071000
 23
2.647920
  0
POLYLINE
  8
0
  6
CONTINUOUS
 66
     1
 40
0.000000
 41
0.000000
  0
VERTEX
  8
0
  6
CONTINUOUS
 10
5.063080
 20
1.855040
  0
VERTEX
  8
0
  6
CONTINUOUS
 10
5.067040
 20
2.603480
  0
VERTEX
  8
0
  6
CONTINUOUS
 10
5.071000
 20
2.647920
  0
VERTEX
  8
0
  6
CONTINUOUS
 10
5.067480
 20
1.899480
  0
VERTEX
  8
0
  6
CONTINUOUS
 10
5.063080
 20
1.855040
  0
SEQEND
  8
0
  0
SOLID
  8
0
 62
    15
 10
5.067480
 20
1.899480
 11
5.071000
 21
2.647920
 12
5.075400
 22
1.939520
 13
5.079360
 23
2.687960
  0
POLYLINE
  8
0
  6
CONTINUOUS
 66
     1
 40
0.000000
 41
0.000000
  0
VERTEX
  8
0
  6
CONTINUOUS
 10
5.067480
 20
1.899480
  0
VERTEX
  8
0
  6
CONTINUOUS
 10
5.071000
 20
2.647920
  0
VERTEX
  8
0
  6
CONTINUOUS
 10
5.079360
 20
2.687960
  0
VERTEX
  8
0
  6
CONTINUOUS
 10
5.075400
 20
1.939520
  0
VERTEX
  8
0
  6
CONTINUOUS
 10
5.067480
 20
1.899480
  0
SEQEND
  8
0
  0
SOLID
  8
0
 62
    15
 10
5.075400
 20
1.939520
 11
5.079360
 21
2.687960
 12
5.087720
 22
1.974280
 13
5.091680
 23
2.722720
  0
POLYLINE
  8
0
  6
CONTINUOUS
 66
     1
 40
0.000000
 41
0.000000
  0
VERTEX
  8
0
  6
CONTINUOUS
 10
5.075400
 20
1.939520
  0
VERTEX
  8
0
  6
CONTINUOUS
 10
5.079360
 20
2.687960
  0
VERTEX
  8
0
  6
CONTINUOUS
 10
5.091680
 20
2.722720
  0
VERTEX
  8
0
  6
CONTINUOUS
 10
5.087720
 20
1.974280
  0
VERTEX
  8
0
  6
CONTINUOUS
 10
5.075400
 20
1.939520
  0
SEQEND
  8
0
  0
SOLID
  8
0
 62
    15
 10
5.087720
 20
1.974280
 11
5.091680
 21
2.722720
 12
5.103560
 22
2.004200
 13
5.107080
 23
2.752640
  0
POLYLINE
  8
0
  6
CONTINUOUS
 66
     1
 40
0.000000
 41
0.000000
  0
VERTEX
  8
0
  6
CONTINUOUS
 10
5.087720
 20
1.974280
  0
VERTEX
  8
0
  6
CONTINUOUS
 10
5.091680
 20
2.722720
  0
VERTEX
  8
0
  6
CONTINUOUS
 10
5.107080
 20
2.752640
  0
VERTEX
  8
0
  6
CONTINUOUS
 10
5.103560
 20
2.004200
  0
VERTEX
  8
0
  6
CONTINUOUS
 10
5.087720
 20
1.974280
  0
SEQEND
  8
0
  0
SOLID
  8
0
 62
    15
 10
5.103560
 20
2.004200
 11
5.107080
 21
2.752640
 12
5.144040
 22
2.048640
 13
5.147560
 23
2.797080
  0
POLYLINE
  8
0
  6
CONTINUOUS
 66
     1
 40
0.000000
 41
0.000000
  0
VERTEX
  8
0
  6
CONTINUOUS
 10
5.103560
 20
2.004200
  0
VERTEX
  8
0
  6
CONTINUOUS
 10
5.107080
 20
2.752640
  0
VERTEX
  8
0
  6
CONTINUOUS
 10
5.147560
 20
2.797080
  0
VERTEX
  8
0
  6
CONTINUOUS
 10
5.144040
 20
2.048640
  0
VERTEX
  8
0
  6
CONTINUOUS
 10
5.103560
 20
2.004200
  0
SEQEND
  8
0
  0
SOLID
  8
0
 62
    15
 10
5.144040
 20
2.048640
 11
5.147560
 21
2.797080
 12
5.193760
 22
2.073280
 13
5.197280
 23
2.821720
  0
POLYLINE
  8
0
  6
CONTINUOUS
 66
     1
 40
0.000000
 41
0.000000
  0
VERTEX
  8
0
  6
CONTINUOUS
 10
5.144040
 20
2.048640
  0
VERTEX
  8
0
  6
CONTINUOUS
 10
5.147560
 20
2.797080
  0
VERTEX
  8
0
  6
CONTINUOUS
 10
5.197280
 20
2.821720
  0
VERTEX
  8
0
  6
CONTINUOUS
 10
5.193760
 20
2.073280
  0
VERTEX
  8
0
  6
CONTINUOUS
 10
5.144040
 20
2.048640
  0
SEQEND
  8
0
  0
SOLID
  8
0
 62
    15
 10
5.193760
 20
2.073280
 11
5.197280
 21
2.821720
 12
5.249200
 22
2.077680
 13
5.253160
 23
2.826120
  0
POLYLINE
  8
0
  6
CONTINUOUS
 66
     1
 40
0.000000
 41
0.000000
  0
VERTEX
  8
0
  6
CONTINUOUS
 10
5.193760
 20
2.073280
  0
VERTEX
  8
0
  6
CONTINUOUS
 10
5.197280
 20
2.821720
  0
VERTEX
  8
0
  6
CONTINUOUS
 10
5.253160
 20
2.826120
  0
VERTEX
  8
0
  6
CONTINUOUS
 10
5.249200
 20
2.077680
  0
VERTEX
  8
0
  6
CONTINUOUS
 10
5.193760
 20
2.073280
  0
SEQEND
  8
0
  0
SOLID
  8
0
 62
    15
 10
3.082200
 20
2.442000
 11
3.086160
 21
3.190440
 12
3.113440
 22
2.308680
 13
3.116960
 23
3.057120
  0
POLYLINE
  8
0
  6
CONTINUOUS
 66
     1
 40
0.000000
 41
0.000000
  0
VERTEX
  8
0
  6
CONTINUOUS
 10
3.082200
 20
2.442000
  0
VERTEX
  8
0
  6
CONTINUOUS
 10
3.086160
 20
3.190440
  0
VERTEX
  8
0
  6
CONTINUOUS
 10
3.116960
 20
3.057120
  0
VERTEX
  8
0
  6
CONTINUOUS
 10
3.113440
 20
2.308680
  0
VERTEX
  8
0
  6
CONTINUOUS
 10
3.082200
 20
2.442000
  0
SEQEND
  8
0
  0
SOLID
  8
0
 62
    15
 10
5.308160
 20
2.061400
 11
5.311680
 21
2.809840
 12
5.366240
 22
2.024440
 13
5.370200
 23
2.772880
  0
POLYLINE
  8
0
  6
CONTINUOUS
 66
     1
 40
0.000000
 41
0.000000
  0
VERTEX
  8
0
  6
CONTINUOUS
 10
5.308160
 20
2.061400
  0
VERTEX
  8
0
  6
CONTINUOUS
 10
5.311680
 20
2.809840
  0
VERTEX
  8
0
  6
CONTINUOUS
 10
5.370200
 20
2.772880
  0
VERTEX
  8
0
  6
CONTINUOUS
 10
5.366240
 20
2.024440
  0
VERTEX
  8
0
  6
CONTINUOUS
 10
5.308160
 20
2.061400
  0
SEQEND
  8
0
  0
SOLID
  8
0
 62
    15
 10
5.366240
 20
2.024440
 11
5.370200
 21
2.772880
 12
5.421680
 22
1.966800
 13
5.425200
 23
2.715240
  0
POLYLINE
  8
0
  6
CONTINUOUS
 66
     1
 40
0.000000
 41
0.000000
  0
VERTEX
  8
0
  6
CONTINUOUS
 10
5.366240
 20
2.024440
  0
VERTEX
  8
0
  6
CONTINUOUS
 10
5.370200
 20
2.772880
  0
VERTEX
  8
0
  6
CONTINUOUS
 10
5.425200
 20
2.715240
  0
VERTEX
  8
0
  6
CONTINUOUS
 10
5.421680
 20
1.966800
  0
VERTEX
  8
0
  6
CONTINUOUS
 10
5.366240
 20
2.024440
  0
SEQEND
  8
0
  0
SOLID
  8
0
 62
    15
 10
5.421680
 20
1.966800
 11
5.425200
 21
2.715240
 12
5.469640
 22
1.906520
 13
5.473160
 23
2.655400
  0
POLYLINE
  8
0
  6
CONTINUOUS
 66
     1
 40
0.000000
 41
0.000000
  0
VERTEX
  8
0
  6
CONTINUOUS
 10
5.421680
 20
1.966800
  0
VERTEX
  8
0
  6
CONTINUOUS
 10
5.425200
 20
2.715240
  0
VERTEX
  8
0
  6
CONTINUOUS
 10
5.473160
 20
2.655400
  0
VERTEX
  8
0
  6
CONTINUOUS
 10
5.469640
 20
1.906520
  0
VERTEX
  8
0
  6
CONTINUOUS
 10
5.421680
 20
1.966800
  0
SEQEND
  8
0
  0
SOLID
  8
0
 62
    15
 10
5.469640
 20
1.906520
 11
5.473160
 21
2.655400
 12
5.510120
 22
1.861200
 13
5.513640
 23
2.609640
  0
POLYLINE
  8
0
  6
CONTINUOUS
 66
     1
 40
0.000000
 41
0.000000
  0
VERTEX
  8
0
  6
CONTINUOUS
 10
5.469640
 20
1.906520
  0
VERTEX
  8
0
  6
CONTINUOUS
 10
5.473160
 20
2.655400
  0
VERTEX
  8
0
  6
CONTINUOUS
 10
5.513640
 20
2.609640
  0
VERTEX
  8
0
  6
CONTINUOUS
 10
5.510120
 20
1.861200
  0
VERTEX
  8
0
  6
CONTINUOUS
 10
5.469640
 20
1.906520
  0
SEQEND
  8
0
  0
SOLID
  8
0
 62
    15
 10
5.510120
 20
1.861200
 11
5.513640
 21
2.609640
 12
5.544880
 22
1.827760
 13
5.548840
 23
2.576200
  0
POLYLINE
  8
0
  6
CONTINUOUS
 66
     1
 40
0.000000
 41
0.000000
  0
VERTEX
  8
0
  6
CONTINUOUS
 10
5.510120
 20
1.861200
  0
VERTEX
  8
0
  6
CONTINUOUS
 10
5.513640
 20
2.609640
  0
VERTEX
  8
0
  6
CONTINUOUS
 10
5.548840
 20
2.576200
  0
VERTEX
  8
0
  6
CONTINUOUS
 10
5.544880
 20
1.827760
  0
VERTEX
  8
0
  6
CONTINUOUS
 10
5.510120
 20
1.861200
  0
SEQEND
  8
0
  0
SOLID
  8
0
 62
    15
 10
5.544880
 20
1.827760
 11
5.548840
 21
2.576200
 12
5.575680
 22
1.804440
 13
5.579200
 23
2.552880
  0
POLYLINE
  8
0
  6
CONTINUOUS
 66
     1
 40
0.000000
 41
0.000000
  0
VERTEX
  8
0
  6
CONTINUOUS
 10
5.544880
 20
1.827760
  0
VERTEX
  8
0
  6
CONTINUOUS
 10
5.548840
 20
2.576200
  0
VERTEX
  8
0
  6
CONTINUOUS
 10
5.579200
 20
2.552880
  0
VERTEX
  8
0
  6
CONTINUOUS
 10
5.575680
 20
1.804440
  0
VERTEX
  8
0
  6
CONTINUOUS
 10
5.544880
 20
1.827760
  0
SEQEND
  8
0
  0
SOLID
  8
0
 62
    15
 10
5.575680
 20
1.804440
 11
5.579200
 21
2.552880
 12
5.630680
 22
1.779360
 13
5.634200
 23
2.527800
  0
POLYLINE
  8
0
  6
CONTINUOUS
 66
     1
 40
0.000000
 41
0.000000
  0
VERTEX
  8
0
  6
CONTINUOUS
 10
5.575680
 20
1.804440
  0
VERTEX
  8
0
  6
CONTINUOUS
 10
5.579200
 20
2.552880
  0
VERTEX
  8
0
  6
CONTINUOUS
 10
5.634200
 20
2.527800
  0
VERTEX
  8
0
  6
CONTINUOUS
 10
5.630680
 20
1.779360
  0
VERTEX
  8
0
  6
CONTINUOUS
 10
5.575680
 20
1.804440
  0
SEQEND
  8
0
  0
SOLID
  8
0
 62
    15
 10
5.630680
 20
1.779360
 11
5.634200
 21
2.527800
 12
5.658400
 22
1.773200
 13
5.661920
 23
2.521640
  0
POLYLINE
  8
0
  6
CONTINUOUS
 66
     1
 40
0.000000
 41
0.000000
  0
VERTEX
  8
0
  6
CONTINUOUS
 10
5.630680
 20
1.779360
  0
VERTEX
  8
0
  6
CONTINUOUS
 10
5.634200
 20
2.527800
  0
VERTEX
  8
0
  6
CONTINUOUS
 10
5.661920
 20
2.521640
  0
VERTEX
  8
0
  6
CONTINUOUS
 10
5.658400
 20
1.773200
  0
VERTEX
  8
0
  6
CONTINUOUS
 10
5.630680
 20
1.779360
  0
SEQEND
  8
0
  0
SOLID
  8
0
 62
    15
 10
5.658400
 20
1.773200
 11
5.661920
 21
2.521640
 12
5.680400
 22
1.768800
 13
5.684360
 23
2.517240
  0
POLYLINE
  8
0
  6
CONTINUOUS
 66
     1
 40
0.000000
 41
0.000000
  0
VERTEX
  8
0
  6
CONTINUOUS
 10
5.658400
 20
1.773200
  0
VERTEX
  8
0
  6
CONTINUOUS
 10
5.661920
 20
2.521640
  0
VERTEX
  8
0
  6
CONTINUOUS
 10
5.684360
 20
2.517240
  0
VERTEX
  8
0
  6
CONTINUOUS
 10
5.680400
 20
1.768800
  0
VERTEX
  8
0
  6
CONTINUOUS
 10
5.658400
 20
1.773200
  0
SEQEND
  8
0
  0
SOLID
  8
0
 62
    15
 10
6.427080
 20
1.494680
 11
6.431040
 21
2.243120
 12
6.467120
 22
1.494680
 13
6.471080
 23
2.243120
  0
POLYLINE
  8
0
  6
CONTINUOUS
 66
     1
 40
0.000000
 41
0.000000
  0
VERTEX
  8
0
  6
CONTINUOUS
 10
6.427080
 20
1.494680
  0
VERTEX
  8
0
  6
CONTINUOUS
 10
6.431040
 20
2.243120
  0
VERTEX
  8
0
  6
CONTINUOUS
 10
6.471080
 20
2.243120
  0
VERTEX
  8
0
  6
CONTINUOUS
 10
6.467120
 20
1.494680
  0
VERTEX
  8
0
  6
CONTINUOUS
 10
6.427080
 20
1.494680
  0
SEQEND
  8
0
  0
SOLID
  8
0
 62
    15
 10
6.411680
 20
1.661880
 11
6.415640
 21
2.410320
 12
6.427080
 22
1.494680
 13
6.431040
 23
2.243120
  0
POLYLINE
  8
0
  6
CONTINUOUS
 66
     1
 40
0.000000
 41
0.000000
  0
VERTEX
  8
0
  6
CONTINUOUS
 10
6.411680
 20
1.661880
  0
VERTEX
  8
0
  6
CONTINUOUS
 10
6.415640
 20
2.410320
  0
VERTEX
  8
0
  6
CONTINUOUS
 10
6.431040
 20
2.243120
  0
VERTEX
  8
0
  6
CONTINUOUS
 10
6.427080
 20
1.494680
  0
VERTEX
  8
0
  6
CONTINUOUS
 10
6.411680
 20
1.661880
  0
SEQEND
  8
0
  0
SOLID
  8
0
 62
    15
 10
5.688320
 20
1.661880
 11
5.691840
 21
2.410320
 12
6.411680
 22
1.661880
 13
6.415640
 23
2.410320
  0
POLYLINE
  8
0
  6
CONTINUOUS
 66
     1
 40
0.000000
 41
0.000000
  0
VERTEX
  8
0
  6
CONTINUOUS
 10
5.688320
 20
1.661880
  0
VERTEX
  8
0
  6
CONTINUOUS
 10
5.691840
 20
2.410320
  0
VERTEX
  8
0
  6
CONTINUOUS
 10
6.415640
 20
2.410320
  0
VERTEX
  8
0
  6
CONTINUOUS
 10
6.411680
 20
1.661880
  0
VERTEX
  8
0
  6
CONTINUOUS
 10
5.688320
 20
1.661880
  0
SEQEND
  8
0
  0
SOLID
  8
0
 62
    15
 10
5.688320
 20
1.767480
 11
5.691840
 21
2.515920
 12
5.688320
 22
1.661880
 13
5.691840
 23
2.410320
  0
POLYLINE
  8
0
  6
CONTINUOUS
 66
     1
 40
0.000000
 41
0.000000
  0
VERTEX
  8
0
  6
CONTINUOUS
 10
5.688320
 20
1.767480
  0
VERTEX
  8
0
  6
CONTINUOUS
 10
5.691840
 20
2.515920
  0
VERTEX
  8
0
  6
CONTINUOUS
 10
5.691840
 20
2.410320
  0
VERTEX
  8
0
  6
CONTINUOUS
 10
5.688320
 20
1.661880
  0
VERTEX
  8
0
  6
CONTINUOUS
 10
5.688320
 20
1.767480
  0
SEQEND
  8
0
  0
SOLID
  8
0
 62
    15
 10
5.680400
 20
1.768800
 11
5.684360
 21
2.517240
 12
5.688320
 22
1.767480
 13
5.691840
 23
2.515920
  0
POLYLINE
  8
0
  6
CONTINUOUS
 66
     1
 40
0.000000
 41
0.000000
  0
VERTEX
  8
0
  6
CONTINUOUS
 10
5.680400
 20
1.768800
  0
VERTEX
  8
0
  6
CONTINUOUS
 10
5.684360
 20
2.517240
  0
VERTEX
  8
0
  6
CONTINUOUS
 10
5.691840
 20
2.515920
  0
VERTEX
  8
0
  6
CONTINUOUS
 10
5.688320
 20
1.767480
  0
VERTEX
  8
0
  6
CONTINUOUS
 10
5.680400
 20
1.768800
  0
SEQEND
  8
0
  0
SOLID
  8
0
 62
    15
 10
6.467120
 20
1.494680
 11
6.471080
 21
2.243120
 12
6.478120
 22
1.532520
 13
6.481640
 23
2.280960
  0
POLYLINE
  8
0
  6
CONTINUOUS
 66
     1
 40
0.000000
 41
0.000000
  0
VERTEX
  8
0
  6
CONTINUOUS
 10
6.467120
 20
1.494680
  0
VERTEX
  8
0
  6
CONTINUOUS
 10
6.471080
 20
2.243120
  0
VERTEX
  8
0
  6
CONTINUOUS
 10
6.481640
 20
2.280960
  0
VERTEX
  8
0
  6
CONTINUOUS
 10
6.478120
 20
1.532520
  0
VERTEX
  8
0
  6
CONTINUOUS
 10
6.467120
 20
1.494680
  0
SEQEND
  8
0
  0
SOLID
  8
0
 62
    15
 10
6.478120
 20
1.532520
 11
6.481640
 21
2.280960
 12
6.492200
 22
1.564200
 13
6.495720
 23
2.313080
  0
POLYLINE
  8
0
  6
CONTINUOUS
 66
     1
 40
0.000000
 41
0.000000
  0
VERTEX
  8
0
  6
CONTINUOUS
 10
6.478120
 20
1.532520
  0
VERTEX
  8
0
  6
CONTINUOUS
 10
6.481640
 20
2.280960
  0
VERTEX
  8
0
  6
CONTINUOUS
 10
6.495720
 20
2.313080
  0
VERTEX
  8
0
  6
CONTINUOUS
 10
6.492200
 20
1.564200
  0
VERTEX
  8
0
  6
CONTINUOUS
 10
6.478120
 20
1.532520
  0
SEQEND
  8
0
  0
SOLID
  8
0
 62
    15
 10
6.492200
 20
1.564200
 11
6.495720
 21
2.313080
 12
6.528280
 22
1.613040
 13
6.532240
 23
2.361480
  0
POLYLINE
  8
0
  6
CONTINUOUS
 66
     1
 40
0.000000
 41
0.000000
  0
VERTEX
  8
0
  6
CONTINUOUS
 10
6.492200
 20
1.564200
  0
VERTEX
  8
0
  6
CONTINUOUS
 10
6.495720
 20
2.313080
  0
VERTEX
  8
0
  6
CONTINUOUS
 10
6.532240
 20
2.361480
  0
VERTEX
  8
0
  6
CONTINUOUS
 10
6.528280
 20
1.613040
  0
VERTEX
  8
0
  6
CONTINUOUS
 10
6.492200
 20
1.564200
  0
SEQEND
  8
0
  0
SOLID
  8
0
 62
    15
 10
6.528280
 20
1.613040
 11
6.532240
 21
2.361480
 12
6.571840
 22
1.642520
 13
6.575360
 23
2.390960
  0
POLYLINE
  8
0
  6
CONTINUOUS
 66
     1
 40
0.000000
 41
0.000000
  0
VERTEX
  8
0
  6
CONTINUOUS
 10
6.528280
 20
1.613040
  0
VERTEX
  8
0
  6
CONTINUOUS
 10
6.532240
 20
2.361480
  0
VERTEX
  8
0
  6
CONTINUOUS
 10
6.575360
 20
2.390960
  0
VERTEX
  8
0
  6
CONTINUOUS
 10
6.571840
 20
1.642520
  0
VERTEX
  8
0
  6
CONTINUOUS
 10
6.528280
 20
1.613040
  0
SEQEND
  8
0
  0
SOLID
  8
0
 62
    15
 10
6.571840
 20
1.642520
 11
6.575360
 21
2.390960
 12
6.617160
 22
1.653960
 13
6.621120
 23
2.402400
  0
POLYLINE
  8
0
  6
CONTINUOUS
 66
     1
 40
0.000000
 41
0.000000
  0
VERTEX
  8
0
  6
CONTINUOUS
 10
6.571840
 20
1.642520
  0
VERTEX
  8
0
  6
CONTINUOUS
 10
6.575360
 20
2.390960
  0
VERTEX
  8
0
  6
CONTINUOUS
 10
6.621120
 20
2.402400
  0
VERTEX
  8
0
  6
CONTINUOUS
 10
6.617160
 20
1.653960
  0
VERTEX
  8
0
  6
CONTINUOUS
 10
6.571840
 20
1.642520
  0
SEQEND
  8
0
  0
SOLID
  8
0
 62
    15
 10
6.617160
 20
1.653960
 11
6.621120
 21
2.402400
 12
6.660720
 22
1.649560
 13
6.664240
 23
2.398000
  0
POLYLINE
  8
0
  6
CONTINUOUS
 66
     1
 40
0.000000
 41
0.000000
  0
VERTEX
  8
0
  6
CONTINUOUS
 10
6.617160
 20
1.653960
  0
VERTEX
  8
0
  6
CONTINUOUS
 10
6.621120
 20
2.402400
  0
VERTEX
  8
0
  6
CONTINUOUS
 10
6.664240
 20
2.398000
  0
VERTEX
  8
0
  6
CONTINUOUS
 10
6.660720
 20
1.649560
  0
VERTEX
  8
0
  6
CONTINUOUS
 10
6.617160
 20
1.653960
  0
SEQEND
  8
0
  0
SOLID
  8
0
 62
    15
 10
6.660720
 20
1.649560
 11
6.664240
 21
2.398000
 12
6.697240
 22
1.630200
 13
6.700760
 23
2.378640
  0
POLYLINE
  8
0
  6
CONTINUOUS
 66
     1
 40
0.000000
 41
0.000000
  0
VERTEX
  8
0
  6
CONTINUOUS
 10
6.660720
 20
1.649560
  0
VERTEX
  8
0
  6
CONTINUOUS
 10
6.664240
 20
2.398000
  0
VERTEX
  8
0
  6
CONTINUOUS
 10
6.700760
 20
2.378640
  0
VERTEX
  8
0
  6
CONTINUOUS
 10
6.697240
 20
1.630200
  0
VERTEX
  8
0
  6
CONTINUOUS
 10
6.660720
 20
1.649560
  0
SEQEND
  8
0
  0
SOLID
  8
0
 62
    15
 10
6.722760
 20
1.598520
 11
6.726280
 21
2.346960
 12
6.732000
 22
1.554960
 13
6.735960
 23
2.303400
  0
POLYLINE
  8
0
  6
CONTINUOUS
 66
     1
 40
0.000000
 41
0.000000
  0
VERTEX
  8
0
  6
CONTINUOUS
 10
6.722760
 20
1.598520
  0
VERTEX
  8
0
  6
CONTINUOUS
 10
6.726280
 20
2.346960
  0
VERTEX
  8
0
  6
CONTINUOUS
 10
6.735960
 20
2.303400
  0
VERTEX
  8
0
  6
CONTINUOUS
 10
6.732000
 20
1.554960
  0
VERTEX
  8
0
  6
CONTINUOUS
 10
6.722760
 20
1.598520
  0
SEQEND
  8
0
  0
SOLID
  8
0
 62
    15
 10
6.697240
 20
1.630200
 11
6.700760
 21
2.378640
 12
6.722760
 22
1.598520
 13
6.726280
 23
2.346960
  0
POLYLINE
  8
0
  6
CONTINUOUS
 66
     1
 40
0.000000
 41
0.000000
  0
VERTEX
  8
0
  6
CONTINUOUS
 10
6.697240
 20
1.630200
  0
VERTEX
  8
0
  6
CONTINUOUS
 10
6.700760
 20
2.378640
  0
VERTEX
  8
0
  6
CONTINUOUS
 10
6.726280
 20
2.346960
  0
VERTEX
  8
0
  6
CONTINUOUS
 10
6.722760
 20
1.598520
  0
VERTEX
  8
0
  6
CONTINUOUS
 10
6.697240
 20
1.630200
  0
SEQEND
  8
0
  0
SOLID
  8
0
 62
    15
 10
6.732000
 20
1.554960
 11
6.735960
 21
2.303400
 12
6.732000
 22
1.193720
 13
6.735960
 23
1.942160
  0
POLYLINE
  8
0
  6
CONTINUOUS
 66
     1
 40
0.000000
 41
0.000000
  0
VERTEX
  8
0
  6
CONTINUOUS
 10
6.732000
 20
1.554960
  0
VERTEX
  8
0
  6
CONTINUOUS
 10
6.735960
 20
2.303400
  0
VERTEX
  8
0
  6
CONTINUOUS
 10
6.735960
 20
1.942160
  0
VERTEX
  8
0
  6
CONTINUOUS
 10
6.732000
 20
1.193720
  0
VERTEX
  8
0
  6
CONTINUOUS
 10
6.732000
 20
1.554960
  0
SEQEND
  8
0
  0
SOLID
  8
0
 62
    15
 10
2.645720
 20
2.444200
 11
2.649240
 21
3.192640
 12
3.082200
 22
2.444200
 13
3.086160
 23
3.192640
  0
POLYLINE
  8
0
  6
CONTINUOUS
 66
     1
 40
0.000000
 41
0.000000
  0
VERTEX
  8
0
  6
CONTINUOUS
 10
2.645720
 20
2.444200
  0
VERTEX
  8
0
  6
CONTINUOUS
 10
2.649240
 20
3.192640
  0
VERTEX
  8
0
  6
CONTINUOUS
 10
3.086160
 20
3.192640
  0
VERTEX
  8
0
  6
CONTINUOUS
 10
3.082200
 20
2.444200
  0
VERTEX
  8
0
  6
CONTINUOUS
 10
2.645720
 20
2.444200
  0
SEQEND
  8
0
  0
SOLID
  8
0
 62
    15
 10
3.082200
 20
2.444200
 11
3.086160
 21
3.192640
 12
3.082200
 22
2.442000
 13
3.086160
 23
3.190440
  0
POLYLINE
  8
0
  6
CONTINUOUS
 66
     1
 40
0.000000
 41
0.000000
  0
VERTEX
  8
0
  6
CONTINUOUS
 10
3.082200
 20
2.444200
  0
VERTEX
  8
0
  6
CONTINUOUS
 10
3.086160
 20
3.192640
  0
VERTEX
  8
0
  6
CONTINUOUS
 10
3.086160
 20
3.190440
  0
VERTEX
  8
0
  6
CONTINUOUS
 10
3.082200
 20
2.442000
  0
VERTEX
  8
0
  6
CONTINUOUS
 10
3.082200
 20
2.444200
  0
SEQEND
  8
0
  0
POLYLINE
  8
0
  6
CONTINUOUS
 66
     1
 40
0.000000
 41
0.000000
  0
VERTEX
  8
0
  6
CONTINUOUS
 10
3.082200
 20
2.442000
  0
VERTEX
  8
0
  6
CONTINUOUS
 10
3.113440
 20
2.308680
  0
VERTEX
  8
0
  6
CONTINUOUS
 10
3.144240
 20
2.308680
  0
VERTEX
  8
0
  6
CONTINUOUS
 10
3.186040
 20
2.345200
  0
VERTEX
  8
0
  6
CONTINUOUS
 10
3.237520
 20
2.371160
  0
VERTEX
  8
0
  6
CONTINUOUS
 10
3.295160
 20
2.384360
  0
VERTEX
  8
0
  6
CONTINUOUS
 10
3.356760
 20
2.383920
  0
VERTEX
  8
0
  6
CONTINUOUS
 10
3.419240
 20
2.368080
  0
VERTEX
  8
0
  6
CONTINUOUS
 10
3.480840
 20
2.335080
  0
VERTEX
  8
0
  6
CONTINUOUS
 10
3.538040
 20
2.283600
  0
VERTEX
  8
0
  6
CONTINUOUS
 10
3.588200
 20
2.211440
  0
VERTEX
  8
0
  6
CONTINUOUS
 10
3.632640
 20
2.136200
  0
VERTEX
  8
0
  6
CONTINUOUS
 10
3.675320
 20
2.074160
  0
VERTEX
  8
0
  6
CONTINUOUS
 10
3.718000
 20
2.024000
  0
VERTEX
  8
0
  6
CONTINUOUS
 10
3.762880
 20
1.984400
  0
VERTEX
  8
0
  6
CONTINUOUS
 10
3.811720
 20
1.954480
  0
VERTEX
  8
0
  6
CONTINUOUS
 10
3.866720
 20
1.932040
  0
VERTEX
  8
0
  6
CONTINUOUS
 10
3.929640
 20
1.915760
  0
VERTEX
  8
0
  6
CONTINUOUS
 10
4.002680
 20
1.905200
  0
VERTEX
  8
0
  6
CONTINUOUS
 10
4.006200
 20
1.855040
  0
VERTEX
  8
0
  6
CONTINUOUS
 10
5.063080
 20
1.855040
  0
VERTEX
  8
0
  6
CONTINUOUS
 10
5.067480
 20
1.899480
  0
VERTEX
  8
0
  6
CONTINUOUS
 10
5.075400
 20
1.939520
  0
VERTEX
  8
0
  6
CONTINUOUS
 10
5.087720
 20
1.974280
  0
VERTEX
  8
0
  6
CONTINUOUS
 10
5.103560
 20
2.004200
  0
VERTEX
  8
0
  6
CONTINUOUS
 10
5.144040
 20
2.048640
  0
VERTEX
  8
0
  6
CONTINUOUS
 10
5.193760
 20
2.073280
  0
VERTEX
  8
0
  6
CONTINUOUS
 10
5.249200
 20
2.077680
  0
VERTEX
  8
0
  6
CONTINUOUS
 10
5.308160
 20
2.061400
  0
VERTEX
  8
0
  6
CONTINUOUS
 10
5.366240
 20
2.024440
  0
VERTEX
  8
0
  6
CONTINUOUS
 10
5.421680
 20
1.966800
  0
VERTEX
  8
0
  6
CONTINUOUS
 10
5.469640
 20
1.906520
  0
VERTEX
  8
0
  6
CONTINUOUS
 10
5.510120
 20
1.861200
  0
VERTEX
  8
0
  6
CONTINUOUS
 10
5.544880
 20
1.827760
  0
VERTEX
  8
0
  6
CONTINUOUS
 10
5.575680
 20
1.804440
  0
VERTEX
  8
0
  6
CONTINUOUS
 10
5.630680
 20
1.779360
  0
VERTEX
  8
0
  6
CONTINUOUS
 10
5.688320
 20
1.767480
  0
VERTEX
  8
0
  6
CONTINUOUS
 10
5.688320
 20
1.661880
  0
VERTEX
  8
0
  6
CONTINUOUS
 10
6.411680
 20
1.661880
  0
VERTEX
  8
0
  6
CONTINUOUS
 10
6.427080
 20
1.494680
  0
VERTEX
  8
0
  6
CONTINUOUS
 10
6.467120
 20
1.494680
  0
VERTEX
  8
0
  6
CONTINUOUS
 10
6.478120
 20
1.532520
  0
VERTEX
  8
0
  6
CONTINUOUS
 10
6.492200
 20
1.564200
  0
VERTEX
  8
0
  6
CONTINUOUS
 10
6.528280
 20
1.613040
  0
VERTEX
  8
0
  6
CONTINUOUS
 10
6.571840
 20
1.642520
  0
VERTEX
  8
0
  6
CONTINUOUS
 10
6.617160
 20
1.653960
  0
VERTEX
  8
0
  6
CONTINUOUS
 10
6.660720
 20
1.649560
  0
VERTEX
  8
0
  6
CONTINUOUS
 10
6.697240
 20
1.630200
  0
VERTEX
  8
0
  6
CONTINUOUS
 10
6.722760
 20
1.598520
  0
VERTEX
  8
0
  6
CONTINUOUS
 10
6.732000
 20
1.554960
  0
VERTEX
  8
0
  6
CONTINUOUS
 10
6.732000
 20
1.193720
  0
VERTEX
  8
0
  6
CONTINUOUS
 10
2.645720
 20
1.193720
  0
VERTEX
  8
0
  6
CONTINUOUS
 10
2.645720
 20
2.444200
  0
VERTEX
  8
0
  6
CONTINUOUS
 10
3.082200
 20
2.444200
  0
VERTEX
  8
0
  6
CONTINUOUS
 10
3.082200
 20
2.442000
  0
SEQEND
  8
0
  0
TEXT
  8
0
 10
4.396040
 20
0.976360
 40
0.138099
  1
BA  770
 41
1.000000
  7
SN0
 71
     0
 72
     5
 11
4.985540
 21
0.976360
  0
TEXT
  8
0
 10
4.120600
 20
0.784520
 40
0.138099
  1
1-1/4" x 4-1/16"
 41
1.000000
  7
SN0
 71
     0
 72
     5
 11
5.259289
 21
0.784520
  0
POLYLINE
  8
0
  6
CONTINUOUS
 66
     1
 40
0.014080
 41
0.014080
  0
VERTEX
  8
0
  6
CONTINUOUS
 10
3.108600
 20
4.886200
  0
VERTEX
  8
0
  6
CONTINUOUS
 10
3.139400
 20
4.753320
  0
VERTEX
  8
0
  6
CONTINUOUS
 10
3.170640
 20
4.753320
  0
VERTEX
  8
0
  6
CONTINUOUS
 10
3.190000
 20
4.772680
  0
VERTEX
  8
0
  6
CONTINUOUS
 10
3.224320
 20
4.797320
  0
VERTEX
  8
0
  6
CONTINUOUS
 10
3.256440
 20
4.812720
  0
VERTEX
  8
0
  6
CONTINUOUS
 10
3.299120
 20
4.825480
  0
VERTEX
  8
0
  6
CONTINUOUS
 10
3.336080
 20
4.829880
  0
VERTEX
  8
0
  6
CONTINUOUS
 10
3.367320
 20
4.829880
  0
VERTEX
  8
0
  6
CONTINUOUS
 10
3.402520
 20
4.825040
  0
VERTEX
  8
0
  6
CONTINUOUS
 10
3.441680
 20
4.814040
  0
VERTEX
  8
0
  6
CONTINUOUS
 10
3.476440
 20
4.798200
  0
VERTEX
  8
0
  6
CONTINUOUS
 10
3.514280
 20
4.774000
  0
VERTEX
  8
0
  6
CONTINUOUS
 10
3.550360
 20
4.742760
  0
VERTEX
  8
0
  6
CONTINUOUS
 10
3.583800
 20
4.703160
  0
VERTEX
  8
0
  6
CONTINUOUS
 10
3.608440
 20
4.666200
  0
VERTEX
  8
0
  6
CONTINUOUS
 10
3.653320
 20
4.589200
  0
VERTEX
  8
0
  6
CONTINUOUS
 10
3.696000
 20
4.525840
  0
VERTEX
  8
0
  6
CONTINUOUS
 10
3.733400
 20
4.480080
  0
VERTEX
  8
0
  6
CONTINUOUS
 10
3.765960
 20
4.447520
  0
VERTEX
  8
0
  6
CONTINUOUS
 10
3.800720
 20
4.420680
  0
VERTEX
  8
0
  6
CONTINUOUS
 10
3.838120
 20
4.398680
  0
VERTEX
  8
0
  6
CONTINUOUS
 10
3.878600
 20
4.381080
  0
VERTEX
  8
0
  6
CONTINUOUS
 10
3.930960
 20
4.365680
  0
VERTEX
  8
0
  6
CONTINUOUS
 10
3.990800
 20
4.354240
  0
VERTEX
  8
0
  6
CONTINUOUS
 10
4.028640
 20
4.349400
  0
VERTEX
  8
0
  6
CONTINUOUS
 10
4.032160
 20
4.299240
  0
VERTEX
  8
0
  6
CONTINUOUS
 10
5.089480
 20
4.299240
  0
VERTEX
  8
0
  6
CONTINUOUS
 10
5.092560
 20
4.338840
  0
VERTEX
  8
0
  6
CONTINUOUS
 10
5.099160
 20
4.374040
  0
VERTEX
  8
0
  6
CONTINUOUS
 10
5.107080
 20
4.401760
  0
VERTEX
  8
0
  6
CONTINUOUS
 10
5.121160
 20
4.434320
  0
VERTEX
  8
0
  6
CONTINUOUS
 10
5.140960
 20
4.464680
  0
VERTEX
  8
0
  6
CONTINUOUS
 10
5.164280
 20
4.488880
  0
VERTEX
  8
0
  6
CONTINUOUS
 10
5.187600
 20
4.504720
  0
VERTEX
  8
0
  6
CONTINUOUS
 10
5.213120
 20
4.515720
  0
VERTEX
  8
0
  6
CONTINUOUS
 10
5.239960
 20
4.521880
  0
VERTEX
  8
0
  6
CONTINUOUS
 10
5.268120
 20
4.522760
  0
VERTEX
  8
0
  6
CONTINUOUS
 10
5.289680
 20
4.520120
  0
VERTEX
  8
0
  6
CONTINUOUS
 10
5.319160
 20
4.511760
  0
VERTEX
  8
0
  6
CONTINUOUS
 10
5.352600
 20
4.496800
  0
VERTEX
  8
0
  6
CONTINUOUS
 10
5.392640
 20
4.469080
  0
VERTEX
  8
0
  6
CONTINUOUS
 10
5.420800
 20
4.442680
  0
VERTEX
  8
0
  6
CONTINUOUS
 10
5.454240
 20
4.403080
  0
VERTEX
  8
0
  6
CONTINUOUS
 10
5.511440
 20
4.332680
  0
VERTEX
  8
0
  6
CONTINUOUS
 10
5.554120
 20
4.287360
  0
VERTEX
  8
0
  6
CONTINUOUS
 10
5.594160
 20
4.253920
  0
VERTEX
  8
0
  6
CONTINUOUS
 10
5.622760
 20
4.236760
  0
VERTEX
  8
0
  6
CONTINUOUS
 10
5.650040
 20
4.225760
  0
VERTEX
  8
0
  6
CONTINUOUS
 10
5.691400
 20
4.216080
  0
VERTEX
  8
0
  6
CONTINUOUS
 10
5.714280
 20
4.212120
  0
VERTEX
  8
0
  6
CONTINUOUS
 10
5.714280
 20
4.106080
  0
VERTEX
  8
0
  6
CONTINUOUS
 10
6.438080
 20
4.106080
  0
VERTEX
  8
0
  6
CONTINUOUS
 10
6.453480
 20
3.939320
  0
VERTEX
  8
0
  6
CONTINUOUS
 10
6.493520
 20
3.939320
  0
VERTEX
  8
0
  6
CONTINUOUS
 10
6.504080
 20
3.976720
  0
VERTEX
  8
0
  6
CONTINUOUS
 10
6.518160
 20
4.008840
  0
VERTEX
  8
0
  6
CONTINUOUS
 10
6.539720
 20
4.041400
  0
VERTEX
  8
0
  6
CONTINUOUS
 10
6.559520
 20
4.062080
  0
VERTEX
  8
0
  6
CONTINUOUS
 10
6.586800
 20
4.081000
  0
VERTEX
  8
0
  6
CONTINUOUS
 10
6.609240
 20
4.091120
  0
VERTEX
  8
0
  6
CONTINUOUS
 10
6.634760
 20
4.097280
  0
VERTEX
  8
0
  6
CONTINUOUS
 10
6.654560
 20
4.098600
  0
VERTEX
  8
0
  6
CONTINUOUS
 10
6.676560
 20
4.096400
  0
VERTEX
  8
0
  6
CONTINUOUS
 10
6.701640
 20
4.088480
  0
VERTEX
  8
0
  6
CONTINUOUS
 10
6.723640
 20
4.074840
  0
VERTEX
  8
0
  6
CONTINUOUS
 10
6.740800
 20
4.056360
  0
VERTEX
  8
0
  6
CONTINUOUS
 10
6.752680
 20
4.033040
  0
VERTEX
  8
0
  6
CONTINUOUS
 10
6.757520
 20
4.011480
  0
VERTEX
  8
0
  6
CONTINUOUS
 10
6.758400
 20
3.999600
  0
VERTEX
  8
0
  6
CONTINUOUS
 10
6.758400
 20
3.637920
  0
VERTEX
  8
0
  6
CONTINUOUS
 10
2.671680
 20
3.637920
  0
VERTEX
  8
0
  6
CONTINUOUS
 10
2.671680
 20
4.888840
  0
VERTEX
  8
0
  6
CONTINUOUS
 10
3.108600
 20
4.888840
  0
VERTEX
  8
0
  6
CONTINUOUS
 10
3.108600
 20
4.886200
  0
SEQEND
  8
0
  0
ENDSEC
  0
EOF
