  0
SECTION
  2
HEADER
  9
$ACADVER
  1
AC1006
  9
$EXTMIN
 10
0.955240
 20
1.051600
  9
$EXTMAX
 10
7.870720
 20
3.870240
  9
$LTSCALE
 40
0.044000
  9
$PDMODE
 70
    35
  9
$PDSIZE
 40
0.035200
  0
ENDSEC
  0
SECTION
  2
TABLES
  0
TABLE
  2
LTYPE
 70
     9
  0
LTYPE
  2
CONTINUOUS
 70
    64
  3
Solid line
 72
    65
 73
     0
 40
0.000000
  0
LTYPE
  2
DASHED
 70
    64
  3
__ __ __ __ __ __ __ __ __ __ __ __ __ __ __
 72
    65
 73
     2
 40
0.000330
 49
0.000220
 49
-0.000110
  0
LTYPE
  2
HIDDEN
 70
    64
  3
 _ _ _ _ _ _ _ _ _ _ _ _ _ _ _ _ _ _ _ _ _ _
 72
    65
 73
     2
 40
0.000165
 49
0.000110
 49
-0.000055
  0
LTYPE
  2
CENTER
 70
    64
  3
____ _ ____ _ ____ _ ____ _ ____ _ ____ _ ____
 72
    65
 73
     4
 40
0.000880
 49
0.000550
 49
-0.000110
 49
0.000110
 49
-0.000110
  0
LTYPE
  2
PHANTOM
 70
    64
  3
_____ _ _ _____ _ _ _____ _ _ _____ _ _ ____
 72
    65
 73
     6
 40
0.001100
 49
0.000550
 49
-0.000110
 49
0.000110
 49
-0.000110
 49
0.000110
 49
-0.000110
  0
LTYPE
  2
DOT
 70
    64
  3
...............................................
 72
    65
 73
     2
 40
0.000110
 49
0.000000
 49
-0.000110
  0
LTYPE
  2
DASHDOT
 70
    64
  3
__ . __ . __ . __ . __ . __ . __ . __ . __ . __
 72
    65
 73
     4
 40
0.000440
 49
0.000220
 49
-0.000110
 49
0.000000
 49
-0.000110
  0
LTYPE
  2
BORDER
 70
    64
  3
__ __ . __ __ . __ __ . __ __ . __ __ . __ __
 72
    65
 73
     6
 40
0.000770
 49
0.000220
 49
-0.000110
 49
0.000220
 49
-0.000110
 49
0.000000
 49
-0.000110
  0
LTYPE
  2
DIVIDE
 70
    64
  3
__ . . __ . . __ . . __ . . __ . . __ . . __
 72
    65
 73
     6
 40
0.000550
 49
0.000220
 49
-0.000110
 49
0.000000
 49
-0.000110
 49
0.000000
 49
-0.000110
  0
LTYPE
  2
DOTDOT
 70
    64
  3
 . .  . .  . .  . .  . .  . . 
 72
    65
 73
     5
 40
0.000242
 49
-0.000110
 49
0.000000
 49
-0.000110
 49
0.000000
 49
-0.000110
  0
ENDTAB
  0
TABLE
  2
STYLE
 70
     2
  0
STYLE
 70
     0
  2
SN0
 40
0.000000
 41
0.000440
 50
0.000000
 71
     0
 42
0.000000
  3
ROMAND
  0
STYLE
 70
    68
  2
SV0
 40
0.000000
 41
0.000440
 50
0.000000
 71
     0
 42
0.000000
  3
ROMAND
  0
ENDTAB
  0
TABLE
  2
LAYER
 70
     3
  0
LAYER
  2
FOREGROUND
 70
    64
 62
     7
  6
CONTINUOUS
  0
LAYER
  2
BACKGROUND
 70
    65
 62
    -7
  6
CONTINUOUS
  0
LAYER
  2
0
 70
    64
 62
     7
  6
CONTINUOUS
  0
ENDTAB
  0
ENDSEC
  0
SECTION
  2
ENTITIES
  0
POLYLINE
  8
FOREGROUND
  6
CONTINUOUS
 66
     1
 40
0.000000
 41
0.000000
  0
VERTEX
  8
FOREGROUND
  6
CONTINUOUS
 10
0.000000
 20
4.921840
  0
VERTEX
  8
FOREGROUND
  6
CONTINUOUS
 10
8.499920
 20
4.921840
  0
VERTEX
  8
FOREGROUND
  6
CONTINUOUS
 10
8.499920
 20
-6.078160
  0
VERTEX
  8
FOREGROUND
  6
CONTINUOUS
 10
0.000000
 20
-6.078160
  0
VERTEX
  8
FOREGROUND
  6
CONTINUOUS
 10
0.000000
 20
4.921840
  0
SEQEND
  8
0
  0
POLYLINE
  8
FOREGROUND
  6
CONTINUOUS
 66
     1
 40
0.000000
 41
0.000000
  0
VERTEX
  8
FOREGROUND
  6
CONTINUOUS
 10
0.000000
 20
4.921840
  0
VERTEX
  8
FOREGROUND
  6
CONTINUOUS
 10
8.499920
 20
4.921840
  0
VERTEX
  8
FOREGROUND
  6
CONTINUOUS
 10
8.499920
 20
-6.078160
  0
VERTEX
  8
FOREGROUND
  6
CONTINUOUS
 10
0.000000
 20
-6.078160
  0
VERTEX
  8
FOREGROUND
  6
CONTINUOUS
 10
0.000000
 20
4.921840
  0
SEQEND
  8
0
  0
POLYLINE
  8
0
  6
CONTINUOUS
 66
     1
 40
0.014080
 41
0.014080
  0
VERTEX
  8
0
  6
CONTINUOUS
 10
7.405200
 20
3.685440
  0
VERTEX
  8
0
  6
CONTINUOUS
 10
7.404320
 20
3.700400
  0
VERTEX
  8
0
  6
CONTINUOUS
 10
7.402120
 20
3.715360
  0
VERTEX
  8
0
  6
CONTINUOUS
 10
7.398600
 20
3.729440
  0
VERTEX
  8
0
  6
CONTINUOUS
 10
7.393760
 20
3.742640
  0
VERTEX
  8
0
  6
CONTINUOUS
 10
7.387600
 20
3.755840
  0
VERTEX
  8
0
  6
CONTINUOUS
 10
7.380120
 20
3.767720
  0
VERTEX
  8
0
  6
CONTINUOUS
 10
7.371320
 20
3.779160
  0
VERTEX
  8
0
  6
CONTINUOUS
 10
7.362080
 20
3.789720
  0
VERTEX
  8
0
  6
CONTINUOUS
 10
7.351520
 20
3.798960
  0
VERTEX
  8
0
  6
CONTINUOUS
 10
7.340080
 20
3.807760
  0
VERTEX
  8
0
  6
CONTINUOUS
 10
7.328200
 20
3.815240
  0
VERTEX
  8
0
  6
CONTINUOUS
 10
7.315000
 20
3.821400
  0
VERTEX
  8
0
  6
CONTINUOUS
 10
7.301800
 20
3.826240
  0
VERTEX
  8
0
  6
CONTINUOUS
 10
7.287720
 20
3.829760
  0
VERTEX
  8
0
  6
CONTINUOUS
 10
7.272760
 20
3.831960
  0
VERTEX
  8
0
  6
CONTINUOUS
 10
7.257800
 20
3.832840
  0
VERTEX
  8
0
  6
CONTINUOUS
 10
7.242840
 20
3.831960
  0
VERTEX
  8
0
  6
CONTINUOUS
 10
7.227880
 20
3.829760
  0
VERTEX
  8
0
  6
CONTINUOUS
 10
7.213800
 20
3.826240
  0
VERTEX
  8
0
  6
CONTINUOUS
 10
7.200600
 20
3.821400
  0
VERTEX
  8
0
  6
CONTINUOUS
 10
7.187400
 20
3.815240
  0
VERTEX
  8
0
  6
CONTINUOUS
 10
7.175520
 20
3.807760
  0
VERTEX
  8
0
  6
CONTINUOUS
 10
7.164080
 20
3.798960
  0
VERTEX
  8
0
  6
CONTINUOUS
 10
7.153520
 20
3.789720
  0
VERTEX
  8
0
  6
CONTINUOUS
 10
7.144280
 20
3.779160
  0
VERTEX
  8
0
  6
CONTINUOUS
 10
7.135480
 20
3.767720
  0
VERTEX
  8
0
  6
CONTINUOUS
 10
7.128000
 20
3.755840
  0
VERTEX
  8
0
  6
CONTINUOUS
 10
7.121840
 20
3.742640
  0
VERTEX
  8
0
  6
CONTINUOUS
 10
7.117000
 20
3.729440
  0
VERTEX
  8
0
  6
CONTINUOUS
 10
7.113480
 20
3.715360
  0
VERTEX
  8
0
  6
CONTINUOUS
 10
7.111280
 20
3.700400
  0
VERTEX
  8
0
  6
CONTINUOUS
 10
7.110400
 20
3.685440
  0
VERTEX
  8
0
  6
CONTINUOUS
 10
7.110400
 20
3.674000
  0
VERTEX
  8
0
  6
CONTINUOUS
 10
7.047480
 20
3.674000
  0
VERTEX
  8
0
  6
CONTINUOUS
 10
7.024160
 20
3.862320
  0
VERTEX
  8
0
  6
CONTINUOUS
 10
1.149280
 20
3.862320
  0
VERTEX
  8
0
  6
CONTINUOUS
 10
1.149280
 20
3.110800
  0
VERTEX
  8
0
  6
CONTINUOUS
 10
7.185640
 20
3.110800
  0
VERTEX
  8
0
  6
CONTINUOUS
 10
7.403880
 20
3.110800
  0
VERTEX
  8
0
  6
CONTINUOUS
 10
7.403880
 20
3.685440
  0
VERTEX
  8
0
  6
CONTINUOUS
 10
7.405200
 20
3.685440
  0
SEQEND
  8
0
  0
SOLID
  8
0
 62
    15
 10
6.831000
 20
2.314840
 11
7.489680
 21
2.694560
 12
6.853880
 22
2.126080
 13
7.512560
 23
2.505800
  0
POLYLINE
  8
0
  6
CONTINUOUS
 66
     1
 40
0.000000
 41
0.000000
  0
VERTEX
  8
0
  6
CONTINUOUS
 10
6.831000
 20
2.314840
  0
VERTEX
  8
0
  6
CONTINUOUS
 10
7.489680
 20
2.694560
  0
VERTEX
  8
0
  6
CONTINUOUS
 10
7.512560
 20
2.505800
  0
VERTEX
  8
0
  6
CONTINUOUS
 10
6.853880
 20
2.126080
  0
VERTEX
  8
0
  6
CONTINUOUS
 10
6.831000
 20
2.314840
  0
SEQEND
  8
0
  0
SOLID
  8
0
 62
    15
 10
0.955680
 20
2.314840
 11
1.614360
 21
2.694560
 12
6.831000
 22
2.314840
 13
7.489680
 23
2.694560
  0
POLYLINE
  8
0
  6
CONTINUOUS
 66
     1
 40
0.000000
 41
0.000000
  0
VERTEX
  8
0
  6
CONTINUOUS
 10
0.955680
 20
2.314840
  0
VERTEX
  8
0
  6
CONTINUOUS
 10
1.614360
 20
2.694560
  0
VERTEX
  8
0
  6
CONTINUOUS
 10
7.489680
 20
2.694560
  0
VERTEX
  8
0
  6
CONTINUOUS
 10
6.831000
 20
2.314840
  0
VERTEX
  8
0
  6
CONTINUOUS
 10
0.955680
 20
2.314840
  0
SEQEND
  8
0
  0
SOLID
  8
0
 62
    15
 10
7.064200
 20
2.284920
 11
7.722880
 21
2.664640
 12
7.094120
 22
2.281840
 13
7.752800
 23
2.661560
  0
POLYLINE
  8
0
  6
CONTINUOUS
 66
     1
 40
0.000000
 41
0.000000
  0
VERTEX
  8
0
  6
CONTINUOUS
 10
7.064200
 20
2.284920
  0
VERTEX
  8
0
  6
CONTINUOUS
 10
7.722880
 20
2.664640
  0
VERTEX
  8
0
  6
CONTINUOUS
 10
7.752800
 20
2.661560
  0
VERTEX
  8
0
  6
CONTINUOUS
 10
7.094120
 20
2.281840
  0
VERTEX
  8
0
  6
CONTINUOUS
 10
7.064200
 20
2.284920
  0
SEQEND
  8
0
  0
SOLID
  8
0
 62
    15
 10
6.853880
 20
2.126080
 11
7.512560
 21
2.505800
 12
6.916800
 22
2.126080
 13
7.575480
 23
2.505800
  0
POLYLINE
  8
0
  6
CONTINUOUS
 66
     1
 40
0.000000
 41
0.000000
  0
VERTEX
  8
0
  6
CONTINUOUS
 10
6.853880
 20
2.126080
  0
VERTEX
  8
0
  6
CONTINUOUS
 10
7.512560
 20
2.505800
  0
VERTEX
  8
0
  6
CONTINUOUS
 10
7.575480
 20
2.505800
  0
VERTEX
  8
0
  6
CONTINUOUS
 10
6.916800
 20
2.126080
  0
VERTEX
  8
0
  6
CONTINUOUS
 10
6.853880
 20
2.126080
  0
SEQEND
  8
0
  0
SOLID
  8
0
 62
    15
 10
6.981920
 20
2.259840
 11
7.640600
 21
2.639560
 12
7.007000
 22
2.273480
 13
7.665680
 23
2.653200
  0
POLYLINE
  8
0
  6
CONTINUOUS
 66
     1
 40
0.000000
 41
0.000000
  0
VERTEX
  8
0
  6
CONTINUOUS
 10
6.981920
 20
2.259840
  0
VERTEX
  8
0
  6
CONTINUOUS
 10
7.640600
 20
2.639560
  0
VERTEX
  8
0
  6
CONTINUOUS
 10
7.665680
 20
2.653200
  0
VERTEX
  8
0
  6
CONTINUOUS
 10
7.007000
 20
2.273480
  0
VERTEX
  8
0
  6
CONTINUOUS
 10
6.981920
 20
2.259840
  0
SEQEND
  8
0
  0
SOLID
  8
0
 62
    15
 10
7.007000
 20
2.273480
 11
7.665680
 21
2.653200
 12
7.034280
 22
2.281840
 13
7.693400
 23
2.661560
  0
POLYLINE
  8
0
  6
CONTINUOUS
 66
     1
 40
0.000000
 41
0.000000
  0
VERTEX
  8
0
  6
CONTINUOUS
 10
7.007000
 20
2.273480
  0
VERTEX
  8
0
  6
CONTINUOUS
 10
7.665680
 20
2.653200
  0
VERTEX
  8
0
  6
CONTINUOUS
 10
7.693400
 20
2.661560
  0
VERTEX
  8
0
  6
CONTINUOUS
 10
7.034280
 20
2.281840
  0
VERTEX
  8
0
  6
CONTINUOUS
 10
7.007000
 20
2.273480
  0
SEQEND
  8
0
  0
SOLID
  8
0
 62
    15
 10
7.034280
 20
2.281840
 11
7.693400
 21
2.661560
 12
7.064200
 22
2.284920
 13
7.722880
 23
2.664640
  0
POLYLINE
  8
0
  6
CONTINUOUS
 66
     1
 40
0.000000
 41
0.000000
  0
VERTEX
  8
0
  6
CONTINUOUS
 10
7.034280
 20
2.281840
  0
VERTEX
  8
0
  6
CONTINUOUS
 10
7.693400
 20
2.661560
  0
VERTEX
  8
0
  6
CONTINUOUS
 10
7.722880
 20
2.664640
  0
VERTEX
  8
0
  6
CONTINUOUS
 10
7.064200
 20
2.284920
  0
VERTEX
  8
0
  6
CONTINUOUS
 10
7.034280
 20
2.281840
  0
SEQEND
  8
0
  0
SOLID
  8
0
 62
    15
 10
7.210280
 20
2.137520
 11
7.868960
 21
2.517240
 12
7.210280
 22
1.562880
 13
7.868960
 23
1.942600
  0
POLYLINE
  8
0
  6
CONTINUOUS
 66
     1
 40
0.000000
 41
0.000000
  0
VERTEX
  8
0
  6
CONTINUOUS
 10
7.210280
 20
2.137520
  0
VERTEX
  8
0
  6
CONTINUOUS
 10
7.868960
 20
2.517240
  0
VERTEX
  8
0
  6
CONTINUOUS
 10
7.868960
 20
1.942600
  0
VERTEX
  8
0
  6
CONTINUOUS
 10
7.210280
 20
1.562880
  0
VERTEX
  8
0
  6
CONTINUOUS
 10
7.210280
 20
2.137520
  0
SEQEND
  8
0
  0
SOLID
  8
0
 62
    15
 10
7.094120
 20
2.281840
 11
7.752800
 21
2.661560
 12
7.121400
 22
2.273480
 13
7.780520
 23
2.653200
  0
POLYLINE
  8
0
  6
CONTINUOUS
 66
     1
 40
0.000000
 41
0.000000
  0
VERTEX
  8
0
  6
CONTINUOUS
 10
7.094120
 20
2.281840
  0
VERTEX
  8
0
  6
CONTINUOUS
 10
7.752800
 20
2.661560
  0
VERTEX
  8
0
  6
CONTINUOUS
 10
7.780520
 20
2.653200
  0
VERTEX
  8
0
  6
CONTINUOUS
 10
7.121400
 20
2.273480
  0
VERTEX
  8
0
  6
CONTINUOUS
 10
7.094120
 20
2.281840
  0
SEQEND
  8
0
  0
SOLID
  8
0
 62
    15
 10
7.121400
 20
2.273480
 11
7.780520
 21
2.653200
 12
7.146480
 22
2.259840
 13
7.805160
 23
2.639560
  0
POLYLINE
  8
0
  6
CONTINUOUS
 66
     1
 40
0.000000
 41
0.000000
  0
VERTEX
  8
0
  6
CONTINUOUS
 10
7.121400
 20
2.273480
  0
VERTEX
  8
0
  6
CONTINUOUS
 10
7.780520
 20
2.653200
  0
VERTEX
  8
0
  6
CONTINUOUS
 10
7.805160
 20
2.639560
  0
VERTEX
  8
0
  6
CONTINUOUS
 10
7.146480
 20
2.259840
  0
VERTEX
  8
0
  6
CONTINUOUS
 10
7.121400
 20
2.273480
  0
SEQEND
  8
0
  0
SOLID
  8
0
 62
    15
 10
7.146480
 20
2.259840
 11
7.805160
 21
2.639560
 12
7.168480
 22
2.241800
 13
7.827160
 23
2.621520
  0
POLYLINE
  8
0
  6
CONTINUOUS
 66
     1
 40
0.000000
 41
0.000000
  0
VERTEX
  8
0
  6
CONTINUOUS
 10
7.146480
 20
2.259840
  0
VERTEX
  8
0
  6
CONTINUOUS
 10
7.805160
 20
2.639560
  0
VERTEX
  8
0
  6
CONTINUOUS
 10
7.827160
 20
2.621520
  0
VERTEX
  8
0
  6
CONTINUOUS
 10
7.168480
 20
2.241800
  0
VERTEX
  8
0
  6
CONTINUOUS
 10
7.146480
 20
2.259840
  0
SEQEND
  8
0
  0
SOLID
  8
0
 62
    15
 10
7.168480
 20
2.241800
 11
7.827160
 21
2.621520
 12
7.186520
 22
2.220240
 13
7.845200
 23
2.599960
  0
POLYLINE
  8
0
  6
CONTINUOUS
 66
     1
 40
0.000000
 41
0.000000
  0
VERTEX
  8
0
  6
CONTINUOUS
 10
7.168480
 20
2.241800
  0
VERTEX
  8
0
  6
CONTINUOUS
 10
7.827160
 20
2.621520
  0
VERTEX
  8
0
  6
CONTINUOUS
 10
7.845200
 20
2.599960
  0
VERTEX
  8
0
  6
CONTINUOUS
 10
7.186520
 20
2.220240
  0
VERTEX
  8
0
  6
CONTINUOUS
 10
7.168480
 20
2.241800
  0
SEQEND
  8
0
  0
SOLID
  8
0
 62
    15
 10
7.186520
 20
2.220240
 11
7.845200
 21
2.599960
 12
7.200160
 22
2.195160
 13
7.858840
 23
2.574880
  0
POLYLINE
  8
0
  6
CONTINUOUS
 66
     1
 40
0.000000
 41
0.000000
  0
VERTEX
  8
0
  6
CONTINUOUS
 10
7.186520
 20
2.220240
  0
VERTEX
  8
0
  6
CONTINUOUS
 10
7.845200
 20
2.599960
  0
VERTEX
  8
0
  6
CONTINUOUS
 10
7.858840
 20
2.574880
  0
VERTEX
  8
0
  6
CONTINUOUS
 10
7.200160
 20
2.195160
  0
VERTEX
  8
0
  6
CONTINUOUS
 10
7.186520
 20
2.220240
  0
SEQEND
  8
0
  0
SOLID
  8
0
 62
    15
 10
7.200160
 20
2.195160
 11
7.858840
 21
2.574880
 12
7.208520
 22
2.167440
 13
7.867200
 23
2.547160
  0
POLYLINE
  8
0
  6
CONTINUOUS
 66
     1
 40
0.000000
 41
0.000000
  0
VERTEX
  8
0
  6
CONTINUOUS
 10
7.200160
 20
2.195160
  0
VERTEX
  8
0
  6
CONTINUOUS
 10
7.858840
 20
2.574880
  0
VERTEX
  8
0
  6
CONTINUOUS
 10
7.867200
 20
2.547160
  0
VERTEX
  8
0
  6
CONTINUOUS
 10
7.208520
 20
2.167440
  0
VERTEX
  8
0
  6
CONTINUOUS
 10
7.200160
 20
2.195160
  0
SEQEND
  8
0
  0
SOLID
  8
0
 62
    15
 10
7.208520
 20
2.167440
 11
7.867200
 21
2.547160
 12
7.211600
 22
2.137520
 13
7.870280
 23
2.517240
  0
POLYLINE
  8
0
  6
CONTINUOUS
 66
     1
 40
0.000000
 41
0.000000
  0
VERTEX
  8
0
  6
CONTINUOUS
 10
7.208520
 20
2.167440
  0
VERTEX
  8
0
  6
CONTINUOUS
 10
7.867200
 20
2.547160
  0
VERTEX
  8
0
  6
CONTINUOUS
 10
7.870280
 20
2.517240
  0
VERTEX
  8
0
  6
CONTINUOUS
 10
7.211600
 20
2.137520
  0
VERTEX
  8
0
  6
CONTINUOUS
 10
7.208520
 20
2.167440
  0
SEQEND
  8
0
  0
POLYLINE
  8
0
  6
CONTINUOUS
 66
     1
 40
0.000000
 41
0.000000
  0
VERTEX
  8
0
  6
CONTINUOUS
 10
7.210280
 20
2.137520
  0
VERTEX
  8
0
  6
CONTINUOUS
 10
7.210280
 20
1.562880
  0
VERTEX
  8
0
  6
CONTINUOUS
 10
0.955680
 20
1.562880
  0
VERTEX
  8
0
  6
CONTINUOUS
 10
0.955680
 20
2.314840
  0
VERTEX
  8
0
  6
CONTINUOUS
 10
6.831000
 20
2.314840
  0
VERTEX
  8
0
  6
CONTINUOUS
 10
6.853880
 20
2.126080
  0
VERTEX
  8
0
  6
CONTINUOUS
 10
6.916800
 20
2.126080
  0
VERTEX
  8
0
  6
CONTINUOUS
 10
6.916800
 20
2.137520
  0
VERTEX
  8
0
  6
CONTINUOUS
 10
6.919880
 20
2.167440
  0
VERTEX
  8
0
  6
CONTINUOUS
 10
6.928240
 20
2.195160
  0
VERTEX
  8
0
  6
CONTINUOUS
 10
6.941880
 20
2.220240
  0
VERTEX
  8
0
  6
CONTINUOUS
 10
6.959920
 20
2.241800
  0
VERTEX
  8
0
  6
CONTINUOUS
 10
6.981920
 20
2.259840
  0
VERTEX
  8
0
  6
CONTINUOUS
 10
7.007000
 20
2.273480
  0
VERTEX
  8
0
  6
CONTINUOUS
 10
7.034280
 20
2.281840
  0
VERTEX
  8
0
  6
CONTINUOUS
 10
7.064200
 20
2.284920
  0
VERTEX
  8
0
  6
CONTINUOUS
 10
7.094120
 20
2.281840
  0
VERTEX
  8
0
  6
CONTINUOUS
 10
7.121400
 20
2.273480
  0
VERTEX
  8
0
  6
CONTINUOUS
 10
7.146480
 20
2.259840
  0
VERTEX
  8
0
  6
CONTINUOUS
 10
7.168480
 20
2.241800
  0
VERTEX
  8
0
  6
CONTINUOUS
 10
7.186520
 20
2.220240
  0
VERTEX
  8
0
  6
CONTINUOUS
 10
7.200160
 20
2.195160
  0
VERTEX
  8
0
  6
CONTINUOUS
 10
7.208520
 20
2.167440
  0
VERTEX
  8
0
  6
CONTINUOUS
 10
7.211600
 20
2.137520
  0
VERTEX
  8
0
  6
CONTINUOUS
 10
7.210280
 20
2.137520
  0
SEQEND
  8
0
  0
TEXT
  8
0
 10
4.116640
 20
1.287000
 40
0.137882
  1
BA  769
 41
1.000000
  7
SN0
 71
     0
 72
     5
 11
4.707222
 21
1.287000
  0
TEXT
  8
0
 10
3.914680
 20
1.095600
 40
0.137882
  1
3/4" x 6-5/16"
 41
1.000000
  7
SN0
 71
     0
 72
     5
 11
4.908434
 21
1.095600
  0
ENDSEC
  0
EOF
