  0
SECTION
  2
HEADER
  9
$ACADVER
  1
AC1006
  9
$EXTMIN
 10
0.977240
 20
0.490600
  9
$EXTMAX
 10
7.509040
 20
10.501040
  9
$LTSCALE
 40
0.044000
  9
$PDMODE
 70
    35
  9
$PDSIZE
 40
0.035200
  0
ENDSEC
  0
SECTION
  2
TABLES
  0
TABLE
  2
LTYPE
 70
     9
  0
LTYPE
  2
CONTINUOUS
 70
    64
  3
Solid line
 72
    65
 73
     0
 40
0.000000
  0
LTYPE
  2
DASHED
 70
    64
  3
__ __ __ __ __ __ __ __ __ __ __ __ __ __ __
 72
    65
 73
     2
 40
0.000330
 49
0.000220
 49
-0.000110
  0
LTYPE
  2
HIDDEN
 70
    64
  3
 _ _ _ _ _ _ _ _ _ _ _ _ _ _ _ _ _ _ _ _ _ _
 72
    65
 73
     2
 40
0.000165
 49
0.000110
 49
-0.000055
  0
LTYPE
  2
CENTER
 70
    64
  3
____ _ ____ _ ____ _ ____ _ ____ _ ____ _ ____
 72
    65
 73
     4
 40
0.000880
 49
0.000550
 49
-0.000110
 49
0.000110
 49
-0.000110
  0
LTYPE
  2
PHANTOM
 70
    64
  3
_____ _ _ _____ _ _ _____ _ _ _____ _ _ ____
 72
    65
 73
     6
 40
0.001100
 49
0.000550
 49
-0.000110
 49
0.000110
 49
-0.000110
 49
0.000110
 49
-0.000110
  0
LTYPE
  2
DOT
 70
    64
  3
...............................................
 72
    65
 73
     2
 40
0.000110
 49
0.000000
 49
-0.000110
  0
LTYPE
  2
DASHDOT
 70
    64
  3
__ . __ . __ . __ . __ . __ . __ . __ . __ . __
 72
    65
 73
     4
 40
0.000440
 49
0.000220
 49
-0.000110
 49
0.000000
 49
-0.000110
  0
LTYPE
  2
BORDER
 70
    64
  3
__ __ . __ __ . __ __ . __ __ . __ __ . __ __
 72
    65
 73
     6
 40
0.000770
 49
0.000220
 49
-0.000110
 49
0.000220
 49
-0.000110
 49
0.000000
 49
-0.000110
  0
LTYPE
  2
DIVIDE
 70
    64
  3
__ . . __ . . __ . . __ . . __ . . __ . . __
 72
    65
 73
     6
 40
0.000550
 49
0.000220
 49
-0.000110
 49
0.000000
 49
-0.000110
 49
0.000000
 49
-0.000110
  0
LTYPE
  2
DOTDOT
 70
    64
  3
 . .  . .  . .  . .  . .  . . 
 72
    65
 73
     5
 40
0.000242
 49
-0.000110
 49
0.000000
 49
-0.000110
 49
0.000000
 49
-0.000110
  0
ENDTAB
  0
TABLE
  2
STYLE
 70
     2
  0
STYLE
 70
     0
  2
SN0
 40
0.000000
 41
0.000440
 50
0.000000
 71
     0
 42
0.000000
  3
ROMAND
  0
STYLE
 70
    68
  2
SV0
 40
0.000000
 41
0.000440
 50
0.000000
 71
     0
 42
0.000000
  3
ROMAND
  0
ENDTAB
  0
TABLE
  2
LAYER
 70
     3
  0
LAYER
  2
FOREGROUND
 70
    64
 62
     7
  6
CONTINUOUS
  0
LAYER
  2
BACKGROUND
 70
    65
 62
    -7
  6
CONTINUOUS
  0
LAYER
  2
0
 70
    64
 62
     7
  6
CONTINUOUS
  0
ENDTAB
  0
ENDSEC
  0
SECTION
  2
ENTITIES
  0
POLYLINE
  8
FOREGROUND
  6
CONTINUOUS
 66
     1
 40
0.000000
 41
0.000000
  0
VERTEX
  8
FOREGROUND
  6
CONTINUOUS
 10
0.000000
 20
10.991640
  0
VERTEX
  8
FOREGROUND
  6
CONTINUOUS
 10
8.499920
 20
10.991640
  0
VERTEX
  8
FOREGROUND
  6
CONTINUOUS
 10
8.499920
 20
-0.008360
  0
VERTEX
  8
FOREGROUND
  6
CONTINUOUS
 10
0.000000
 20
-0.008360
  0
VERTEX
  8
FOREGROUND
  6
CONTINUOUS
 10
0.000000
 20
10.991640
  0
SEQEND
  8
0
  0
POLYLINE
  8
FOREGROUND
  6
CONTINUOUS
 66
     1
 40
0.000000
 41
0.000000
  0
VERTEX
  8
FOREGROUND
  6
CONTINUOUS
 10
0.000000
 20
10.991640
  0
VERTEX
  8
FOREGROUND
  6
CONTINUOUS
 10
8.499920
 20
10.991640
  0
VERTEX
  8
FOREGROUND
  6
CONTINUOUS
 10
8.499920
 20
-0.008360
  0
VERTEX
  8
FOREGROUND
  6
CONTINUOUS
 10
0.000000
 20
-0.008360
  0
VERTEX
  8
FOREGROUND
  6
CONTINUOUS
 10
0.000000
 20
10.991640
  0
SEQEND
  8
0
  0
POLYLINE
  8
0
  6
CONTINUOUS
 66
     1
 40
0.000000
 41
0.000000
  0
VERTEX
  8
0
  6
CONTINUOUS
 10
4.224440
 20
4.947800
  0
VERTEX
  8
0
  6
CONTINUOUS
 10
1.811920
 20
4.441360
  0
VERTEX
  8
0
  6
CONTINUOUS
 10
1.813240
 20
4.429480
  0
VERTEX
  8
0
  6
CONTINUOUS
 10
1.811040
 20
4.405720
  0
VERTEX
  8
0
  6
CONTINUOUS
 10
1.808400
 20
4.393400
  0
VERTEX
  8
0
  6
CONTINUOUS
 10
1.798720
 20
4.368760
  0
VERTEX
  8
0
  6
CONTINUOUS
 10
1.784200
 20
4.344120
  0
VERTEX
  8
0
  6
CONTINUOUS
 10
1.764840
 20
4.319040
  0
VERTEX
  8
0
  6
CONTINUOUS
 10
1.741080
 20
4.294400
  0
VERTEX
  8
0
  6
CONTINUOUS
 10
1.697080
 20
4.258320
  0
VERTEX
  8
0
  6
CONTINUOUS
 10
1.644280
 20
4.223560
  0
VERTEX
  8
0
  6
CONTINUOUS
 10
1.583120
 20
4.190120
  0
VERTEX
  8
0
  6
CONTINUOUS
 10
1.514040
 20
4.159760
  0
VERTEX
  8
0
  6
CONTINUOUS
 10
1.437920
 20
4.132040
  0
VERTEX
  8
0
  6
CONTINUOUS
 10
1.355640
 20
4.107840
  0
VERTEX
  8
0
  6
CONTINUOUS
 10
1.297560
 20
4.094200
  0
VERTEX
  8
0
  6
CONTINUOUS
 10
1.297560
 20
3.111680
  0
VERTEX
  8
0
  6
CONTINUOUS
 10
1.345080
 20
3.098040
  0
VERTEX
  8
0
  6
CONTINUOUS
 10
1.389080
 20
3.080440
  0
VERTEX
  8
0
  6
CONTINUOUS
 10
1.430000
 20
3.059320
  0
VERTEX
  8
0
  6
CONTINUOUS
 10
1.468280
 20
3.034240
  0
VERTEX
  8
0
  6
CONTINUOUS
 10
1.519760
 20
2.989800
  0
VERTEX
  8
0
  6
CONTINUOUS
 10
1.550560
 20
2.955480
  0
VERTEX
  8
0
  6
CONTINUOUS
 10
1.579160
 20
2.917640
  0
VERTEX
  8
0
  6
CONTINUOUS
 10
1.617000
 20
2.854720
  0
VERTEX
  8
0
  6
CONTINUOUS
 10
1.639440
 20
2.808080
  0
VERTEX
  8
0
  6
CONTINUOUS
 10
1.659680
 20
2.758360
  0
VERTEX
  8
0
  6
CONTINUOUS
 10
1.686080
 20
2.676960
  0
VERTEX
  8
0
  6
CONTINUOUS
 10
1.708080
 20
2.588080
  0
VERTEX
  8
0
  6
CONTINUOUS
 10
1.726560
 20
2.492160
  0
VERTEX
  8
0
  6
CONTINUOUS
 10
1.741080
 20
2.389200
  0
VERTEX
  8
0
  6
CONTINUOUS
 10
1.752960
 20
2.279200
  0
VERTEX
  8
0
  6
CONTINUOUS
 10
1.762200
 20
2.161720
  0
VERTEX
  8
0
  6
CONTINUOUS
 10
1.771000
 20
1.995400
  0
VERTEX
  8
0
  6
CONTINUOUS
 10
1.776280
 20
1.817200
  0
VERTEX
  8
0
  6
CONTINUOUS
 10
1.781560
 20
1.478400
  0
VERTEX
  8
0
  6
CONTINUOUS
 10
1.786400
 20
0.995280
  0
VERTEX
  8
0
  6
CONTINUOUS
 10
1.984840
 20
0.995280
  0
VERTEX
  8
0
  6
CONTINUOUS
 10
1.984840
 20
0.869880
  0
VERTEX
  8
0
  6
CONTINUOUS
 10
1.984400
 20
0.871200
  0
VERTEX
  8
0
  6
CONTINUOUS
 10
1.969000
 20
0.872960
  0
VERTEX
  8
0
  6
CONTINUOUS
 10
1.949640
 20
0.872080
  0
VERTEX
  8
0
  6
CONTINUOUS
 10
1.912240
 20
0.864600
  0
VERTEX
  8
0
  6
CONTINUOUS
 10
1.878360
 20
0.850080
  0
VERTEX
  8
0
  6
CONTINUOUS
 10
1.848000
 20
0.829400
  0
VERTEX
  8
0
  6
CONTINUOUS
 10
1.834360
 20
0.817520
  0
VERTEX
  8
0
  6
CONTINUOUS
 10
1.811480
 20
0.789360
  0
VERTEX
  8
0
  6
CONTINUOUS
 10
1.801800
 20
0.773520
  0
VERTEX
  8
0
  6
CONTINUOUS
 10
1.787280
 20
0.739640
  0
VERTEX
  8
0
  6
CONTINUOUS
 10
1.779800
 20
0.702240
  0
VERTEX
  8
0
  6
CONTINUOUS
 10
1.778920
 20
0.682880
  0
VERTEX
  8
0
  6
CONTINUOUS
 10
1.779800
 20
0.663520
  0
VERTEX
  8
0
  6
CONTINUOUS
 10
1.787280
 20
0.626560
  0
VERTEX
  8
0
  6
CONTINUOUS
 10
1.801800
 20
0.592240
  0
VERTEX
  8
0
  6
CONTINUOUS
 10
1.822480
 20
0.561880
  0
VERTEX
  8
0
  6
CONTINUOUS
 10
1.848000
 20
0.536360
  0
VERTEX
  8
0
  6
CONTINUOUS
 10
1.878360
 20
0.515680
  0
VERTEX
  8
0
  6
CONTINUOUS
 10
1.912240
 20
0.501160
  0
VERTEX
  8
0
  6
CONTINUOUS
 10
1.949640
 20
0.493680
  0
VERTEX
  8
0
  6
CONTINUOUS
 10
1.969000
 20
0.492800
  0
VERTEX
  8
0
  6
CONTINUOUS
 10
2.003320
 20
0.495880
  0
VERTEX
  8
0
  6
CONTINUOUS
 10
2.019600
 20
0.499400
  0
VERTEX
  8
0
  6
CONTINUOUS
 10
2.050400
 20
0.511280
  0
VERTEX
  8
0
  6
CONTINUOUS
 10
2.078560
 20
0.527560
  0
VERTEX
  8
0
  6
CONTINUOUS
 10
2.103200
 20
0.548680
  0
VERTEX
  8
0
  6
CONTINUOUS
 10
2.124320
 20
0.573320
  0
VERTEX
  8
0
  6
CONTINUOUS
 10
2.140600
 20
0.601480
  0
VERTEX
  8
0
  6
CONTINUOUS
 10
2.147200
 20
0.616440
  0
VERTEX
  8
0
  6
CONTINUOUS
 10
2.156000
 20
0.648560
  0
VERTEX
  8
0
  6
CONTINUOUS
 10
2.166560
 20
0.648560
  0
VERTEX
  8
0
  6
CONTINUOUS
 10
2.166560
 20
0.510840
  0
VERTEX
  8
0
  6
CONTINUOUS
 10
4.229720
 20
0.510840
  0
VERTEX
  8
0
  6
CONTINUOUS
 10
4.252600
 20
0.508640
  0
VERTEX
  8
0
  6
CONTINUOUS
 10
6.316200
 20
0.508640
  0
VERTEX
  8
0
  6
CONTINUOUS
 10
6.316200
 20
0.646360
  0
VERTEX
  8
0
  6
CONTINUOUS
 10
6.326760
 20
0.646360
  0
VERTEX
  8
0
  6
CONTINUOUS
 10
6.335560
 20
0.614240
  0
VERTEX
  8
0
  6
CONTINUOUS
 10
6.349640
 20
0.584760
  0
VERTEX
  8
0
  6
CONTINUOUS
 10
6.368560
 20
0.558360
  0
VERTEX
  8
0
  6
CONTINUOUS
 10
6.391440
 20
0.535480
  0
VERTEX
  8
0
  6
CONTINUOUS
 10
6.417840
 20
0.516560
  0
VERTEX
  8
0
  6
CONTINUOUS
 10
6.447320
 20
0.502480
  0
VERTEX
  8
0
  6
CONTINUOUS
 10
6.463160
 20
0.497200
  0
VERTEX
  8
0
  6
CONTINUOUS
 10
6.496600
 20
0.491480
  0
VERTEX
  8
0
  6
CONTINUOUS
 10
6.513760
 20
0.490600
  0
VERTEX
  8
0
  6
CONTINUOUS
 10
6.533120
 20
0.491480
  0
VERTEX
  8
0
  6
CONTINUOUS
 10
6.570080
 20
0.498960
  0
VERTEX
  8
0
  6
CONTINUOUS
 10
6.603960
 20
0.513480
  0
VERTEX
  8
0
  6
CONTINUOUS
 10
6.634320
 20
0.534160
  0
VERTEX
  8
0
  6
CONTINUOUS
 10
6.660280
 20
0.559680
  0
VERTEX
  8
0
  6
CONTINUOUS
 10
6.680520
 20
0.590040
  0
VERTEX
  8
0
  6
CONTINUOUS
 10
6.695040
 20
0.624360
  0
VERTEX
  8
0
  6
CONTINUOUS
 10
6.702520
 20
0.661320
  0
VERTEX
  8
0
  6
CONTINUOUS
 10
6.703400
 20
0.680680
  0
VERTEX
  8
0
  6
CONTINUOUS
 10
6.702520
 20
0.700040
  0
VERTEX
  8
0
  6
CONTINUOUS
 10
6.695040
 20
0.737440
  0
VERTEX
  8
0
  6
CONTINUOUS
 10
6.680520
 20
0.771320
  0
VERTEX
  8
0
  6
CONTINUOUS
 10
6.660280
 20
0.801680
  0
VERTEX
  8
0
  6
CONTINUOUS
 10
6.647960
 20
0.815320
  0
VERTEX
  8
0
  6
CONTINUOUS
 10
6.619800
 20
0.838200
  0
VERTEX
  8
0
  6
CONTINUOUS
 10
6.587680
 20
0.855800
  0
VERTEX
  8
0
  6
CONTINUOUS
 10
6.570080
 20
0.862400
  0
VERTEX
  8
0
  6
CONTINUOUS
 10
6.533120
 20
0.869880
  0
VERTEX
  8
0
  6
CONTINUOUS
 10
6.505840
 20
0.870320
  0
VERTEX
  8
0
  6
CONTINUOUS
 10
6.497920
 20
0.869000
  0
VERTEX
  8
0
  6
CONTINUOUS
 10
6.497920
 20
0.867240
  0
VERTEX
  8
0
  6
CONTINUOUS
 10
6.497920
 20
0.992640
  0
VERTEX
  8
0
  6
CONTINUOUS
 10
6.695920
 20
0.992640
  0
VERTEX
  8
0
  6
CONTINUOUS
 10
6.703400
 20
1.673760
  0
VERTEX
  8
0
  6
CONTINUOUS
 10
6.708240
 20
1.905200
  0
VERTEX
  8
0
  6
CONTINUOUS
 10
6.715280
 20
2.077680
  0
VERTEX
  8
0
  6
CONTINUOUS
 10
6.725840
 20
2.238280
  0
VERTEX
  8
0
  6
CONTINUOUS
 10
6.736840
 20
2.350920
  0
VERTEX
  8
0
  6
CONTINUOUS
 10
6.750480
 20
2.456520
  0
VERTEX
  8
0
  6
CONTINUOUS
 10
6.767640
 20
2.555080
  0
VERTEX
  8
0
  6
CONTINUOUS
 10
6.788760
 20
2.646160
  0
VERTEX
  8
0
  6
CONTINUOUS
 10
6.804600
 20
2.702480
  0
VERTEX
  8
0
  6
CONTINUOUS
 10
6.832760
 20
2.781240
  0
VERTEX
  8
0
  6
CONTINUOUS
 10
6.853880
 20
2.829640
  0
VERTEX
  8
0
  6
CONTINUOUS
 10
6.890400
 20
2.895200
  0
VERTEX
  8
0
  6
CONTINUOUS
 10
6.917240
 20
2.934800
  0
VERTEX
  8
0
  6
CONTINUOUS
 10
6.947160
 20
2.970880
  0
VERTEX
  8
0
  6
CONTINUOUS
 10
6.979280
 20
3.003000
  0
VERTEX
  8
0
  6
CONTINUOUS
 10
7.014480
 20
3.032040
  0
VERTEX
  8
0
  6
CONTINUOUS
 10
7.052760
 20
3.057120
  0
VERTEX
  8
0
  6
CONTINUOUS
 10
7.093680
 20
3.078240
  0
VERTEX
  8
0
  6
CONTINUOUS
 10
7.137680
 20
3.095840
  0
VERTEX
  8
0
  6
CONTINUOUS
 10
7.185200
 20
3.109480
  0
VERTEX
  8
0
  6
CONTINUOUS
 10
7.185200
 20
4.092000
  0
VERTEX
  8
0
  6
CONTINUOUS
 10
7.127120
 20
4.105640
  0
VERTEX
  8
0
  6
CONTINUOUS
 10
7.044840
 20
4.129840
  0
VERTEX
  8
0
  6
CONTINUOUS
 10
6.968720
 20
4.157560
  0
VERTEX
  8
0
  6
CONTINUOUS
 10
6.899640
 20
4.187920
  0
VERTEX
  8
0
  6
CONTINUOUS
 10
6.838040
 20
4.221360
  0
VERTEX
  8
0
  6
CONTINUOUS
 10
6.785240
 20
4.256120
  0
VERTEX
  8
0
  6
CONTINUOUS
 10
6.741240
 20
4.292200
  0
VERTEX
  8
0
  6
CONTINUOUS
 10
6.717480
 20
4.316840
  0
VERTEX
  8
0
  6
CONTINUOUS
 10
6.690200
 20
4.354240
  0
VERTEX
  8
0
  6
CONTINUOUS
 10
6.678320
 20
4.378880
  0
VERTEX
  8
0
  6
CONTINUOUS
 10
6.673920
 20
4.391200
  0
VERTEX
  8
0
  6
CONTINUOUS
 10
6.669520
 20
4.415400
  0
VERTEX
  8
0
  6
CONTINUOUS
 10
6.669080
 20
4.427280
  0
VERTEX
  8
0
  6
CONTINUOUS
 10
6.670400
 20
4.439160
  0
VERTEX
  8
0
  6
CONTINUOUS
 10
4.257880
 20
4.945600
  0
VERTEX
  8
0
  6
CONTINUOUS
 10
4.224440
 20
4.947800
  0
SEQEND
  8
0
  0
SOLID
  8
0
 62
    15
 10
5.996320
 20
5.842760
 11
6.639600
 21
6.198720
 12
5.996320
 22
5.705480
 13
6.639600
 23
6.061440
  0
POLYLINE
  8
0
  6
CONTINUOUS
 66
     1
 40
0.000000
 41
0.000000
  0
VERTEX
  8
0
  6
CONTINUOUS
 10
5.996320
 20
5.842760
  0
VERTEX
  8
0
  6
CONTINUOUS
 10
6.639600
 20
6.198720
  0
VERTEX
  8
0
  6
CONTINUOUS
 10
6.639600
 20
6.061440
  0
VERTEX
  8
0
  6
CONTINUOUS
 10
5.996320
 20
5.705480
  0
VERTEX
  8
0
  6
CONTINUOUS
 10
5.996320
 20
5.842760
  0
SEQEND
  8
0
  0
SOLID
  8
0
 62
    15
 10
6.350960
 20
9.635560
 11
6.994240
 21
9.991520
 12
6.378680
 22
9.538320
 13
7.021960
 23
9.894280
  0
POLYLINE
  8
0
  6
CONTINUOUS
 66
     1
 40
0.000000
 41
0.000000
  0
VERTEX
  8
0
  6
CONTINUOUS
 10
6.350960
 20
9.635560
  0
VERTEX
  8
0
  6
CONTINUOUS
 10
6.994240
 20
9.991520
  0
VERTEX
  8
0
  6
CONTINUOUS
 10
7.021960
 20
9.894280
  0
VERTEX
  8
0
  6
CONTINUOUS
 10
6.378680
 20
9.538320
  0
VERTEX
  8
0
  6
CONTINUOUS
 10
6.350960
 20
9.635560
  0
SEQEND
  8
0
  0
SOLID
  8
0
 62
    15
 10
6.378680
 20
9.538320
 11
7.021960
 21
9.894280
 12
6.482520
 22
9.441080
 13
7.125800
 23
9.797040
  0
POLYLINE
  8
0
  6
CONTINUOUS
 66
     1
 40
0.000000
 41
0.000000
  0
VERTEX
  8
0
  6
CONTINUOUS
 10
6.378680
 20
9.538320
  0
VERTEX
  8
0
  6
CONTINUOUS
 10
7.021960
 20
9.894280
  0
VERTEX
  8
0
  6
CONTINUOUS
 10
7.125800
 20
9.797040
  0
VERTEX
  8
0
  6
CONTINUOUS
 10
6.482520
 20
9.441080
  0
VERTEX
  8
0
  6
CONTINUOUS
 10
6.378680
 20
9.538320
  0
SEQEND
  8
0
  0
SOLID
  8
0
 62
    15
 10
6.482520
 20
9.441080
 11
7.125800
 21
9.797040
 12
6.648840
 22
9.353960
 13
7.292120
 23
9.710360
  0
POLYLINE
  8
0
  6
CONTINUOUS
 66
     1
 40
0.000000
 41
0.000000
  0
VERTEX
  8
0
  6
CONTINUOUS
 10
6.482520
 20
9.441080
  0
VERTEX
  8
0
  6
CONTINUOUS
 10
7.125800
 20
9.797040
  0
VERTEX
  8
0
  6
CONTINUOUS
 10
7.292120
 20
9.710360
  0
VERTEX
  8
0
  6
CONTINUOUS
 10
6.648840
 20
9.353960
  0
VERTEX
  8
0
  6
CONTINUOUS
 10
6.482520
 20
9.441080
  0
SEQEND
  8
0
  0
SOLID
  8
0
 62
    15
 10
6.648840
 20
9.353960
 11
7.292120
 21
9.710360
 12
6.865320
 22
9.288400
 13
7.508600
 23
9.644800
  0
POLYLINE
  8
0
  6
CONTINUOUS
 66
     1
 40
0.000000
 41
0.000000
  0
VERTEX
  8
0
  6
CONTINUOUS
 10
6.648840
 20
9.353960
  0
VERTEX
  8
0
  6
CONTINUOUS
 10
7.292120
 20
9.710360
  0
VERTEX
  8
0
  6
CONTINUOUS
 10
7.508600
 20
9.644800
  0
VERTEX
  8
0
  6
CONTINUOUS
 10
6.865320
 20
9.288400
  0
VERTEX
  8
0
  6
CONTINUOUS
 10
6.648840
 20
9.353960
  0
SEQEND
  8
0
  0
SOLID
  8
0
 62
    15
 10
6.570520
 20
8.092040
 11
7.213800
 21
8.448000
 12
6.485160
 22
7.899320
 13
7.128440
 23
8.255280
  0
POLYLINE
  8
0
  6
CONTINUOUS
 66
     1
 40
0.000000
 41
0.000000
  0
VERTEX
  8
0
  6
CONTINUOUS
 10
6.570520
 20
8.092040
  0
VERTEX
  8
0
  6
CONTINUOUS
 10
7.213800
 20
8.448000
  0
VERTEX
  8
0
  6
CONTINUOUS
 10
7.128440
 20
8.255280
  0
VERTEX
  8
0
  6
CONTINUOUS
 10
6.485160
 20
7.899320
  0
VERTEX
  8
0
  6
CONTINUOUS
 10
6.570520
 20
8.092040
  0
SEQEND
  8
0
  0
SOLID
  8
0
 62
    15
 10
6.695040
 20
8.228440
 11
7.338320
 21
8.584840
 12
6.570520
 22
8.092040
 13
7.213800
 23
8.448000
  0
POLYLINE
  8
0
  6
CONTINUOUS
 66
     1
 40
0.000000
 41
0.000000
  0
VERTEX
  8
0
  6
CONTINUOUS
 10
6.695040
 20
8.228440
  0
VERTEX
  8
0
  6
CONTINUOUS
 10
7.338320
 20
8.584840
  0
VERTEX
  8
0
  6
CONTINUOUS
 10
7.213800
 20
8.448000
  0
VERTEX
  8
0
  6
CONTINUOUS
 10
6.570520
 20
8.092040
  0
VERTEX
  8
0
  6
CONTINUOUS
 10
6.695040
 20
8.228440
  0
SEQEND
  8
0
  0
SOLID
  8
0
 62
    15
 10
6.865320
 20
9.288400
 11
7.508600
 21
9.644800
 12
6.865320
 22
8.305880
 13
7.508600
 23
8.662280
  0
POLYLINE
  8
0
  6
CONTINUOUS
 66
     1
 40
0.000000
 41
0.000000
  0
VERTEX
  8
0
  6
CONTINUOUS
 10
6.865320
 20
9.288400
  0
VERTEX
  8
0
  6
CONTINUOUS
 10
7.508600
 20
9.644800
  0
VERTEX
  8
0
  6
CONTINUOUS
 10
7.508600
 20
8.662280
  0
VERTEX
  8
0
  6
CONTINUOUS
 10
6.865320
 20
8.305880
  0
VERTEX
  8
0
  6
CONTINUOUS
 10
6.865320
 20
9.288400
  0
SEQEND
  8
0
  0
SOLID
  8
0
 62
    15
 10
6.485160
 20
7.899320
 11
7.128440
 21
8.255280
 12
6.431040
 22
7.652920
 13
7.074320
 23
8.009320
  0
POLYLINE
  8
0
  6
CONTINUOUS
 66
     1
 40
0.000000
 41
0.000000
  0
VERTEX
  8
0
  6
CONTINUOUS
 10
6.485160
 20
7.899320
  0
VERTEX
  8
0
  6
CONTINUOUS
 10
7.128440
 20
8.255280
  0
VERTEX
  8
0
  6
CONTINUOUS
 10
7.074320
 20
8.009320
  0
VERTEX
  8
0
  6
CONTINUOUS
 10
6.431040
 20
7.652920
  0
VERTEX
  8
0
  6
CONTINUOUS
 10
6.485160
 20
7.899320
  0
SEQEND
  8
0
  0
SOLID
  8
0
 62
    15
 10
6.431040
 20
7.652920
 11
7.074320
 21
8.009320
 12
6.400680
 22
7.356360
 13
7.043960
 23
7.712320
  0
POLYLINE
  8
0
  6
CONTINUOUS
 66
     1
 40
0.000000
 41
0.000000
  0
VERTEX
  8
0
  6
CONTINUOUS
 10
6.431040
 20
7.652920
  0
VERTEX
  8
0
  6
CONTINUOUS
 10
7.074320
 20
8.009320
  0
VERTEX
  8
0
  6
CONTINUOUS
 10
7.043960
 20
7.712320
  0
VERTEX
  8
0
  6
CONTINUOUS
 10
6.400680
 20
7.356360
  0
VERTEX
  8
0
  6
CONTINUOUS
 10
6.431040
 20
7.652920
  0
SEQEND
  8
0
  0
SOLID
  8
0
 62
    15
 10
6.400680
 20
7.356360
 11
7.043960
 21
7.712320
 12
6.386600
 22
7.011840
 13
7.029880
 23
7.367800
  0
POLYLINE
  8
0
  6
CONTINUOUS
 66
     1
 40
0.000000
 41
0.000000
  0
VERTEX
  8
0
  6
CONTINUOUS
 10
6.400680
 20
7.356360
  0
VERTEX
  8
0
  6
CONTINUOUS
 10
7.043960
 20
7.712320
  0
VERTEX
  8
0
  6
CONTINUOUS
 10
7.029880
 20
7.367800
  0
VERTEX
  8
0
  6
CONTINUOUS
 10
6.386600
 20
7.011840
  0
VERTEX
  8
0
  6
CONTINUOUS
 10
6.400680
 20
7.356360
  0
SEQEND
  8
0
  0
SOLID
  8
0
 62
    15
 10
6.386600
 20
7.011840
 11
7.029880
 21
7.367800
 12
6.380880
 22
6.621560
 13
7.024160
 23
6.977960
  0
POLYLINE
  8
0
  6
CONTINUOUS
 66
     1
 40
0.000000
 41
0.000000
  0
VERTEX
  8
0
  6
CONTINUOUS
 10
6.386600
 20
7.011840
  0
VERTEX
  8
0
  6
CONTINUOUS
 10
7.029880
 20
7.367800
  0
VERTEX
  8
0
  6
CONTINUOUS
 10
7.024160
 20
6.977960
  0
VERTEX
  8
0
  6
CONTINUOUS
 10
6.380880
 20
6.621560
  0
VERTEX
  8
0
  6
CONTINUOUS
 10
6.386600
 20
7.011840
  0
SEQEND
  8
0
  0
SOLID
  8
0
 62
    15
 10
6.178040
 20
6.189480
 11
6.821320
 21
6.545440
 12
6.178040
 22
6.064080
 13
6.821320
 23
6.420040
  0
POLYLINE
  8
0
  6
CONTINUOUS
 66
     1
 40
0.000000
 41
0.000000
  0
VERTEX
  8
0
  6
CONTINUOUS
 10
6.178040
 20
6.189480
  0
VERTEX
  8
0
  6
CONTINUOUS
 10
6.821320
 20
6.545440
  0
VERTEX
  8
0
  6
CONTINUOUS
 10
6.821320
 20
6.420040
  0
VERTEX
  8
0
  6
CONTINUOUS
 10
6.178040
 20
6.064080
  0
VERTEX
  8
0
  6
CONTINUOUS
 10
6.178040
 20
6.189480
  0
SEQEND
  8
0
  0
SOLID
  8
0
 62
    15
 10
6.380880
 20
6.621560
 11
7.024160
 21
6.977960
 12
6.376480
 22
6.189480
 13
7.019760
 23
6.545440
  0
POLYLINE
  8
0
  6
CONTINUOUS
 66
     1
 40
0.000000
 41
0.000000
  0
VERTEX
  8
0
  6
CONTINUOUS
 10
6.380880
 20
6.621560
  0
VERTEX
  8
0
  6
CONTINUOUS
 10
7.024160
 20
6.977960
  0
VERTEX
  8
0
  6
CONTINUOUS
 10
7.019760
 20
6.545440
  0
VERTEX
  8
0
  6
CONTINUOUS
 10
6.376480
 20
6.189480
  0
VERTEX
  8
0
  6
CONTINUOUS
 10
6.380880
 20
6.621560
  0
SEQEND
  8
0
  0
SOLID
  8
0
 62
    15
 10
6.178480
 20
6.065840
 11
6.821760
 21
6.421800
 12
6.193880
 22
6.067600
 13
6.837160
 23
6.423560
  0
POLYLINE
  8
0
  6
CONTINUOUS
 66
     1
 40
0.000000
 41
0.000000
  0
VERTEX
  8
0
  6
CONTINUOUS
 10
6.178480
 20
6.065840
  0
VERTEX
  8
0
  6
CONTINUOUS
 10
6.821760
 20
6.421800
  0
VERTEX
  8
0
  6
CONTINUOUS
 10
6.837160
 20
6.423560
  0
VERTEX
  8
0
  6
CONTINUOUS
 10
6.193880
 20
6.067600
  0
VERTEX
  8
0
  6
CONTINUOUS
 10
6.178480
 20
6.065840
  0
SEQEND
  8
0
  0
SOLID
  8
0
 62
    15
 10
6.193880
 20
6.067600
 11
6.837160
 21
6.423560
 12
6.267800
 22
6.052640
 13
6.911080
 23
6.408600
  0
POLYLINE
  8
0
  6
CONTINUOUS
 66
     1
 40
0.000000
 41
0.000000
  0
VERTEX
  8
0
  6
CONTINUOUS
 10
6.193880
 20
6.067600
  0
VERTEX
  8
0
  6
CONTINUOUS
 10
6.837160
 20
6.423560
  0
VERTEX
  8
0
  6
CONTINUOUS
 10
6.911080
 20
6.408600
  0
VERTEX
  8
0
  6
CONTINUOUS
 10
6.267800
 20
6.052640
  0
VERTEX
  8
0
  6
CONTINUOUS
 10
6.193880
 20
6.067600
  0
SEQEND
  8
0
  0
SOLID
  8
0
 62
    15
 10
3.905000
 20
10.144200
 11
4.548280
 21
10.500600
 12
3.938440
 22
10.142000
 13
4.581720
 23
10.498400
  0
POLYLINE
  8
0
  6
CONTINUOUS
 66
     1
 40
0.000000
 41
0.000000
  0
VERTEX
  8
0
  6
CONTINUOUS
 10
3.905000
 20
10.144200
  0
VERTEX
  8
0
  6
CONTINUOUS
 10
4.548280
 20
10.500600
  0
VERTEX
  8
0
  6
CONTINUOUS
 10
4.581720
 20
10.498400
  0
VERTEX
  8
0
  6
CONTINUOUS
 10
3.938440
 20
10.142000
  0
VERTEX
  8
0
  6
CONTINUOUS
 10
3.905000
 20
10.144200
  0
SEQEND
  8
0
  0
SOLID
  8
0
 62
    15
 10
6.328520
 20
6.011720
 11
6.971360
 21
6.367680
 12
6.369000
 22
5.951440
 13
7.012280
 23
6.307400
  0
POLYLINE
  8
0
  6
CONTINUOUS
 66
     1
 40
0.000000
 41
0.000000
  0
VERTEX
  8
0
  6
CONTINUOUS
 10
6.328520
 20
6.011720
  0
VERTEX
  8
0
  6
CONTINUOUS
 10
6.971360
 20
6.367680
  0
VERTEX
  8
0
  6
CONTINUOUS
 10
7.012280
 20
6.307400
  0
VERTEX
  8
0
  6
CONTINUOUS
 10
6.369000
 20
5.951440
  0
VERTEX
  8
0
  6
CONTINUOUS
 10
6.328520
 20
6.011720
  0
SEQEND
  8
0
  0
SOLID
  8
0
 62
    15
 10
6.369000
 20
5.951440
 11
7.012280
 21
6.307400
 12
6.383960
 22
5.877520
 13
7.027240
 23
6.233480
  0
POLYLINE
  8
0
  6
CONTINUOUS
 66
     1
 40
0.000000
 41
0.000000
  0
VERTEX
  8
0
  6
CONTINUOUS
 10
6.369000
 20
5.951440
  0
VERTEX
  8
0
  6
CONTINUOUS
 10
7.012280
 20
6.307400
  0
VERTEX
  8
0
  6
CONTINUOUS
 10
7.027240
 20
6.233480
  0
VERTEX
  8
0
  6
CONTINUOUS
 10
6.383960
 20
5.877520
  0
VERTEX
  8
0
  6
CONTINUOUS
 10
6.369000
 20
5.951440
  0
SEQEND
  8
0
  0
SOLID
  8
0
 62
    15
 10
6.369000
 20
5.803600
 11
7.012280
 21
6.159560
 12
6.328520
 22
5.742880
 13
6.971360
 23
6.099280
  0
POLYLINE
  8
0
  6
CONTINUOUS
 66
     1
 40
0.000000
 41
0.000000
  0
VERTEX
  8
0
  6
CONTINUOUS
 10
6.369000
 20
5.803600
  0
VERTEX
  8
0
  6
CONTINUOUS
 10
7.012280
 20
6.159560
  0
VERTEX
  8
0
  6
CONTINUOUS
 10
6.971360
 20
6.099280
  0
VERTEX
  8
0
  6
CONTINUOUS
 10
6.328520
 20
5.742880
  0
VERTEX
  8
0
  6
CONTINUOUS
 10
6.369000
 20
5.803600
  0
SEQEND
  8
0
  0
SOLID
  8
0
 62
    15
 10
6.383960
 20
5.877520
 11
7.027240
 21
6.233480
 12
6.369000
 22
5.803600
 13
7.012280
 23
6.159560
  0
POLYLINE
  8
0
  6
CONTINUOUS
 66
     1
 40
0.000000
 41
0.000000
  0
VERTEX
  8
0
  6
CONTINUOUS
 10
6.383960
 20
5.877520
  0
VERTEX
  8
0
  6
CONTINUOUS
 10
7.027240
 20
6.233480
  0
VERTEX
  8
0
  6
CONTINUOUS
 10
7.012280
 20
6.159560
  0
VERTEX
  8
0
  6
CONTINUOUS
 10
6.369000
 20
5.803600
  0
VERTEX
  8
0
  6
CONTINUOUS
 10
6.383960
 20
5.877520
  0
SEQEND
  8
0
  0
SOLID
  8
0
 62
    15
 10
6.328520
 20
5.742880
 11
6.971360
 21
6.099280
 12
6.267800
 22
5.702400
 13
6.911080
 23
6.058360
  0
POLYLINE
  8
0
  6
CONTINUOUS
 66
     1
 40
0.000000
 41
0.000000
  0
VERTEX
  8
0
  6
CONTINUOUS
 10
6.328520
 20
5.742880
  0
VERTEX
  8
0
  6
CONTINUOUS
 10
6.971360
 20
6.099280
  0
VERTEX
  8
0
  6
CONTINUOUS
 10
6.911080
 20
6.058360
  0
VERTEX
  8
0
  6
CONTINUOUS
 10
6.267800
 20
5.702400
  0
VERTEX
  8
0
  6
CONTINUOUS
 10
6.328520
 20
5.742880
  0
SEQEND
  8
0
  0
SOLID
  8
0
 62
    15
 10
6.267800
 20
6.052640
 11
6.911080
 21
6.408600
 12
6.328520
 22
6.011720
 13
6.971360
 23
6.367680
  0
POLYLINE
  8
0
  6
CONTINUOUS
 66
     1
 40
0.000000
 41
0.000000
  0
VERTEX
  8
0
  6
CONTINUOUS
 10
6.267800
 20
6.052640
  0
VERTEX
  8
0
  6
CONTINUOUS
 10
6.911080
 20
6.408600
  0
VERTEX
  8
0
  6
CONTINUOUS
 10
6.971360
 20
6.367680
  0
VERTEX
  8
0
  6
CONTINUOUS
 10
6.328520
 20
6.011720
  0
VERTEX
  8
0
  6
CONTINUOUS
 10
6.267800
 20
6.052640
  0
SEQEND
  8
0
  0
SOLID
  8
0
 62
    15
 10
1.836120
 20
5.844960
 11
2.479400
 21
6.200920
 12
1.813240
 22
5.783360
 13
2.456520
 23
6.139760
  0
POLYLINE
  8
0
  6
CONTINUOUS
 66
     1
 40
0.000000
 41
0.000000
  0
VERTEX
  8
0
  6
CONTINUOUS
 10
1.836120
 20
5.844960
  0
VERTEX
  8
0
  6
CONTINUOUS
 10
2.479400
 20
6.200920
  0
VERTEX
  8
0
  6
CONTINUOUS
 10
2.456520
 20
6.139760
  0
VERTEX
  8
0
  6
CONTINUOUS
 10
1.813240
 20
5.783360
  0
VERTEX
  8
0
  6
CONTINUOUS
 10
1.836120
 20
5.844960
  0
SEQEND
  8
0
  0
SOLID
  8
0
 62
    15
 10
1.771440
 20
5.734080
 11
2.414720
 21
6.090480
 12
1.715560
 22
5.701520
 13
2.358840
 23
6.057480
  0
POLYLINE
  8
0
  6
CONTINUOUS
 66
     1
 40
0.000000
 41
0.000000
  0
VERTEX
  8
0
  6
CONTINUOUS
 10
1.771440
 20
5.734080
  0
VERTEX
  8
0
  6
CONTINUOUS
 10
2.414720
 20
6.090480
  0
VERTEX
  8
0
  6
CONTINUOUS
 10
2.358840
 20
6.057480
  0
VERTEX
  8
0
  6
CONTINUOUS
 10
1.715560
 20
5.701520
  0
VERTEX
  8
0
  6
CONTINUOUS
 10
1.771440
 20
5.734080
  0
SEQEND
  8
0
  0
SOLID
  8
0
 62
    15
 10
1.813240
 20
5.783360
 11
2.456520
 21
6.139760
 12
1.771440
 22
5.734080
 13
2.414720
 23
6.090480
  0
POLYLINE
  8
0
  6
CONTINUOUS
 66
     1
 40
0.000000
 41
0.000000
  0
VERTEX
  8
0
  6
CONTINUOUS
 10
1.813240
 20
5.783360
  0
VERTEX
  8
0
  6
CONTINUOUS
 10
2.456520
 20
6.139760
  0
VERTEX
  8
0
  6
CONTINUOUS
 10
2.414720
 20
6.090480
  0
VERTEX
  8
0
  6
CONTINUOUS
 10
1.771440
 20
5.734080
  0
VERTEX
  8
0
  6
CONTINUOUS
 10
1.813240
 20
5.783360
  0
SEQEND
  8
0
  0
SOLID
  8
0
 62
    15
 10
1.575200
 20
6.054840
 11
2.218480
 21
6.410800
 12
1.649560
 22
6.069800
 13
2.292840
 23
6.425760
  0
POLYLINE
  8
0
  6
CONTINUOUS
 66
     1
 40
0.000000
 41
0.000000
  0
VERTEX
  8
0
  6
CONTINUOUS
 10
1.575200
 20
6.054840
  0
VERTEX
  8
0
  6
CONTINUOUS
 10
2.218480
 20
6.410800
  0
VERTEX
  8
0
  6
CONTINUOUS
 10
2.292840
 20
6.425760
  0
VERTEX
  8
0
  6
CONTINUOUS
 10
1.649560
 20
6.069800
  0
VERTEX
  8
0
  6
CONTINUOUS
 10
1.575200
 20
6.054840
  0
SEQEND
  8
0
  0
SOLID
  8
0
 62
    15
 10
1.649560
 20
6.069800
 11
2.292840
 21
6.425760
 12
1.664960
 22
6.068040
 13
2.308240
 23
6.424000
  0
POLYLINE
  8
0
  6
CONTINUOUS
 66
     1
 40
0.000000
 41
0.000000
  0
VERTEX
  8
0
  6
CONTINUOUS
 10
1.649560
 20
6.069800
  0
VERTEX
  8
0
  6
CONTINUOUS
 10
2.292840
 20
6.425760
  0
VERTEX
  8
0
  6
CONTINUOUS
 10
2.308240
 20
6.424000
  0
VERTEX
  8
0
  6
CONTINUOUS
 10
1.664960
 20
6.068040
  0
VERTEX
  8
0
  6
CONTINUOUS
 10
1.649560
 20
6.069800
  0
SEQEND
  8
0
  0
SOLID
  8
0
 62
    15
 10
1.664960
 20
6.068040
 11
2.308240
 21
6.424000
 12
1.665400
 22
6.066280
 13
2.308680
 23
6.422240
  0
POLYLINE
  8
0
  6
CONTINUOUS
 66
     1
 40
0.000000
 41
0.000000
  0
VERTEX
  8
0
  6
CONTINUOUS
 10
1.664960
 20
6.068040
  0
VERTEX
  8
0
  6
CONTINUOUS
 10
2.308240
 20
6.424000
  0
VERTEX
  8
0
  6
CONTINUOUS
 10
2.308680
 20
6.422240
  0
VERTEX
  8
0
  6
CONTINUOUS
 10
1.665400
 20
6.066280
  0
VERTEX
  8
0
  6
CONTINUOUS
 10
1.664960
 20
6.068040
  0
SEQEND
  8
0
  0
SOLID
  8
0
 62
    15
 10
1.492480
 20
9.637760
 11
2.135760
 21
9.994160
 12
3.905000
 22
10.144200
 13
4.548280
 23
10.500600
  0
POLYLINE
  8
0
  6
CONTINUOUS
 66
     1
 40
0.000000
 41
0.000000
  0
VERTEX
  8
0
  6
CONTINUOUS
 10
1.492480
 20
9.637760
  0
VERTEX
  8
0
  6
CONTINUOUS
 10
2.135760
 20
9.994160
  0
VERTEX
  8
0
  6
CONTINUOUS
 10
4.548280
 20
10.500600
  0
VERTEX
  8
0
  6
CONTINUOUS
 10
3.905000
 20
10.144200
  0
VERTEX
  8
0
  6
CONTINUOUS
 10
1.492480
 20
9.637760
  0
SEQEND
  8
0
  0
SOLID
  8
0
 62
    15
 10
1.194160
 20
9.356160
 11
1.837440
 21
9.712560
 12
1.360920
 22
9.443280
 13
2.004200
 23
9.799240
  0
POLYLINE
  8
0
  6
CONTINUOUS
 66
     1
 40
0.000000
 41
0.000000
  0
VERTEX
  8
0
  6
CONTINUOUS
 10
1.194160
 20
9.356160
  0
VERTEX
  8
0
  6
CONTINUOUS
 10
1.837440
 20
9.712560
  0
VERTEX
  8
0
  6
CONTINUOUS
 10
2.004200
 20
9.799240
  0
VERTEX
  8
0
  6
CONTINUOUS
 10
1.360920
 20
9.443280
  0
VERTEX
  8
0
  6
CONTINUOUS
 10
1.194160
 20
9.356160
  0
SEQEND
  8
0
  0
SOLID
  8
0
 62
    15
 10
0.977680
 20
9.290600
 11
1.620960
 21
9.647000
 12
1.194160
 22
9.356160
 13
1.837440
 23
9.712560
  0
POLYLINE
  8
0
  6
CONTINUOUS
 66
     1
 40
0.000000
 41
0.000000
  0
VERTEX
  8
0
  6
CONTINUOUS
 10
0.977680
 20
9.290600
  0
VERTEX
  8
0
  6
CONTINUOUS
 10
1.620960
 20
9.647000
  0
VERTEX
  8
0
  6
CONTINUOUS
 10
1.837440
 20
9.712560
  0
VERTEX
  8
0
  6
CONTINUOUS
 10
1.194160
 20
9.356160
  0
VERTEX
  8
0
  6
CONTINUOUS
 10
0.977680
 20
9.290600
  0
SEQEND
  8
0
  0
SOLID
  8
0
 62
    15
 10
3.938440
 20
10.142000
 11
4.581720
 21
10.498400
 12
6.350960
 22
9.635560
 13
6.994240
 23
9.991520
  0
POLYLINE
  8
0
  6
CONTINUOUS
 66
     1
 40
0.000000
 41
0.000000
  0
VERTEX
  8
0
  6
CONTINUOUS
 10
3.938440
 20
10.142000
  0
VERTEX
  8
0
  6
CONTINUOUS
 10
4.581720
 20
10.498400
  0
VERTEX
  8
0
  6
CONTINUOUS
 10
6.994240
 20
9.991520
  0
VERTEX
  8
0
  6
CONTINUOUS
 10
6.350960
 20
9.635560
  0
VERTEX
  8
0
  6
CONTINUOUS
 10
3.938440
 20
10.142000
  0
SEQEND
  8
0
  0
POLYLINE
  8
0
  6
CONTINUOUS
 66
     1
 40
0.000000
 41
0.000000
  0
VERTEX
  8
0
  6
CONTINUOUS
 10
3.938440
 20
10.142000
  0
VERTEX
  8
0
  6
CONTINUOUS
 10
6.350960
 20
9.635560
  0
VERTEX
  8
0
  6
CONTINUOUS
 10
6.378680
 20
9.538320
  0
VERTEX
  8
0
  6
CONTINUOUS
 10
6.482520
 20
9.441080
  0
VERTEX
  8
0
  6
CONTINUOUS
 10
6.648840
 20
9.353960
  0
VERTEX
  8
0
  6
CONTINUOUS
 10
6.865320
 20
9.288400
  0
VERTEX
  8
0
  6
CONTINUOUS
 10
6.865320
 20
8.305880
  0
VERTEX
  8
0
  6
CONTINUOUS
 10
6.695040
 20
8.228440
  0
VERTEX
  8
0
  6
CONTINUOUS
 10
6.570520
 20
8.092040
  0
VERTEX
  8
0
  6
CONTINUOUS
 10
6.485160
 20
7.899320
  0
VERTEX
  8
0
  6
CONTINUOUS
 10
6.431040
 20
7.652920
  0
VERTEX
  8
0
  6
CONTINUOUS
 10
6.400680
 20
7.356360
  0
VERTEX
  8
0
  6
CONTINUOUS
 10
6.386600
 20
7.011840
  0
VERTEX
  8
0
  6
CONTINUOUS
 10
6.380880
 20
6.621560
  0
VERTEX
  8
0
  6
CONTINUOUS
 10
6.376480
 20
6.189480
  0
VERTEX
  8
0
  6
CONTINUOUS
 10
6.178040
 20
6.189480
  0
VERTEX
  8
0
  6
CONTINUOUS
 10
6.178040
 20
6.064080
  0
VERTEX
  8
0
  6
CONTINUOUS
 10
6.178480
 20
6.065840
  0
VERTEX
  8
0
  6
CONTINUOUS
 10
6.193880
 20
6.067600
  0
VERTEX
  8
0
  6
CONTINUOUS
 10
6.267800
 20
6.052640
  0
VERTEX
  8
0
  6
CONTINUOUS
 10
6.328520
 20
6.011720
  0
VERTEX
  8
0
  6
CONTINUOUS
 10
6.369000
 20
5.951440
  0
VERTEX
  8
0
  6
CONTINUOUS
 10
6.383960
 20
5.877520
  0
VERTEX
  8
0
  6
CONTINUOUS
 10
6.369000
 20
5.803600
  0
VERTEX
  8
0
  6
CONTINUOUS
 10
6.328520
 20
5.742880
  0
VERTEX
  8
0
  6
CONTINUOUS
 10
6.267800
 20
5.702400
  0
VERTEX
  8
0
  6
CONTINUOUS
 10
6.193880
 20
5.687440
  0
VERTEX
  8
0
  6
CONTINUOUS
 10
6.127880
 20
5.699320
  0
VERTEX
  8
0
  6
CONTINUOUS
 10
6.071560
 20
5.731880
  0
VERTEX
  8
0
  6
CONTINUOUS
 10
6.030200
 20
5.781160
  0
VERTEX
  8
0
  6
CONTINUOUS
 10
6.006880
 20
5.842760
  0
VERTEX
  8
0
  6
CONTINUOUS
 10
5.996320
 20
5.842760
  0
VERTEX
  8
0
  6
CONTINUOUS
 10
5.996320
 20
5.705480
  0
VERTEX
  8
0
  6
CONTINUOUS
 10
3.933160
 20
5.705480
  0
VERTEX
  8
0
  6
CONTINUOUS
 10
3.910280
 20
5.707680
  0
VERTEX
  8
0
  6
CONTINUOUS
 10
1.846680
 20
5.707680
  0
VERTEX
  8
0
  6
CONTINUOUS
 10
1.846680
 20
5.844960
  0
VERTEX
  8
0
  6
CONTINUOUS
 10
1.836120
 20
5.844960
  0
VERTEX
  8
0
  6
CONTINUOUS
 10
1.813240
 20
5.783360
  0
VERTEX
  8
0
  6
CONTINUOUS
 10
1.771440
 20
5.734080
  0
VERTEX
  8
0
  6
CONTINUOUS
 10
1.715560
 20
5.701520
  0
VERTEX
  8
0
  6
CONTINUOUS
 10
1.649560
 20
5.689640
  0
VERTEX
  8
0
  6
CONTINUOUS
 10
1.575200
 20
5.704600
  0
VERTEX
  8
0
  6
CONTINUOUS
 10
1.514920
 20
5.745080
  0
VERTEX
  8
0
  6
CONTINUOUS
 10
1.474440
 20
5.805800
  0
VERTEX
  8
0
  6
CONTINUOUS
 10
1.459480
 20
5.879720
  0
VERTEX
  8
0
  6
CONTINUOUS
 10
1.474440
 20
5.953640
  0
VERTEX
  8
0
  6
CONTINUOUS
 10
1.514920
 20
6.013920
  0
VERTEX
  8
0
  6
CONTINUOUS
 10
1.575200
 20
6.054840
  0
VERTEX
  8
0
  6
CONTINUOUS
 10
1.649560
 20
6.069800
  0
VERTEX
  8
0
  6
CONTINUOUS
 10
1.664960
 20
6.068040
  0
VERTEX
  8
0
  6
CONTINUOUS
 10
1.665400
 20
6.066280
  0
VERTEX
  8
0
  6
CONTINUOUS
 10
1.665400
 20
6.191680
  0
VERTEX
  8
0
  6
CONTINUOUS
 10
1.466960
 20
6.191680
  0
VERTEX
  8
0
  6
CONTINUOUS
 10
1.462560
 20
6.624200
  0
VERTEX
  8
0
  6
CONTINUOUS
 10
1.456840
 20
7.014040
  0
VERTEX
  8
0
  6
CONTINUOUS
 10
1.442760
 20
7.358560
  0
VERTEX
  8
0
  6
CONTINUOUS
 10
1.412400
 20
7.655560
  0
VERTEX
  8
0
  6
CONTINUOUS
 10
1.357840
 20
7.901520
  0
VERTEX
  8
0
  6
CONTINUOUS
 10
1.272480
 20
8.094240
  0
VERTEX
  8
0
  6
CONTINUOUS
 10
1.148400
 20
8.230640
  0
VERTEX
  8
0
  6
CONTINUOUS
 10
0.977680
 20
8.308080
  0
VERTEX
  8
0
  6
CONTINUOUS
 10
0.977680
 20
9.290600
  0
VERTEX
  8
0
  6
CONTINUOUS
 10
1.194160
 20
9.356160
  0
VERTEX
  8
0
  6
CONTINUOUS
 10
1.360920
 20
9.443280
  0
VERTEX
  8
0
  6
CONTINUOUS
 10
1.464760
 20
9.540520
  0
VERTEX
  8
0
  6
CONTINUOUS
 10
1.492480
 20
9.637760
  0
VERTEX
  8
0
  6
CONTINUOUS
 10
3.905000
 20
10.144200
  0
VERTEX
  8
0
  6
CONTINUOUS
 10
3.938440
 20
10.142000
  0
SEQEND
  8
0
  0
TEXT
  8
0
 10
3.948120
 20
5.415080
 40
0.138107
  1
BA  767
 41
1.000000
  7
SN0
 71
     0
 72
     5
 11
4.541239
 21
5.415080
  0
TEXT
  8
0
 10
3.672240
 20
5.223680
 40
0.138107
  1
4-7/16" x 5-7/8"
 41
1.000000
  7
SN0
 71
     0
 72
     5
 11
4.819436
 21
5.223680
  0
ENDSEC
  0
EOF
