  0
SECTION
  2
HEADER
  9
$ACADVER
  1
AC1006
  9
$EXTMIN
 10
1.148400
 20
0.818400
  9
$EXTMAX
 10
7.918240
 20
7.957400
  9
$LTSCALE
 40
0.044000
  9
$PDMODE
 70
    35
  9
$PDSIZE
 40
0.035200
  0
ENDSEC
  0
SECTION
  2
TABLES
  0
TABLE
  2
LTYPE
 70
     9
  0
LTYPE
  2
CONTINUOUS
 70
    64
  3
Solid line
 72
    65
 73
     0
 40
0.000000
  0
LTYPE
  2
DASHED
 70
    64
  3
__ __ __ __ __ __ __ __ __ __ __ __ __ __ __
 72
    65
 73
     2
 40
0.000330
 49
0.000220
 49
-0.000110
  0
LTYPE
  2
HIDDEN
 70
    64
  3
 _ _ _ _ _ _ _ _ _ _ _ _ _ _ _ _ _ _ _ _ _ _
 72
    65
 73
     2
 40
0.000165
 49
0.000110
 49
-0.000055
  0
LTYPE
  2
CENTER
 70
    64
  3
____ _ ____ _ ____ _ ____ _ ____ _ ____ _ ____
 72
    65
 73
     4
 40
0.000880
 49
0.000550
 49
-0.000110
 49
0.000110
 49
-0.000110
  0
LTYPE
  2
PHANTOM
 70
    64
  3
_____ _ _ _____ _ _ _____ _ _ _____ _ _ ____
 72
    65
 73
     6
 40
0.001100
 49
0.000550
 49
-0.000110
 49
0.000110
 49
-0.000110
 49
0.000110
 49
-0.000110
  0
LTYPE
  2
DOT
 70
    64
  3
...............................................
 72
    65
 73
     2
 40
0.000110
 49
0.000000
 49
-0.000110
  0
LTYPE
  2
DASHDOT
 70
    64
  3
__ . __ . __ . __ . __ . __ . __ . __ . __ . __
 72
    65
 73
     4
 40
0.000440
 49
0.000220
 49
-0.000110
 49
0.000000
 49
-0.000110
  0
LTYPE
  2
BORDER
 70
    64
  3
__ __ . __ __ . __ __ . __ __ . __ __ . __ __
 72
    65
 73
     6
 40
0.000770
 49
0.000220
 49
-0.000110
 49
0.000220
 49
-0.000110
 49
0.000000
 49
-0.000110
  0
LTYPE
  2
DIVIDE
 70
    64
  3
__ . . __ . . __ . . __ . . __ . . __ . . __
 72
    65
 73
     6
 40
0.000550
 49
0.000220
 49
-0.000110
 49
0.000000
 49
-0.000110
 49
0.000000
 49
-0.000110
  0
LTYPE
  2
DOTDOT
 70
    64
  3
 . .  . .  . .  . .  . .  . . 
 72
    65
 73
     5
 40
0.000242
 49
-0.000110
 49
0.000000
 49
-0.000110
 49
0.000000
 49
-0.000110
  0
ENDTAB
  0
TABLE
  2
STYLE
 70
     2
  0
STYLE
 70
     0
  2
SN0
 40
0.000000
 41
0.000440
 50
0.000000
 71
     0
 42
0.000000
  3
ROMAND
  0
STYLE
 70
    68
  2
SV0
 40
0.000000
 41
0.000440
 50
0.000000
 71
     0
 42
0.000000
  3
ROMAND
  0
ENDTAB
  0
TABLE
  2
LAYER
 70
     3
  0
LAYER
  2
FOREGROUND
 70
    64
 62
     7
  6
CONTINUOUS
  0
LAYER
  2
BACKGROUND
 70
    65
 62
    -7
  6
CONTINUOUS
  0
LAYER
  2
0
 70
    64
 62
     7
  6
CONTINUOUS
  0
ENDTAB
  0
ENDSEC
  0
SECTION
  2
ENTITIES
  0
POLYLINE
  8
FOREGROUND
  6
CONTINUOUS
 66
     1
 40
0.000000
 41
0.000000
  0
VERTEX
  8
FOREGROUND
  6
CONTINUOUS
 10
0.000000
 20
8.775800
  0
VERTEX
  8
FOREGROUND
  6
CONTINUOUS
 10
8.499920
 20
8.775800
  0
VERTEX
  8
FOREGROUND
  6
CONTINUOUS
 10
8.499920
 20
-2.224200
  0
VERTEX
  8
FOREGROUND
  6
CONTINUOUS
 10
0.000000
 20
-2.224200
  0
VERTEX
  8
FOREGROUND
  6
CONTINUOUS
 10
0.000000
 20
8.775800
  0
SEQEND
  8
0
  0
POLYLINE
  8
FOREGROUND
  6
CONTINUOUS
 66
     1
 40
0.000000
 41
0.000000
  0
VERTEX
  8
FOREGROUND
  6
CONTINUOUS
 10
0.000000
 20
8.775800
  0
VERTEX
  8
FOREGROUND
  6
CONTINUOUS
 10
8.499920
 20
8.775800
  0
VERTEX
  8
FOREGROUND
  6
CONTINUOUS
 10
8.499920
 20
-2.224200
  0
VERTEX
  8
FOREGROUND
  6
CONTINUOUS
 10
0.000000
 20
-2.224200
  0
VERTEX
  8
FOREGROUND
  6
CONTINUOUS
 10
0.000000
 20
8.775800
  0
SEQEND
  8
0
  0
POLYLINE
  8
0
  6
CONTINUOUS
 66
     1
 40
0.014080
 41
0.014080
  0
VERTEX
  8
0
  6
CONTINUOUS
 10
7.166280
 20
7.917360
  0
VERTEX
  8
0
  6
CONTINUOUS
 10
7.121840
 20
7.884360
  0
VERTEX
  8
0
  6
CONTINUOUS
 10
7.076960
 20
7.855760
  0
VERTEX
  8
0
  6
CONTINUOUS
 10
7.031640
 20
7.832000
  0
VERTEX
  8
0
  6
CONTINUOUS
 10
6.985880
 20
7.812200
  0
VERTEX
  8
0
  6
CONTINUOUS
 10
6.916800
 20
7.790200
  0
VERTEX
  8
0
  6
CONTINUOUS
 10
6.846840
 20
7.776120
  0
VERTEX
  8
0
  6
CONTINUOUS
 10
6.800640
 20
7.770840
  0
VERTEX
  8
0
  6
CONTINUOUS
 10
6.754440
 20
7.767760
  0
VERTEX
  8
0
  6
CONTINUOUS
 10
6.708240
 20
7.767760
  0
VERTEX
  8
0
  6
CONTINUOUS
 10
6.662920
 20
7.769520
  0
VERTEX
  8
0
  6
CONTINUOUS
 10
6.617600
 20
7.773040
  0
VERTEX
  8
0
  6
CONTINUOUS
 10
6.529160
 20
7.785360
  0
VERTEX
  8
0
  6
CONTINUOUS
 10
6.423120
 20
7.804720
  0
VERTEX
  8
0
  6
CONTINUOUS
 10
6.402000
 20
7.807360
  0
VERTEX
  8
0
  6
CONTINUOUS
 10
6.358880
 20
7.808240
  0
VERTEX
  8
0
  6
CONTINUOUS
 10
6.314880
 20
7.805160
  0
VERTEX
  8
0
  6
CONTINUOUS
 10
6.270440
 20
7.797680
  0
VERTEX
  8
0
  6
CONTINUOUS
 10
6.204440
 20
7.780960
  0
VERTEX
  8
0
  6
CONTINUOUS
 10
6.161320
 20
7.766000
  0
VERTEX
  8
0
  6
CONTINUOUS
 10
6.098840
 20
7.739160
  0
VERTEX
  8
0
  6
CONTINUOUS
 10
6.021400
 20
7.697800
  0
VERTEX
  8
0
  6
CONTINUOUS
 10
5.953640
 20
7.653360
  0
VERTEX
  8
0
  6
CONTINUOUS
 10
5.899080
 20
7.609360
  0
VERTEX
  8
0
  6
CONTINUOUS
 10
5.868280
 20
7.578560
  0
VERTEX
  8
0
  6
CONTINUOUS
 10
5.860360
 20
7.569320
  0
VERTEX
  8
0
  6
CONTINUOUS
 10
5.705920
 20
7.702200
  0
VERTEX
  8
0
  6
CONTINUOUS
 10
5.540920
 20
7.566240
  0
VERTEX
  8
0
  6
CONTINUOUS
 10
5.441480
 20
7.629600
  0
VERTEX
  8
0
  6
CONTINUOUS
 10
5.344680
 20
7.685920
  0
VERTEX
  8
0
  6
CONTINUOUS
 10
5.249200
 20
7.735200
  0
VERTEX
  8
0
  6
CONTINUOUS
 10
5.155480
 20
7.777440
  0
VERTEX
  8
0
  6
CONTINUOUS
 10
5.063520
 20
7.813520
  0
VERTEX
  8
0
  6
CONTINUOUS
 10
4.972000
 20
7.843440
  0
VERTEX
  8
0
  6
CONTINUOUS
 10
4.881800
 20
7.867200
  0
VERTEX
  8
0
  6
CONTINUOUS
 10
4.792040
 20
7.884800
  0
VERTEX
  8
0
  6
CONTINUOUS
 10
4.732200
 20
7.893600
  0
VERTEX
  8
0
  6
CONTINUOUS
 10
4.672360
 20
7.899760
  0
VERTEX
  8
0
  6
CONTINUOUS
 10
4.612520
 20
7.903720
  0
VERTEX
  8
0
  6
CONTINUOUS
 10
4.552680
 20
7.905480
  0
VERTEX
  8
0
  6
CONTINUOUS
 10
4.492400
 20
7.905040
  0
VERTEX
  8
0
  6
CONTINUOUS
 10
4.432120
 20
7.902400
  0
VERTEX
  8
0
  6
CONTINUOUS
 10
4.371400
 20
7.897560
  0
VERTEX
  8
0
  6
CONTINUOUS
 10
4.310240
 20
7.890520
  0
VERTEX
  8
0
  6
CONTINUOUS
 10
4.248640
 20
7.881720
  0
VERTEX
  8
0
  6
CONTINUOUS
 10
4.123240
 20
7.858400
  0
VERTEX
  8
0
  6
CONTINUOUS
 10
3.995200
 20
7.828040
  0
VERTEX
  8
0
  6
CONTINUOUS
 10
3.863200
 20
7.790640
  0
VERTEX
  8
0
  6
CONTINUOUS
 10
3.726800
 20
7.747520
  0
VERTEX
  8
0
  6
CONTINUOUS
 10
3.585560
 20
7.699120
  0
VERTEX
  8
0
  6
CONTINUOUS
 10
3.405600
 20
7.634880
  0
VERTEX
  8
0
  6
CONTINUOUS
 10
3.270960
 20
7.592640
  0
VERTEX
  8
0
  6
CONTINUOUS
 10
3.175480
 20
7.567120
  0
VERTEX
  8
0
  6
CONTINUOUS
 10
3.084400
 20
7.546000
  0
VERTEX
  8
0
  6
CONTINUOUS
 10
2.997280
 20
7.530160
  0
VERTEX
  8
0
  6
CONTINUOUS
 10
2.914120
 20
7.519160
  0
VERTEX
  8
0
  6
CONTINUOUS
 10
2.834480
 20
7.513000
  0
VERTEX
  8
0
  6
CONTINUOUS
 10
2.783000
 20
7.511680
  0
VERTEX
  8
0
  6
CONTINUOUS
 10
2.732840
 20
7.512120
  0
VERTEX
  8
0
  6
CONTINUOUS
 10
2.684000
 20
7.514760
  0
VERTEX
  8
0
  6
CONTINUOUS
 10
2.636040
 20
7.519600
  0
VERTEX
  8
0
  6
CONTINUOUS
 10
2.588960
 20
7.526640
  0
VERTEX
  8
0
  6
CONTINUOUS
 10
2.542760
 20
7.535440
  0
VERTEX
  8
0
  6
CONTINUOUS
 10
2.497440
 20
7.546000
  0
VERTEX
  8
0
  6
CONTINUOUS
 10
2.408120
 20
7.573720
  0
VERTEX
  8
0
  6
CONTINUOUS
 10
2.364120
 20
7.590440
  0
VERTEX
  8
0
  6
CONTINUOUS
 10
2.277000
 20
7.629600
  0
VERTEX
  8
0
  6
CONTINUOUS
 10
2.190320
 20
7.676680
  0
VERTEX
  8
0
  6
CONTINUOUS
 10
2.103640
 20
7.730800
  0
VERTEX
  8
0
  6
CONTINUOUS
 10
2.015200
 20
7.792400
  0
VERTEX
  8
0
  6
CONTINUOUS
 10
1.878360
 20
7.898440
  0
VERTEX
  8
0
  6
CONTINUOUS
 10
1.767920
 20
7.805160
  0
VERTEX
  8
0
  6
CONTINUOUS
 10
1.632840
 20
7.946840
  0
VERTEX
  8
0
  6
CONTINUOUS
 10
1.158960
 20
7.504200
  0
VERTEX
  8
0
  6
CONTINUOUS
 10
1.684760
 20
6.951120
  0
VERTEX
  8
0
  6
CONTINUOUS
 10
7.431160
 20
6.951120
  0
VERTEX
  8
0
  6
CONTINUOUS
 10
7.908120
 20
7.377480
  0
VERTEX
  8
0
  6
CONTINUOUS
 10
7.394200
 20
7.945080
  0
VERTEX
  8
0
  6
CONTINUOUS
 10
7.255160
 20
7.820120
  0
VERTEX
  8
0
  6
CONTINUOUS
 10
7.166280
 20
7.917360
  0
SEQEND
  8
0
  0
SOLID
  8
0
 62
    15
 10
4.306280
 20
3.499320
 11
4.948680
 21
3.135440
 12
4.152720
 22
3.311000
 13
4.795120
 23
2.947120
  0
POLYLINE
  8
0
  6
CONTINUOUS
 66
     1
 40
0.000000
 41
0.000000
  0
VERTEX
  8
0
  6
CONTINUOUS
 10
4.306280
 20
3.499320
  0
VERTEX
  8
0
  6
CONTINUOUS
 10
4.948680
 20
3.135440
  0
VERTEX
  8
0
  6
CONTINUOUS
 10
4.795120
 20
2.947120
  0
VERTEX
  8
0
  6
CONTINUOUS
 10
4.152720
 20
3.311000
  0
VERTEX
  8
0
  6
CONTINUOUS
 10
4.306280
 20
3.499320
  0
SEQEND
  8
0
  0
SOLID
  8
0
 62
    15
 10
2.251040
 20
1.199440
 11
2.893440
 21
0.835560
 12
1.485440
 22
1.207800
 13
2.127840
 23
0.843920
  0
POLYLINE
  8
0
  6
CONTINUOUS
 66
     1
 40
0.000000
 41
0.000000
  0
VERTEX
  8
0
  6
CONTINUOUS
 10
2.251040
 20
1.199440
  0
VERTEX
  8
0
  6
CONTINUOUS
 10
2.893440
 20
0.835560
  0
VERTEX
  8
0
  6
CONTINUOUS
 10
2.127840
 20
0.843920
  0
VERTEX
  8
0
  6
CONTINUOUS
 10
1.485440
 20
1.207800
  0
VERTEX
  8
0
  6
CONTINUOUS
 10
2.251040
 20
1.199440
  0
SEQEND
  8
0
  0
SOLID
  8
0
 62
    15
 10
6.163960
 20
6.073320
 11
6.806360
 21
5.709880
 12
6.167040
 22
5.425200
 13
6.809440
 23
5.061320
  0
POLYLINE
  8
0
  6
CONTINUOUS
 66
     1
 40
0.000000
 41
0.000000
  0
VERTEX
  8
0
  6
CONTINUOUS
 10
6.163960
 20
6.073320
  0
VERTEX
  8
0
  6
CONTINUOUS
 10
6.806360
 20
5.709880
  0
VERTEX
  8
0
  6
CONTINUOUS
 10
6.809440
 20
5.061320
  0
VERTEX
  8
0
  6
CONTINUOUS
 10
6.167040
 20
5.425200
  0
VERTEX
  8
0
  6
CONTINUOUS
 10
6.163960
 20
6.073320
  0
SEQEND
  8
0
  0
SOLID
  8
0
 62
    15
 10
6.167040
 20
5.425200
 11
6.809440
 21
5.061320
 12
5.971240
 22
5.422560
 13
6.613640
 23
5.058680
  0
POLYLINE
  8
0
  6
CONTINUOUS
 66
     1
 40
0.000000
 41
0.000000
  0
VERTEX
  8
0
  6
CONTINUOUS
 10
6.167040
 20
5.425200
  0
VERTEX
  8
0
  6
CONTINUOUS
 10
6.809440
 20
5.061320
  0
VERTEX
  8
0
  6
CONTINUOUS
 10
6.613640
 20
5.058680
  0
VERTEX
  8
0
  6
CONTINUOUS
 10
5.971240
 20
5.422560
  0
VERTEX
  8
0
  6
CONTINUOUS
 10
6.167040
 20
5.425200
  0
SEQEND
  8
0
  0
SOLID
  8
0
 62
    15
 10
5.971240
 20
5.422560
 11
6.613640
 21
5.058680
 12
5.964640
 22
5.277800
 13
6.607040
 23
4.914360
  0
POLYLINE
  8
0
  6
CONTINUOUS
 66
     1
 40
0.000000
 41
0.000000
  0
VERTEX
  8
0
  6
CONTINUOUS
 10
5.971240
 20
5.422560
  0
VERTEX
  8
0
  6
CONTINUOUS
 10
6.613640
 20
5.058680
  0
VERTEX
  8
0
  6
CONTINUOUS
 10
6.607040
 20
4.914360
  0
VERTEX
  8
0
  6
CONTINUOUS
 10
5.964640
 20
5.277800
  0
VERTEX
  8
0
  6
CONTINUOUS
 10
5.971240
 20
5.422560
  0
SEQEND
  8
0
  0
SOLID
  8
0
 62
    15
 10
5.964640
 20
5.277800
 11
6.607040
 21
4.914360
 12
5.740680
 22
5.238640
 13
6.382640
 23
4.874760
  0
POLYLINE
  8
0
  6
CONTINUOUS
 66
     1
 40
0.000000
 41
0.000000
  0
VERTEX
  8
0
  6
CONTINUOUS
 10
5.964640
 20
5.277800
  0
VERTEX
  8
0
  6
CONTINUOUS
 10
6.607040
 20
4.914360
  0
VERTEX
  8
0
  6
CONTINUOUS
 10
6.382640
 20
4.874760
  0
VERTEX
  8
0
  6
CONTINUOUS
 10
5.740680
 20
5.238640
  0
VERTEX
  8
0
  6
CONTINUOUS
 10
5.964640
 20
5.277800
  0
SEQEND
  8
0
  0
SOLID
  8
0
 62
    15
 10
5.740680
 20
5.238640
 11
6.382640
 21
4.874760
 12
5.542240
 22
5.184520
 13
6.184640
 23
4.820640
  0
POLYLINE
  8
0
  6
CONTINUOUS
 66
     1
 40
0.000000
 41
0.000000
  0
VERTEX
  8
0
  6
CONTINUOUS
 10
5.740680
 20
5.238640
  0
VERTEX
  8
0
  6
CONTINUOUS
 10
6.382640
 20
4.874760
  0
VERTEX
  8
0
  6
CONTINUOUS
 10
6.184640
 20
4.820640
  0
VERTEX
  8
0
  6
CONTINUOUS
 10
5.542240
 20
5.184520
  0
VERTEX
  8
0
  6
CONTINUOUS
 10
5.740680
 20
5.238640
  0
SEQEND
  8
0
  0
SOLID
  8
0
 62
    15
 10
5.542240
 20
5.184520
 11
6.184640
 21
4.820640
 12
5.366240
 22
5.110160
 13
6.008640
 23
4.746280
  0
POLYLINE
  8
0
  6
CONTINUOUS
 66
     1
 40
0.000000
 41
0.000000
  0
VERTEX
  8
0
  6
CONTINUOUS
 10
5.542240
 20
5.184520
  0
VERTEX
  8
0
  6
CONTINUOUS
 10
6.184640
 20
4.820640
  0
VERTEX
  8
0
  6
CONTINUOUS
 10
6.008640
 20
4.746280
  0
VERTEX
  8
0
  6
CONTINUOUS
 10
5.366240
 20
5.110160
  0
VERTEX
  8
0
  6
CONTINUOUS
 10
5.542240
 20
5.184520
  0
SEQEND
  8
0
  0
SOLID
  8
0
 62
    15
 10
5.366240
 20
5.110160
 11
6.008640
 21
4.746280
 12
5.208720
 22
5.009400
 13
5.851120
 23
4.645520
  0
POLYLINE
  8
0
  6
CONTINUOUS
 66
     1
 40
0.000000
 41
0.000000
  0
VERTEX
  8
0
  6
CONTINUOUS
 10
5.366240
 20
5.110160
  0
VERTEX
  8
0
  6
CONTINUOUS
 10
6.008640
 20
4.746280
  0
VERTEX
  8
0
  6
CONTINUOUS
 10
5.851120
 20
4.645520
  0
VERTEX
  8
0
  6
CONTINUOUS
 10
5.208720
 20
5.009400
  0
VERTEX
  8
0
  6
CONTINUOUS
 10
5.366240
 20
5.110160
  0
SEQEND
  8
0
  0
SOLID
  8
0
 62
    15
 10
5.208720
 20
5.009400
 11
5.851120
 21
4.645520
 12
5.065720
 22
4.876960
 13
5.708120
 23
4.513520
  0
POLYLINE
  8
0
  6
CONTINUOUS
 66
     1
 40
0.000000
 41
0.000000
  0
VERTEX
  8
0
  6
CONTINUOUS
 10
5.208720
 20
5.009400
  0
VERTEX
  8
0
  6
CONTINUOUS
 10
5.851120
 20
4.645520
  0
VERTEX
  8
0
  6
CONTINUOUS
 10
5.708120
 20
4.513520
  0
VERTEX
  8
0
  6
CONTINUOUS
 10
5.065720
 20
4.876960
  0
VERTEX
  8
0
  6
CONTINUOUS
 10
5.208720
 20
5.009400
  0
SEQEND
  8
0
  0
SOLID
  8
0
 62
    15
 10
5.065720
 20
4.876960
 11
5.708120
 21
4.513520
 12
4.933720
 22
4.707120
 13
5.576120
 23
4.343680
  0
POLYLINE
  8
0
  6
CONTINUOUS
 66
     1
 40
0.000000
 41
0.000000
  0
VERTEX
  8
0
  6
CONTINUOUS
 10
5.065720
 20
4.876960
  0
VERTEX
  8
0
  6
CONTINUOUS
 10
5.708120
 20
4.513520
  0
VERTEX
  8
0
  6
CONTINUOUS
 10
5.576120
 20
4.343680
  0
VERTEX
  8
0
  6
CONTINUOUS
 10
4.933720
 20
4.707120
  0
VERTEX
  8
0
  6
CONTINUOUS
 10
5.065720
 20
4.876960
  0
SEQEND
  8
0
  0
SOLID
  8
0
 62
    15
 10
4.933720
 20
4.707120
 11
5.576120
 21
4.343680
 12
4.809200
 22
4.494160
 13
5.451600
 23
4.130280
  0
POLYLINE
  8
0
  6
CONTINUOUS
 66
     1
 40
0.000000
 41
0.000000
  0
VERTEX
  8
0
  6
CONTINUOUS
 10
4.933720
 20
4.707120
  0
VERTEX
  8
0
  6
CONTINUOUS
 10
5.576120
 20
4.343680
  0
VERTEX
  8
0
  6
CONTINUOUS
 10
5.451600
 20
4.130280
  0
VERTEX
  8
0
  6
CONTINUOUS
 10
4.809200
 20
4.494160
  0
VERTEX
  8
0
  6
CONTINUOUS
 10
4.933720
 20
4.707120
  0
SEQEND
  8
0
  0
SOLID
  8
0
 62
    15
 10
4.809200
 20
4.494160
 11
5.451600
 21
4.130280
 12
4.688200
 22
4.231920
 13
5.330600
 23
3.868480
  0
POLYLINE
  8
0
  6
CONTINUOUS
 66
     1
 40
0.000000
 41
0.000000
  0
VERTEX
  8
0
  6
CONTINUOUS
 10
4.809200
 20
4.494160
  0
VERTEX
  8
0
  6
CONTINUOUS
 10
5.451600
 20
4.130280
  0
VERTEX
  8
0
  6
CONTINUOUS
 10
5.330600
 20
3.868480
  0
VERTEX
  8
0
  6
CONTINUOUS
 10
4.688200
 20
4.231920
  0
VERTEX
  8
0
  6
CONTINUOUS
 10
4.809200
 20
4.494160
  0
SEQEND
  8
0
  0
SOLID
  8
0
 62
    15
 10
4.688200
 20
4.231920
 11
5.330600
 21
3.868480
 12
4.567640
 22
3.958680
 13
5.209600
 23
3.594800
  0
POLYLINE
  8
0
  6
CONTINUOUS
 66
     1
 40
0.000000
 41
0.000000
  0
VERTEX
  8
0
  6
CONTINUOUS
 10
4.688200
 20
4.231920
  0
VERTEX
  8
0
  6
CONTINUOUS
 10
5.330600
 20
3.868480
  0
VERTEX
  8
0
  6
CONTINUOUS
 10
5.209600
 20
3.594800
  0
VERTEX
  8
0
  6
CONTINUOUS
 10
4.567640
 20
3.958680
  0
VERTEX
  8
0
  6
CONTINUOUS
 10
4.688200
 20
4.231920
  0
SEQEND
  8
0
  0
SOLID
  8
0
 62
    15
 10
4.567640
 20
3.958680
 11
5.209600
 21
3.594800
 12
4.442240
 22
3.714480
 13
5.084640
 23
3.351040
  0
POLYLINE
  8
0
  6
CONTINUOUS
 66
     1
 40
0.000000
 41
0.000000
  0
VERTEX
  8
0
  6
CONTINUOUS
 10
4.567640
 20
3.958680
  0
VERTEX
  8
0
  6
CONTINUOUS
 10
5.209600
 20
3.594800
  0
VERTEX
  8
0
  6
CONTINUOUS
 10
5.084640
 20
3.351040
  0
VERTEX
  8
0
  6
CONTINUOUS
 10
4.442240
 20
3.714480
  0
VERTEX
  8
0
  6
CONTINUOUS
 10
4.567640
 20
3.958680
  0
SEQEND
  8
0
  0
SOLID
  8
0
 62
    15
 10
4.442240
 20
3.714480
 11
5.084640
 21
3.351040
 12
4.306280
 22
3.499320
 13
4.948680
 23
3.135440
  0
POLYLINE
  8
0
  6
CONTINUOUS
 66
     1
 40
0.000000
 41
0.000000
  0
VERTEX
  8
0
  6
CONTINUOUS
 10
4.442240
 20
3.714480
  0
VERTEX
  8
0
  6
CONTINUOUS
 10
5.084640
 20
3.351040
  0
VERTEX
  8
0
  6
CONTINUOUS
 10
4.948680
 20
3.135440
  0
VERTEX
  8
0
  6
CONTINUOUS
 10
4.306280
 20
3.499320
  0
VERTEX
  8
0
  6
CONTINUOUS
 10
4.442240
 20
3.714480
  0
SEQEND
  8
0
  0
SOLID
  8
0
 62
    15
 10
2.253680
 20
1.386000
 11
2.896080
 21
1.022560
 12
2.251040
 22
1.199440
 13
2.893440
 23
0.835560
  0
POLYLINE
  8
0
  6
CONTINUOUS
 66
     1
 40
0.000000
 41
0.000000
  0
VERTEX
  8
0
  6
CONTINUOUS
 10
2.253680
 20
1.386000
  0
VERTEX
  8
0
  6
CONTINUOUS
 10
2.896080
 20
1.022560
  0
VERTEX
  8
0
  6
CONTINUOUS
 10
2.893440
 20
0.835560
  0
VERTEX
  8
0
  6
CONTINUOUS
 10
2.251040
 20
1.199440
  0
VERTEX
  8
0
  6
CONTINUOUS
 10
2.253680
 20
1.386000
  0
SEQEND
  8
0
  0
SOLID
  8
0
 62
    15
 10
4.152720
 20
3.311000
 11
4.795120
 21
2.947120
 12
3.974960
 22
3.149520
 13
4.617360
 23
2.785640
  0
POLYLINE
  8
0
  6
CONTINUOUS
 66
     1
 40
0.000000
 41
0.000000
  0
VERTEX
  8
0
  6
CONTINUOUS
 10
4.152720
 20
3.311000
  0
VERTEX
  8
0
  6
CONTINUOUS
 10
4.795120
 20
2.947120
  0
VERTEX
  8
0
  6
CONTINUOUS
 10
4.617360
 20
2.785640
  0
VERTEX
  8
0
  6
CONTINUOUS
 10
3.974960
 20
3.149520
  0
VERTEX
  8
0
  6
CONTINUOUS
 10
4.152720
 20
3.311000
  0
SEQEND
  8
0
  0
SOLID
  8
0
 62
    15
 10
3.974960
 20
3.149520
 11
4.617360
 21
2.785640
 12
3.766840
 22
3.014000
 13
4.409240
 23
2.650120
  0
POLYLINE
  8
0
  6
CONTINUOUS
 66
     1
 40
0.000000
 41
0.000000
  0
VERTEX
  8
0
  6
CONTINUOUS
 10
3.974960
 20
3.149520
  0
VERTEX
  8
0
  6
CONTINUOUS
 10
4.617360
 20
2.785640
  0
VERTEX
  8
0
  6
CONTINUOUS
 10
4.409240
 20
2.650120
  0
VERTEX
  8
0
  6
CONTINUOUS
 10
3.766840
 20
3.014000
  0
VERTEX
  8
0
  6
CONTINUOUS
 10
3.974960
 20
3.149520
  0
SEQEND
  8
0
  0
SOLID
  8
0
 62
    15
 10
3.766840
 20
3.014000
 11
4.409240
 21
2.650120
 12
3.521320
 22
2.903120
 13
4.163720
 23
2.539240
  0
POLYLINE
  8
0
  6
CONTINUOUS
 66
     1
 40
0.000000
 41
0.000000
  0
VERTEX
  8
0
  6
CONTINUOUS
 10
3.766840
 20
3.014000
  0
VERTEX
  8
0
  6
CONTINUOUS
 10
4.409240
 20
2.650120
  0
VERTEX
  8
0
  6
CONTINUOUS
 10
4.163720
 20
2.539240
  0
VERTEX
  8
0
  6
CONTINUOUS
 10
3.521320
 20
2.903120
  0
VERTEX
  8
0
  6
CONTINUOUS
 10
3.766840
 20
3.014000
  0
SEQEND
  8
0
  0
SOLID
  8
0
 62
    15
 10
3.521320
 20
2.903120
 11
4.163720
 21
2.539240
 12
3.232240
 22
2.816440
 13
3.874640
 23
2.452560
  0
POLYLINE
  8
0
  6
CONTINUOUS
 66
     1
 40
0.000000
 41
0.000000
  0
VERTEX
  8
0
  6
CONTINUOUS
 10
3.521320
 20
2.903120
  0
VERTEX
  8
0
  6
CONTINUOUS
 10
4.163720
 20
2.539240
  0
VERTEX
  8
0
  6
CONTINUOUS
 10
3.874640
 20
2.452560
  0
VERTEX
  8
0
  6
CONTINUOUS
 10
3.232240
 20
2.816440
  0
VERTEX
  8
0
  6
CONTINUOUS
 10
3.521320
 20
2.903120
  0
SEQEND
  8
0
  0
SOLID
  8
0
 62
    15
 10
3.232240
 20
2.816440
 11
3.874640
 21
2.452560
 12
3.219920
 22
2.603040
 13
3.861880
 23
2.239160
  0
POLYLINE
  8
0
  6
CONTINUOUS
 66
     1
 40
0.000000
 41
0.000000
  0
VERTEX
  8
0
  6
CONTINUOUS
 10
3.232240
 20
2.816440
  0
VERTEX
  8
0
  6
CONTINUOUS
 10
3.874640
 20
2.452560
  0
VERTEX
  8
0
  6
CONTINUOUS
 10
3.861880
 20
2.239160
  0
VERTEX
  8
0
  6
CONTINUOUS
 10
3.219920
 20
2.603040
  0
VERTEX
  8
0
  6
CONTINUOUS
 10
3.232240
 20
2.816440
  0
SEQEND
  8
0
  0
SOLID
  8
0
 62
    15
 10
3.219920
 20
2.603040
 11
3.861880
 21
2.239160
 12
3.017520
 22
2.579720
 13
3.659920
 23
2.216280
  0
POLYLINE
  8
0
  6
CONTINUOUS
 66
     1
 40
0.000000
 41
0.000000
  0
VERTEX
  8
0
  6
CONTINUOUS
 10
3.219920
 20
2.603040
  0
VERTEX
  8
0
  6
CONTINUOUS
 10
3.861880
 20
2.239160
  0
VERTEX
  8
0
  6
CONTINUOUS
 10
3.659920
 20
2.216280
  0
VERTEX
  8
0
  6
CONTINUOUS
 10
3.017520
 20
2.579720
  0
VERTEX
  8
0
  6
CONTINUOUS
 10
3.219920
 20
2.603040
  0
SEQEND
  8
0
  0
SOLID
  8
0
 62
    15
 10
3.017520
 20
2.579720
 11
3.659920
 21
2.216280
 12
3.015320
 22
2.454320
 13
3.657720
 23
2.090440
  0
POLYLINE
  8
0
  6
CONTINUOUS
 66
     1
 40
0.000000
 41
0.000000
  0
VERTEX
  8
0
  6
CONTINUOUS
 10
3.017520
 20
2.579720
  0
VERTEX
  8
0
  6
CONTINUOUS
 10
3.659920
 20
2.216280
  0
VERTEX
  8
0
  6
CONTINUOUS
 10
3.657720
 20
2.090440
  0
VERTEX
  8
0
  6
CONTINUOUS
 10
3.015320
 20
2.454320
  0
VERTEX
  8
0
  6
CONTINUOUS
 10
3.017520
 20
2.579720
  0
SEQEND
  8
0
  0
SOLID
  8
0
 62
    15
 10
3.015320
 20
2.454320
 11
3.657720
 21
2.090440
 12
2.979680
 22
2.289760
 13
3.622080
 23
1.925880
  0
POLYLINE
  8
0
  6
CONTINUOUS
 66
     1
 40
0.000000
 41
0.000000
  0
VERTEX
  8
0
  6
CONTINUOUS
 10
3.015320
 20
2.454320
  0
VERTEX
  8
0
  6
CONTINUOUS
 10
3.657720
 20
2.090440
  0
VERTEX
  8
0
  6
CONTINUOUS
 10
3.622080
 20
1.925880
  0
VERTEX
  8
0
  6
CONTINUOUS
 10
2.979680
 20
2.289760
  0
VERTEX
  8
0
  6
CONTINUOUS
 10
3.015320
 20
2.454320
  0
SEQEND
  8
0
  0
SOLID
  8
0
 62
    15
 10
2.979680
 20
2.289760
 11
3.622080
 21
1.925880
 12
2.906200
 22
2.123880
 13
3.548600
 23
1.760000
  0
POLYLINE
  8
0
  6
CONTINUOUS
 66
     1
 40
0.000000
 41
0.000000
  0
VERTEX
  8
0
  6
CONTINUOUS
 10
2.979680
 20
2.289760
  0
VERTEX
  8
0
  6
CONTINUOUS
 10
3.622080
 20
1.925880
  0
VERTEX
  8
0
  6
CONTINUOUS
 10
3.548600
 20
1.760000
  0
VERTEX
  8
0
  6
CONTINUOUS
 10
2.906200
 20
2.123880
  0
VERTEX
  8
0
  6
CONTINUOUS
 10
2.979680
 20
2.289760
  0
SEQEND
  8
0
  0
SOLID
  8
0
 62
    15
 10
2.906200
 20
2.123880
 11
3.548600
 21
1.760000
 12
2.790920
 22
1.994080
 13
3.433320
 23
1.630200
  0
POLYLINE
  8
0
  6
CONTINUOUS
 66
     1
 40
0.000000
 41
0.000000
  0
VERTEX
  8
0
  6
CONTINUOUS
 10
2.906200
 20
2.123880
  0
VERTEX
  8
0
  6
CONTINUOUS
 10
3.548600
 20
1.760000
  0
VERTEX
  8
0
  6
CONTINUOUS
 10
3.433320
 20
1.630200
  0
VERTEX
  8
0
  6
CONTINUOUS
 10
2.790920
 20
1.994080
  0
VERTEX
  8
0
  6
CONTINUOUS
 10
2.906200
 20
2.123880
  0
SEQEND
  8
0
  0
SOLID
  8
0
 62
    15
 10
2.790920
 20
1.994080
 11
3.433320
 21
1.630200
 12
2.652320
 22
1.885840
 13
3.294720
 23
1.521960
  0
POLYLINE
  8
0
  6
CONTINUOUS
 66
     1
 40
0.000000
 41
0.000000
  0
VERTEX
  8
0
  6
CONTINUOUS
 10
2.790920
 20
1.994080
  0
VERTEX
  8
0
  6
CONTINUOUS
 10
3.433320
 20
1.630200
  0
VERTEX
  8
0
  6
CONTINUOUS
 10
3.294720
 20
1.521960
  0
VERTEX
  8
0
  6
CONTINUOUS
 10
2.652320
 20
1.885840
  0
VERTEX
  8
0
  6
CONTINUOUS
 10
2.790920
 20
1.994080
  0
SEQEND
  8
0
  0
SOLID
  8
0
 62
    15
 10
2.652320
 20
1.885840
 11
3.294720
 21
1.521960
 12
2.526480
 22
1.753400
 13
3.168880
 23
1.389520
  0
POLYLINE
  8
0
  6
CONTINUOUS
 66
     1
 40
0.000000
 41
0.000000
  0
VERTEX
  8
0
  6
CONTINUOUS
 10
2.652320
 20
1.885840
  0
VERTEX
  8
0
  6
CONTINUOUS
 10
3.294720
 20
1.521960
  0
VERTEX
  8
0
  6
CONTINUOUS
 10
3.168880
 20
1.389520
  0
VERTEX
  8
0
  6
CONTINUOUS
 10
2.526480
 20
1.753400
  0
VERTEX
  8
0
  6
CONTINUOUS
 10
2.652320
 20
1.885840
  0
SEQEND
  8
0
  0
SOLID
  8
0
 62
    15
 10
2.526480
 20
1.753400
 11
3.168880
 21
1.389520
 12
2.431000
 22
1.588840
 13
3.073400
 23
1.224960
  0
POLYLINE
  8
0
  6
CONTINUOUS
 66
     1
 40
0.000000
 41
0.000000
  0
VERTEX
  8
0
  6
CONTINUOUS
 10
2.526480
 20
1.753400
  0
VERTEX
  8
0
  6
CONTINUOUS
 10
3.168880
 20
1.389520
  0
VERTEX
  8
0
  6
CONTINUOUS
 10
3.073400
 20
1.224960
  0
VERTEX
  8
0
  6
CONTINUOUS
 10
2.431000
 20
1.588840
  0
VERTEX
  8
0
  6
CONTINUOUS
 10
2.526480
 20
1.753400
  0
SEQEND
  8
0
  0
SOLID
  8
0
 62
    15
 10
2.431000
 20
1.588840
 11
3.073400
 21
1.224960
 12
2.385680
 22
1.385120
 13
3.028080
 23
1.021240
  0
POLYLINE
  8
0
  6
CONTINUOUS
 66
     1
 40
0.000000
 41
0.000000
  0
VERTEX
  8
0
  6
CONTINUOUS
 10
2.431000
 20
1.588840
  0
VERTEX
  8
0
  6
CONTINUOUS
 10
3.073400
 20
1.224960
  0
VERTEX
  8
0
  6
CONTINUOUS
 10
3.028080
 20
1.021240
  0
VERTEX
  8
0
  6
CONTINUOUS
 10
2.385680
 20
1.385120
  0
VERTEX
  8
0
  6
CONTINUOUS
 10
2.431000
 20
1.588840
  0
SEQEND
  8
0
  0
SOLID
  8
0
 62
    15
 10
2.385680
 20
1.385120
 11
3.028080
 21
1.021240
 12
2.253680
 22
1.386000
 13
2.896080
 23
1.022560
  0
POLYLINE
  8
0
  6
CONTINUOUS
 66
     1
 40
0.000000
 41
0.000000
  0
VERTEX
  8
0
  6
CONTINUOUS
 10
2.385680
 20
1.385120
  0
VERTEX
  8
0
  6
CONTINUOUS
 10
3.028080
 20
1.021240
  0
VERTEX
  8
0
  6
CONTINUOUS
 10
2.896080
 20
1.022560
  0
VERTEX
  8
0
  6
CONTINUOUS
 10
2.253680
 20
1.386000
  0
VERTEX
  8
0
  6
CONTINUOUS
 10
2.385680
 20
1.385120
  0
SEQEND
  8
0
  0
POLYLINE
  8
0
  6
CONTINUOUS
 66
     1
 40
0.000000
 41
0.000000
  0
VERTEX
  8
0
  6
CONTINUOUS
 10
2.253680
 20
1.386000
  0
VERTEX
  8
0
  6
CONTINUOUS
 10
2.251040
 20
1.199440
  0
VERTEX
  8
0
  6
CONTINUOUS
 10
1.485440
 20
1.207800
  0
VERTEX
  8
0
  6
CONTINUOUS
 10
1.496440
 20
1.847560
  0
VERTEX
  8
0
  6
CONTINUOUS
 10
5.401000
 20
6.063640
  0
VERTEX
  8
0
  6
CONTINUOUS
 10
6.163960
 20
6.073320
  0
VERTEX
  8
0
  6
CONTINUOUS
 10
6.167040
 20
5.425200
  0
VERTEX
  8
0
  6
CONTINUOUS
 10
5.971240
 20
5.422560
  0
VERTEX
  8
0
  6
CONTINUOUS
 10
5.964640
 20
5.277800
  0
VERTEX
  8
0
  6
CONTINUOUS
 10
5.740680
 20
5.238640
  0
VERTEX
  8
0
  6
CONTINUOUS
 10
5.542240
 20
5.184520
  0
VERTEX
  8
0
  6
CONTINUOUS
 10
5.366240
 20
5.110160
  0
VERTEX
  8
0
  6
CONTINUOUS
 10
5.208720
 20
5.009400
  0
VERTEX
  8
0
  6
CONTINUOUS
 10
5.065720
 20
4.876960
  0
VERTEX
  8
0
  6
CONTINUOUS
 10
4.933720
 20
4.707120
  0
VERTEX
  8
0
  6
CONTINUOUS
 10
4.809200
 20
4.494160
  0
VERTEX
  8
0
  6
CONTINUOUS
 10
4.688200
 20
4.231920
  0
VERTEX
  8
0
  6
CONTINUOUS
 10
4.567640
 20
3.958680
  0
VERTEX
  8
0
  6
CONTINUOUS
 10
4.442240
 20
3.714480
  0
VERTEX
  8
0
  6
CONTINUOUS
 10
4.306280
 20
3.499320
  0
VERTEX
  8
0
  6
CONTINUOUS
 10
4.152720
 20
3.311000
  0
VERTEX
  8
0
  6
CONTINUOUS
 10
3.974960
 20
3.149520
  0
VERTEX
  8
0
  6
CONTINUOUS
 10
3.766840
 20
3.014000
  0
VERTEX
  8
0
  6
CONTINUOUS
 10
3.521320
 20
2.903120
  0
VERTEX
  8
0
  6
CONTINUOUS
 10
3.232240
 20
2.816440
  0
VERTEX
  8
0
  6
CONTINUOUS
 10
3.219920
 20
2.603040
  0
VERTEX
  8
0
  6
CONTINUOUS
 10
3.017520
 20
2.579720
  0
VERTEX
  8
0
  6
CONTINUOUS
 10
3.015320
 20
2.454320
  0
VERTEX
  8
0
  6
CONTINUOUS
 10
2.979680
 20
2.289760
  0
VERTEX
  8
0
  6
CONTINUOUS
 10
2.906200
 20
2.123880
  0
VERTEX
  8
0
  6
CONTINUOUS
 10
2.790920
 20
1.994080
  0
VERTEX
  8
0
  6
CONTINUOUS
 10
2.652320
 20
1.885840
  0
VERTEX
  8
0
  6
CONTINUOUS
 10
2.526480
 20
1.753400
  0
VERTEX
  8
0
  6
CONTINUOUS
 10
2.431000
 20
1.588840
  0
VERTEX
  8
0
  6
CONTINUOUS
 10
2.385680
 20
1.385120
  0
VERTEX
  8
0
  6
CONTINUOUS
 10
2.253680
 20
1.386000
  0
SEQEND
  8
0
  0
TEXT
  8
0
 10
3.544200
 20
1.053800
 40
0.138085
  1
BA  764
 41
1.000000
  7
SN0
 71
     0
 72
     5
 11
4.133524
 21
1.053800
  0
TEXT
  8
0
 10
3.457520
 20
0.862400
 40
0.138085
  1
1" x 6-3/4"
 41
1.000000
  7
SN0
 71
     0
 72
     5
 11
4.218180
 21
0.862400
  0
ENDSEC
  0
EOF
